  0
SECTION
  2
HEADER
  9
$ACADVER
  1
AC1009
  9
$DWGCODEPAGE
  3
dos932
  9
$INSBASE
 10
0.0
 20
0.0
 30
0.0
  9
$EXTMIN
 10
-398.35050807841071
 20
-342.86497840991427
 30
-0.0015257624927045
  9
$EXTMAX
 10
1003.807079412283
 20
585.75440254732348
 30
0.0022888765696933
  9
$LIMMIN
 10
-2970.0
 20
-2100.0
  9
$LIMMAX
 10
2970.0
 20
2100.0
  9
$ORTHOMODE
 70
     1
  9
$REGENMODE
 70
     1
  9
$FILLMODE
 70
     1
  9
$QTEXTMODE
 70
     0
  9
$MIRRTEXT
 70
     0
  9
$LTSCALE
 40
20.0
  9
$ATTMODE
 70
     1
  9
$TEXTSIZE
 40
64.0
  9
$TRACEWID
 40
0.05
  9
$TEXTSTYLE
  7
STANDARD
  9
$CLAYER
  8
SIZE
  9
$CELTYPE
  6
CONTINUOUS
  9
$CECOLOR
 62
     7
  9
$DIMSCALE
 40
1.0
  9
$DIMASZ
 40
12.0
  9
$DIMEXO
 40
20.0
  9
$DIMDLI
 40
200.0
  9
$DIMRND
 40
0.0
  9
$DIMDLE
 40
0.0
  9
$DIMEXE
 40
20.0
  9
$DIMTP
 40
0.0
  9
$DIMTM
 40
0.0
  9
$DIMTXT
 40
64.0
  9
$DIMCEN
 40
0.09
  9
$DIMTSZ
 40
0.0
  9
$DIMTOL
 70
     0
  9
$DIMLIM
 70
     0
  9
$DIMTIH
 70
     0
  9
$DIMTOH
 70
     0
  9
$DIMSE1
 70
     0
  9
$DIMSE2
 70
     0
  9
$DIMTAD
 70
     1
  9
$DIMZIN
 70
     8
  9
$DIMBLK
  1

  9
$DIMASO
 70
     1
  9
$DIMSHO
 70
     0
  9
$DIMPOST
  1

  9
$DIMAPOST
  1

  9
$DIMALT
 70
     0
  9
$DIMALTD
 70
     2
  9
$DIMALTF
 40
25.399999999999999
  9
$DIMLFAC
 40
1.0
  9
$DIMTOFL
 70
     1
  9
$DIMTVP
 40
0.0
  9
$DIMTIX
 70
     1
  9
$DIMSOXD
 70
     0
  9
$DIMSAH
 70
     0
  9
$DIMBLK1
  1

  9
$DIMBLK2
  1

  9
$DIMSTYLE
  2
STANDARD
  9
$DIMCLRD
 70
     7
  9
$DIMCLRE
 70
     7
  9
$DIMCLRT
 70
     7
  9
$DIMTFAC
 40
1.0
  9
$DIMGAP
 40
25.0
  9
$LUNITS
 70
     2
  9
$LUPREC
 70
     4
  9
$SKETCHINC
 40
0.1
  9
$FILLETRAD
 40
3.0
  9
$AUNITS
 70
     1
  9
$AUPREC
 70
     3
  9
$MENU
  1
ACAD
  9
$ELEVATION
 40
0.0
  9
$PELEVATION
 40
0.0
  9
$THICKNESS
 40
50.0
  9
$LIMCHECK
 70
     0
  9
$CHAMFERA
 40
0.0
  9
$CHAMFERB
 40
0.0
  9
$SKPOLY
 70
     0
  9
$TDCREATE
 40
2453019.62301037
  9
$TDUPDATE
 40
2458949.433009525
  9
$TDINDWG
 40
1.7131409838
  9
$TDUSRTIMER
 40
1.7131409838
  9
$USRTIMER
 70
     1
  9
$ANGBASE
 50
0.0
  9
$ANGDIR
 70
     0
  9
$PDMODE
 70
     3
  9
$PDSIZE
 40
-2.0
  9
$PLINEWID
 40
0.0
  9
$SPLFRAME
 70
     0
  9
$SPLINETYPE
 70
     6
  9
$SPLINESEGS
 70
     8
  9
$SURFTAB1
 70
     6
  9
$SURFTAB2
 70
     6
  9
$SURFTYPE
 70
     6
  9
$SURFU
 70
     6
  9
$SURFV
 70
     6
  9
$UCSNAME
  2

  9
$UCSORG
 10
0.0
 20
0.0
 30
0.0
  9
$UCSXDIR
 10
1.0
 20
0.0
 30
0.0
  9
$UCSYDIR
 10
0.0
 20
1.0
 30
0.0
  9
$PUCSNAME
  2

  9
$PUCSORG
 10
0.0
 20
0.0
 30
0.0
  9
$PUCSXDIR
 10
1.0
 20
0.0
 30
0.0
  9
$PUCSYDIR
 10
0.0
 20
1.0
 30
0.0
  9
$USERI1
 70
     0
  9
$USERI2
 70
     0
  9
$USERI3
 70
     0
  9
$USERI4
 70
     0
  9
$USERI5
 70
     0
  9
$USERR1
 40
20.0
  9
$USERR2
 40
0.0
  9
$USERR3
 40
0.0
  9
$USERR4
 40
0.0
  9
$USERR5
 40
0.0
  9
$WORLDVIEW
 70
     1
  9
$SHADEDGE
 70
     3
  9
$SHADEDIF
 70
    70
  9
$TILEMODE
 70
     1
  9
$MAXACTVP
 70
    48
  9
$PINSBASE
 10
0.0
 20
0.0
 30
0.0
  9
$PLIMCHECK
 70
     0
  9
$PEXTMIN
 10
-100000000000000000000.0
 20
-100000000000000000000.0
 30
-100000000000000000000.0
  9
$PEXTMAX
 10
100000000000000000000.0
 20
100000000000000000000.0
 30
100000000000000000000.0
  9
$PLIMMIN
 10
0.0
 20
0.0
  9
$PLIMMAX
 10
12.0
 20
9.0
  9
$UNITMODE
 70
     0
  9
$VISRETAIN
 70
     0
  9
$PLINEGEN
 70
     0
  9
$PSLTSCALE
 70
     0
  9
$TREEDEPTH
 70
  3020
  9
$ATTDIA
 70
     0
  9
$ATTREQ
 70
     1
  9
$BLIPMODE
 70
     1
  9
$COORDS
 70
     1
  9
$DRAGMODE
 70
     2
  9
$OSMODE
 70
     0
  9
$HANDLING
 70
     0
  9
$HANDSEED
  5
EE0D
  0
ENDSEC
  0
SECTION
  2
TABLES
  0
TABLE
  2
LTYPE
 70
     2
  0
LTYPE
  2
CONTINUOUS
 70
     0
  3
実線
 72
    65
 73
     0
 40
0.0
  0
LTYPE
  2
DASHDOT
 70
     0
  3
____ _ ____ _ ____ _ ____ _ ____ _ ____ _ ____
 72
    65
 73
     4
 40
5.5
 49
4.0
 49
-0.6
 49
0.3
 49
-0.6
  0
ENDTAB
  0
TABLE
  2
LAYER
 70
    12
  0
LAYER
  2
0
 70
     0
 62
     7
  6
CONTINUOUS
  0
LAYER
  2
BASIS
 70
     0
 62
     6
  6
DASHDOT
  0
LAYER
  2
OUTLINE
 70
     0
 62
     3
  6
CONTINUOUS
  0
LAYER
  2
DETAIL
 70
     0
 62
     5
  6
CONTINUOUS
  0
LAYER
  2
SIZE
 70
     0
 62
    30
  6
CONTINUOUS
  0
LAYER
  2
ARRANGE
 70
     0
 62
     1
  6
CONTINUOUS
  0
LAYER
  2
ETC
 70
     0
 62
    61
  6
CONTINUOUS
  0
LAYER
  2
FIX
 70
     0
 62
    11
  6
CONTINUOUS
  0
LAYER
  2
NOTE
 70
     0
 62
     4
  6
CONTINUOUS
  0
LAYER
  2
DEFPOINTS
 70
    64
 62
     7
  6
CONTINUOUS
  0
LAYER
  2
SERVICESPACE
 70
    64
 62
     2
  6
DASHDOT
  0
LAYER
  2
SYMBOLLINE
 70
    64
 62
    15
  6
CONTINUOUS
  0
ENDTAB
  0
TABLE
  2
STYLE
 70
     1
  0
STYLE
  2
STANDARD
 70
     0
 40
64.0
 41
0.9
 50
0.0
 71
     0
 42
64.0
  3
SIMPLEX.shx
  4
BIGFONT.shx
  0
ENDTAB
  0
TABLE
  2
APPID
 70
    19
  0
APPID
  2
ACAD
 70
     0
  0
APPID
  2
AUTOCAD_POSTSCRIPT_FIGURE
 70
     0
  0
APPID
  2
ACAD_EXEMPT_FROM_CAD_STANDARDS
 70
     0
  0
APPID
  2
ACAD_PSEXT
 70
     0
  0
APPID
  2
ACAUTHENVIRON
 70
     0
  0
APPID
  2
GENIUS_GENOENT_13
 70
     0
  0
APPID
  2
GENIUS_GENCFG_13
 70
     0
  0
APPID
  2
GENIUS_GENCFG0_13
 70
     0
  0
APPID
  2
GENIUS_GENCFG1_13
 70
     0
  0
APPID
  2
GENIUS_GENCFG2_13
 70
     0
  0
APPID
  2
GENIUS_GENCFG3_13
 70
     0
  0
APPID
  2
GENIUS_GENCFG4_13
 70
     0
  0
APPID
  2
GENIUS_GEVCFG0_13
 70
     0
  0
APPID
  2
CONTENTBLOCKICON
 70
     0
  0
APPID
  2
CONTENTBLOCKDESCRIPTION
 70
     0
  0
APPID
  2
ACAD_NAV_VCDISPLAY
 70
     0
  0
APPID
  2
ACAD_MLEADERVER
 70
     0
  0
APPID
  2
ACDBDYNAMICBLOCKTRUENAME
 70
     0
  0
APPID
  2
ACDBDYNAMICBLOCKGUID
 70
     0
  0
ENDTAB
  0
TABLE
  2
DIMSTYLE
 70
     1
  0
DIMSTYLE
  2
STANDARD
 70
     0
  3

  4

  5
_ORIGIN
  6

  7

 40
1.0
 41
12.0
 42
20.0
 43
200.0
 44
20.0
 45
0.0
 46
0.0
 47
0.0
 48
0.0
140
64.0
141
0.09
142
0.0
143
25.399999999999999
144
1.0
145
0.0
146
1.0
147
25.0
 71
     0
 72
     0
 73
     0
 74
     0
 75
     0
 76
     0
 77
     1
 78
     8
170
     0
171
     2
172
     1
173
     0
174
     1
175
     0
176
     7
177
     7
178
     7
  0
ENDTAB
  0
TABLE
  2
VIEW
 70
     1
  0
VIEW
  2
ALL
 70
     0
 40
4282.6198079999986
 10
0.0
 20
41.309904000000003
 41
5940.0
 11
0.0
 21
0.0
 31
1.0
 12
0.0
 22
0.0
 32
0.0
 42
50.0
 43
0.0
 44
0.0
 50
0.0
 71
     0
  0
ENDTAB
  0
TABLE
  2
UCS
 70
     0
  0
ENDTAB
  0
TABLE
  2
VPORT
 70
     1
  0
VPORT
  2
*ACTIVE
 70
     0
 10
0.0
 20
0.0
 11
1.0
 21
1.0
 12
302.72828566693619
 22
121.4447120687046
 13
0.0
 23
0.0
 14
1.0
 24
1.0
 15
0.0
 25
0.0
 16
0.0
 26
0.0
 36
1.0
 17
0.0
 27
0.0
 37
0.0
 40
934.77597353816986
 41
1.747787610619469
 42
50.0
 43
0.0
 44
0.0
 50
0.0
 51
0.0
 71
     0
 72
  1000
 73
     1
 74
     3
 75
     0
 76
     0
 77
     0
 78
     0
  0
ENDTAB
  0
ENDSEC
  0
SECTION
  2
BLOCKS
  0
BLOCK
  8
0
  2
_ORIGIN
 70
     0
 10
0.0
 20
0.0
 30
0.0
  3
_ORIGIN
  1
_ORIGIN
  0
CIRCLE
  8
0
  6
CONTINUOUS
 62
     7
 10
0.0
 20
0.0
 30
0.0
 40
0.5
  0
LINE
  8
0
  6
CONTINUOUS
 62
     7
 10
0.0
 20
0.0
 30
0.0
 11
-1.0
 21
0.0
 31
0.0
  0
ENDBLK
  8
0
  0
ENDSEC
  0
SECTION
  2
ENTITIES
  0
LINE
  8
BASIS
  6
DASHDOT
 62
     6
 10
185.64729899999989
 20
0.0
 30
0.0
 11
-79.336862999999994
 21
0.0
 31
0.0
  0
LINE
  8
DETAIL
  6
CONTINUOUS
 62
     5
 10
154.99999999999969
 20
-172.0
 30
0.0
 11
0.0
 21
-172.0
 31
0.0
  0
LINE
  8
DETAIL
  6
CONTINUOUS
 62
     5
 10
0.0
 20
-211.0
 30
0.0
 11
-25.0
 21
-211.0
 31
0.0
  0
LINE
  8
DETAIL
  6
CONTINUOUS
 62
     5
 10
0.0
 20
211.0
 30
0.0
 11
-25.0
 21
211.0
 31
0.0
  0
LINE
  8
NOTE
  6
CONTINUOUS
 62
     4
 10
0.0
 20
-190.0
 30
0.0
 11
-102.60401299999999
 21
-313.87313799999993
 31
0.0
  0
LINE
  8
NOTE
  6
CONTINUOUS
 62
     4
 10
-398.04249700000008
 20
-313.87313799999993
 30
0.0
 11
-102.60401299999999
 21
-313.87313799999993
 31
0.0
  0
LINE
  8
DETAIL
  6
CONTINUOUS
 62
     5
 10
0.0
 20
211.0
 30
0.0
 11
0.0
 21
166.5000049999999
 31
0.0
  0
CIRCLE
  8
ARRANGE
  6
CONTINUOUS
 62
     1
 10
0.0
 20
0.0
 30
0.0
 40
54.482759999999992
  0
LINE
  8
DETAIL
  6
CONTINUOUS
 62
     5
 10
0.0
 20
-166.5000049999999
 30
0.0
 11
0.0
 21
-211.0
 31
0.0
  0
LINE
  8
DETAIL
  6
CONTINUOUS
 62
     5
 10
0.0
 20
168.5000049999999
 30
0.0
 11
0.0
 21
-168.5000049999999
 31
0.0
  0
LINE
  8
DETAIL
  6
CONTINUOUS
 62
     5
 10
154.99999999999969
 20
172.0
 30
0.0
 11
154.99999999999969
 21
-172.0
 31
0.0
  0
LINE
  8
DETAIL
  6
CONTINUOUS
 62
     5
 10
-30.0
 20
206.0
 30
0.0
 11
-30.0
 21
-206.0
 31
0.0
  0
LINE
  8
NOTE
  6
CONTINUOUS
 62
     4
 10
-20.0
 20
-190.0
 30
0.0
 11
20.0
 21
-190.0
 31
0.0
  0
LINE
  8
NOTE
  6
CONTINUOUS
 62
     4
 10
0.0
 20
-170.0
 30
0.0
 11
0.0
 21
-210.0
 31
0.0
  0
TEXT
  8
NOTE
  6
CONTINUOUS
 62
     4
 10
-395.509818
 20
-287.60715199999993
 30
0.0
 40
64.0
  1
4-φ10
 41
0.9
  0
LINE
  8
NOTE
  6
CONTINUOUS
 62
     4
 10
-16.700012000000019
 20
-226.347072
 30
0.0
 11
0.0
 21
-190.0
 31
0.0
  0
LINE
  8
NOTE
  6
CONTINUOUS
 62
     4
 10
0.0
 20
-190.0
 30
0.0
 11
-32.636169999999993
 21
-213.1274809999999
 31
0.0
  0
LINE
  8
SIZE
  6
CONTINUOUS
 62
    30
 10
0.0
 20
231.0
 30
0.0
 11
0.0
 21
484.62637500000011
 31
0.0
  0
LINE
  8
SIZE
  6
CONTINUOUS
 62
    30
 10
-30.0
 20
226.0
 30
0.0
 11
-30.0
 21
484.62637500000011
 31
0.0
  0
LINE
  8
SIZE
  6
CONTINUOUS
 62
    30
 10
12.0
 20
464.62637500000011
 30
0.0
 11
24.0
 21
464.62637500000011
 31
0.0
  0
LINE
  8
SIZE
  6
CONTINUOUS
 62
    30
 10
-42.0
 20
464.62637500000011
 30
0.0
 11
-197.2571429999997
 21
464.62637500000011
 31
0.0
  0
LINE
  8
SIZE
  6
CONTINUOUS
 62
    30
 10
0.0
 20
464.62637500000011
 30
0.0
 11
-30.0
 21
464.62637500000011
 31
0.0
  0
CIRCLE
  8
SIZE
  6
CONTINUOUS
 62
    30
 10
0.0
 20
464.62637500000011
 30
0.0
 40
6.0
  0
LINE
  8
SIZE
  6
CONTINUOUS
 62
    30
 10
0.0
 20
464.62637500000011
 30
0.0
 11
12.0
 21
464.62637500000011
 31
0.0
  0
CIRCLE
  8
SIZE
  6
CONTINUOUS
 62
    30
 10
-30.0
 20
464.62637500000011
 30
0.0
 40
6.0
  0
LINE
  8
SIZE
  6
CONTINUOUS
 62
    30
 10
-30.0
 20
464.62637500000011
 30
0.0
 11
-42.0
 21
464.62637500000011
 31
0.0
  0
TEXT
  8
SIZE
  6
CONTINUOUS
 62
    30
 10
-172.2571424285714
 20
489.62637500000011
 30
0.0
 40
64.0
  1
30
 41
0.9
 72
     1
 11
-125.62857099999999
 21
489.62637500000011
 31
0.0
  0
LINE
  8
SIZE
  6
CONTINUOUS
 62
    30
 10
154.99999999999969
 20
190.0
 30
0.0
 11
154.99999999999969
 21
484.62637500000011
 31
0.0
  0
LINE
  8
SIZE
  6
CONTINUOUS
 62
    30
 10
0.0
 20
231.0
 30
0.0
 11
0.0
 21
484.62637500000011
 31
0.0
  0
LINE
  8
SIZE
  6
CONTINUOUS
 62
    30
 10
142.99999999999969
 20
464.62637500000011
 30
0.0
 11
12.0
 21
464.62637500000011
 31
0.0
  0
CIRCLE
  8
SIZE
  6
CONTINUOUS
 62
    30
 10
154.99999999999969
 20
464.62637500000011
 30
0.0
 40
6.0
  0
LINE
  8
SIZE
  6
CONTINUOUS
 62
    30
 10
154.99999999999969
 20
464.62637500000011
 30
0.0
 11
142.99999999999969
 21
464.62637500000011
 31
0.0
  0
CIRCLE
  8
SIZE
  6
CONTINUOUS
 62
    30
 10
0.0
 20
464.62637500000011
 30
0.0
 40
6.0
  0
LINE
  8
SIZE
  6
CONTINUOUS
 62
    30
 10
0.0
 20
464.62637500000011
 30
0.0
 11
12.0
 21
464.62637500000011
 31
0.0
  0
TEXT
  8
SIZE
  6
CONTINUOUS
 62
    30
 10
8.9285714285711464
 20
489.62637500000011
 30
0.0
 40
64.0
  1
155
 41
0.9
 72
     1
 11
77.499999999999716
 21
489.62637500000011
 31
0.0
  0
LINE
  8
SIZE
  6
CONTINUOUS
 62
    30
 10
-30.0
 20
226.0
 30
0.0
 11
-30.0
 21
343.03836200000001
 31
0.0
  0
LINE
  8
SIZE
  6
CONTINUOUS
 62
    30
 10
-66.0
 20
163.23662899999999
 30
0.0
 11
-66.0
 21
343.03836200000001
 31
0.0
  0
LINE
  8
SIZE
  6
CONTINUOUS
 62
    30
 10
-18.0
 20
323.03836200000001
 30
0.0
 11
-6.0
 21
323.03836200000001
 31
0.0
  0
LINE
  8
SIZE
  6
CONTINUOUS
 62
    30
 10
-78.0
 20
323.03836200000001
 30
0.0
 11
-230.514286
 21
323.03836200000001
 31
0.0
  0
LINE
  8
SIZE
  6
CONTINUOUS
 62
    30
 10
-30.0
 20
323.03836200000001
 30
0.0
 11
-66.0
 21
323.03836200000001
 31
0.0
  0
CIRCLE
  8
SIZE
  6
CONTINUOUS
 62
    30
 10
-30.0
 20
323.03836200000001
 30
0.0
 40
6.0
  0
LINE
  8
SIZE
  6
CONTINUOUS
 62
    30
 10
-30.0
 20
323.03836200000001
 30
0.0
 11
-18.0
 21
323.03836200000001
 31
0.0
  0
CIRCLE
  8
SIZE
  6
CONTINUOUS
 62
    30
 10
-66.0
 20
323.03836200000001
 30
0.0
 40
6.0
  0
LINE
  8
SIZE
  6
CONTINUOUS
 62
    30
 10
-66.0
 20
323.03836200000001
 30
0.0
 11
-78.0
 21
323.03836200000001
 31
0.0
  0
TEXT
  8
SIZE
  6
CONTINUOUS
 62
    30
 10
-205.5142858571428
 20
348.03836200000001
 30
0.0
 40
64.0
  1
36
 41
0.9
 72
     1
 11
-160.2571429999999
 21
348.03836200000001
 31
0.0
  0
ARC
  8
DETAIL
  6
CONTINUOUS
 62
     5
 10
-25.0
 20
206.0
 30
0.0
 40
5.0
 50
90.0
 51
180.0
  0
ARC
  8
DETAIL
  6
CONTINUOUS
 62
     5
 10
-25.0
 20
-206.0
 30
0.0
 40
5.0
 50
180.0
 51
270.0
  0
CIRCLE
  8
FIX
  6
CONTINUOUS
 62
    11
 10
0.0
 20
-189.9999949999999
 30
0.0
 40
5.0
  0
LINE
  8
SIZE
  6
CONTINUOUS
 62
    30
 10
20.0
 20
-211.0
 30
0.0
 11
666.77012310931741
 21
-211.0
 31
0.0
  0
LINE
  8
SIZE
  6
CONTINUOUS
 62
    30
 10
20.0
 20
211.0
 30
0.0
 11
665.50270669390648
 21
211.0
 31
0.0
  0
LINE
  8
SIZE
  6
CONTINUOUS
 62
    30
 10
642.62989146629548
 20
-199.0
 30
0.0
 11
642.62989146629548
 21
199.0
 31
0.0
  0
CIRCLE
  8
SIZE
  6
CONTINUOUS
 62
    30
 10
642.62989146629548
 20
-211.0
 30
0.0
 40
6.0
  0
LINE
  8
SIZE
  6
CONTINUOUS
 62
    30
 10
642.62989146629548
 20
-211.0
 30
0.0
 11
642.62989146629548
 21
-199.0
 31
0.0
  0
CIRCLE
  8
SIZE
  6
CONTINUOUS
 62
    30
 10
642.62989146629548
 20
211.0
 30
0.0
 40
6.0
  0
LINE
  8
SIZE
  6
CONTINUOUS
 62
    30
 10
642.62989146629548
 20
211.0
 30
0.0
 11
642.62989146629548
 21
199.0
 31
0.0
  0
TEXT
  8
SIZE
  6
CONTINUOUS
 62
    30
 10
617.62989146629548
 20
-110.5371428571428
 30
0.0
 40
64.0
  1
□422
 50
90.0
 41
0.9
 72
     1
 11
617.62989146629548
 21
0.0
 31
0.0
  0
LINE
  8
SIZE
  6
CONTINUOUS
 62
    30
 10
40.0
 20
-190.0
 30
0.0
 11
545.09839751583331
 21
-190.0
 31
0.0
  0
LINE
  8
SIZE
  6
CONTINUOUS
 62
    30
 10
40.0
 20
190.0
 30
0.0
 11
547.63322687046048
 21
190.0
 31
0.0
  0
LINE
  8
SIZE
  6
CONTINUOUS
 62
    30
 10
524.0745264662952
 20
-178.0
 30
0.0
 11
524.0745264662952
 21
178.0
 31
0.0
  0
CIRCLE
  8
SIZE
  6
CONTINUOUS
 62
    30
 10
524.0745264662952
 20
-190.0
 30
0.0
 40
6.0
  0
LINE
  8
SIZE
  6
CONTINUOUS
 62
    30
 10
524.0745264662952
 20
-190.0
 30
0.0
 11
524.0745264662952
 21
-178.0
 31
0.0
  0
CIRCLE
  8
SIZE
  6
CONTINUOUS
 62
    30
 10
524.0745264662952
 20
190.0
 30
0.0
 40
6.0
  0
LINE
  8
SIZE
  6
CONTINUOUS
 62
    30
 10
524.0745264662952
 20
190.0
 30
0.0
 11
524.0745264662952
 21
178.0
 31
0.0
  0
TEXT
  8
SIZE
  6
CONTINUOUS
 62
    30
 10
499.07452646629508
 20
-74.057142857142836
 30
0.0
 40
64.0
  1
380
 50
90.0
 41
0.9
 72
     1
 11
499.07452646629508
 21
0.0
 31
0.0
  0
LINE
  8
SIZE
  6
CONTINUOUS
 62
    30
 10
174.99999999999969
 20
-172.0
 30
0.0
 11
425.96150127697717
 21
-172.0
 31
0.0
  0
LINE
  8
SIZE
  6
CONTINUOUS
 62
    30
 10
174.99999999999969
 20
172.0
 30
0.0
 11
428.49633063160462
 21
172.0
 31
0.0
  0
LINE
  8
SIZE
  6
CONTINUOUS
 62
    30
 10
403.14805446629538
 20
-158.0
 30
0.0
 11
403.14805446629538
 21
160.0
 31
0.0
  0
CIRCLE
  8
SIZE
  6
CONTINUOUS
 62
    30
 10
403.14805446629538
 20
-172.0
 30
0.0
 40
6.0
  0
LINE
  8
SIZE
  6
CONTINUOUS
 62
    30
 10
403.14805446629538
 20
-172.0
 30
0.0
 11
403.14805446629538
 21
-158.0
 31
0.0
  0
CIRCLE
  8
SIZE
  6
CONTINUOUS
 62
    30
 10
403.14805446629538
 20
172.0
 30
0.0
 40
6.0
  0
LINE
  8
SIZE
  6
CONTINUOUS
 62
    30
 10
403.14805446629538
 20
172.0
 30
0.0
 11
403.14805446629538
 21
160.0
 31
0.0
  0
TEXT
  8
SIZE
  6
CONTINUOUS
 62
    30
 10
378.14805446629538
 20
-107.4547414204188
 30
0.0
 40
64.0
  1
□344
 50
90.0
 41
0.9
 72
     1
 11
378.14805446629538
 21
4.4538300081526359
 31
0.0
  0
LINE
  8
DETAIL
  6
CONTINUOUS
 62
     5
 10
154.99999999999969
 20
172.0
 30
0.0
 11
0.0
 21
172.0
 31
0.0
  0
LINE
  8
NOTE
  6
CONTINUOUS
 62
     4
 10
-20.0
 20
190.0
 30
0.0
 11
20.0
 21
190.0
 31
0.0
  0
LINE
  8
NOTE
  6
CONTINUOUS
 62
     4
 10
0.0
 20
170.0
 30
0.0
 11
0.0
 21
210.0
 31
0.0
  0
CIRCLE
  8
FIX
  6
CONTINUOUS
 62
    11
 10
0.0
 20
189.9999949999999
 30
0.0
 40
5.0
  0
ARC
  8
DETAIL
  6
CONTINUOUS
 62
     5
 10
45.293039999999912
 20
-10.849111999999989
 30
0.0
 40
109.2042979999997
 50
171.40933600000139
 51
226.41186500000131
  0
ARC
  8
DETAIL
  6
CONTINUOUS
 62
     5
 10
79.010141999999803
 20
-149.86179299999981
 30
0.0
 40
145.74770799999979
 50
148.05874699999799
 51
181.15279399999821
  0
ARC
  8
DETAIL
  6
CONTINUOUS
 62
     5
 10
220.69504300000011
 20
-278.51942000000003
 30
0.0
 40
313.69956400000001
 50
143.0496279999993
 51
156.3728790000026
  0
ARC
  8
DETAIL
  6
CONTINUOUS
 62
     5
 10
-45.040395999999987
 20
144.634646
 30
0.0
 40
21.006176
 50
140.19116300000181
 51
176.1839909999984
  0
LINE
  8
DETAIL
  6
CONTINUOUS
 62
     5
 10
-62.356705000000026
 20
129.26608999999999
 30
0.0
 11
-64.659257000000025
 21
132.48719199999991
 31
0.0
  0
LINE
  8
DETAIL
  6
CONTINUOUS
 62
     5
 10
-65.012443000000019
 20
133.36974599999999
 30
0.0
 11
-66.0
 21
140.34123
 31
0.0
  0
ARC
  8
DETAIL
  6
CONTINUOUS
 62
     5
 10
-63.032212000000023
 20
133.65025900000001
 30
0.0
 40
2.0
 50
188.0626840000032
 51
215.55846799999611
  0
LINE
  8
DETAIL
  6
CONTINUOUS
 62
     5
 10
-66.0
 20
146.03266399999981
 30
0.0
 11
-66.0
 21
143.23662899999999
 31
0.0
  0
LINE
  8
DETAIL
  6
CONTINUOUS
 62
     5
 10
-66.0
 20
143.23662899999999
 30
0.0
 11
-66.0
 21
140.34123
 31
0.0
  0
ARC
  8
DETAIL
  6
CONTINUOUS
 62
     5
 10
-89.952821999999969
 20
-142.06636799999981
 30
0.0
 40
268.1411819999999
 50
77.080210999998812
 51
81.8774859999955
  0
ARC
  8
DETAIL
  6
CONTINUOUS
 62
     5
 10
-57.840214000000003
 20
4.2312379999999621
 30
0.0
 40
5.0
 50
355.94631299999821
 51
165.7359150000012
  0
ARC
  8
DETAIL
  6
CONTINUOUS
 62
     5
 10
7.9289269999999874
 20
14.828450999999969
 30
0.0
 40
61.760230999999997
 50
190.2130780000021
 51
232.11113100000409
  0
LINE
  8
DETAIL
  6
CONTINUOUS
 62
     5
 10
-30.0
 20
175.23662899999999
 30
0.0
 11
-31.65573999999998
 21
175.20751799999991
 31
0.0
  0
ARC
  8
DETAIL
  6
CONTINUOUS
 62
     5
 10
-31.43964799999998
 20
67.602257000000009
 30
0.0
 40
107.60547799999991
 50
90.115060999998903
 51
96.637345999997166
  0
LINE
  8
DETAIL
  6
CONTINUOUS
 62
     5
 10
-52.067090000000007
 20
123.38488000000009
 30
0.0
 11
-58.348478999999998
 21
126.652124
 31
0.0
  0
LINE
  8
DETAIL
  6
CONTINUOUS
 62
     5
 10
-58.348478999999998
 20
126.652124
 30
0.0
 11
-61.764522999999997
 21
128.7177079999999
 31
0.0
  0
ARC
  8
DETAIL
  6
CONTINUOUS
 62
     5
 10
-60.729660000000017
 20
130.42915699999969
 30
0.0
 40
2.0
 50
215.55846799999611
 51
238.83985199999881
  0
ARC
  8
DETAIL
  6
CONTINUOUS
 62
     5
 10
2.217424999999992
 20
108.5477309999999
 30
0.0
 40
80.452703999999983
 50
124.9555300000027
 51
141.99635700000161
  0
TEXT
  8
ETC
  6
CONTINUOUS
 62
    61
 10
444.1742886397949
 20
521.72065121878177
 30
0.0
 40
64.0
  1
EFG-30SB2_4
 41
0.9
  0
TEXT
  8
ETC
  6
CONTINUOUS
 62
    61
 10
436.10081063979447
 20
423.70192621878198
 30
0.0
 40
64.0
  1
産業扇
 41
0.9
  0
TEXT
  8
ETC
  6
CONTINUOUS
 62
    61
 10
523.2648328741958
 20
341.74183734707719
 30
0.0
 40
50.0
  1
EFG-30SB2
 41
0.9
  0
LINE
  8
SIZE
  6
CONTINUOUS
 62
    30
 10
237.9999999999998
 20
83.120407715083729
 30
0.0
 11
237.9999999999998
 21
484.62637500000011
 31
0.0
  0
LINE
  8
SIZE
  6
CONTINUOUS
 62
    30
 10
154.99999999999969
 20
464.62637500000011
 30
0.0
 11
373.99753600714172
 21
464.62637499999983
 31
0.0
  0
CIRCLE
  8
SIZE
  6
CONTINUOUS
 62
    30
 10
237.9999999999998
 20
464.62637500000011
 30
0.0
 40
6.0
  0
TEXT
  8
SIZE
  6
CONTINUOUS
 62
    30
 10
263.9982759033939
 20
489.62637500000011
 30
0.0
 40
64.0
  1
83
 41
0.9
 72
     1
 11
310.62684733196528
 21
489.62637500000011
 31
0.0
  0
LINE
  8
DETAIL
  6
CONTINUOUS
 62
     5
 10
154.99999999999969
 20
130.0
 30
0.0
 11
237.9999999999998
 21
74.015793102078533
 31
0.0
  0
LINE
  8
DETAIL
  6
CONTINUOUS
 62
     5
 10
154.99999999999969
 20
30.0
 30
0.0
 11
237.9999999999998
 21
-25.984206897921471
 31
0.0
  0
LINE
  8
DETAIL
  6
CONTINUOUS
 62
     5
 10
154.99999999999969
 20
-70.0
 30
0.0
 11
237.9999999999998
 21
-125.9842068979214
 31
0.0
  0
LINE
  8
DETAIL
  6
CONTINUOUS
 62
     5
 10
154.99999999999969
 20
126.98445512874
 30
0.0
 11
236.60201774132321
 21
71.943199170690946
 31
0.0
  0
LINE
  8
DETAIL
  6
CONTINUOUS
 62
     5
 10
154.99999999999969
 20
26.984455128740251
 30
0.0
 11
236.60201774132321
 21
-28.056800829309051
 31
0.0
  0
LINE
  8
DETAIL
  6
CONTINUOUS
 62
     5
 10
154.99999999999969
 20
-73.015544871259749
 30
0.0
 11
236.60201774132321
 21
-128.05680082930911
 31
0.0
  0
LINE
  8
DETAIL
  6
CONTINUOUS
 62
     5
 10
237.9999999999998
 20
74.015793102078533
 30
0.0
 11
236.60201774132321
 21
71.943199170690946
 31
0.0
  0
LINE
  8
DETAIL
  6
CONTINUOUS
 62
     5
 10
237.9999999999998
 20
-25.984206897921471
 30
0.0
 11
236.60201774132321
 21
-28.056800829309051
 31
0.0
  0
LINE
  8
DETAIL
  6
CONTINUOUS
 62
     5
 10
237.9999999999998
 20
-125.9842068979214
 30
0.0
 11
236.60201774132321
 21
-128.05680082930911
 31
0.0
  0
LINE
  8
OUTLINE
  6
CONTINUOUS
 62
     3
 10
154.99999999999969
 20
172.0
 30
0.0
 11
154.99999999999969
 21
-172.0
 31
0.0
  0
LINE
  8
OUTLINE
  6
CONTINUOUS
 62
     3
 10
-30.0
 20
206.0
 30
0.0
 11
-30.0
 21
-206.0
 31
0.0
  0
LINE
  8
OUTLINE
  6
CONTINUOUS
 62
     3
 10
0.0
 20
168.5000049999999
 30
0.0
 11
0.0
 21
-168.5000049999999
 31
0.0
  0
POINT
  8
ARRANGE
  6
CONTINUOUS
 62
     1
 10
0.0
 20
0.0
 30
0.0
  0
LINE
  8
OUTLINE
  6
CONTINUOUS
 62
     3
 10
154.99999999999969
 20
-172.0
 30
0.0
 11
0.0
 21
-172.0
 31
0.0
  0
LINE
  8
OUTLINE
  6
CONTINUOUS
 62
     3
 10
0.0
 20
-211.0
 30
0.0
 11
-25.0
 21
-211.0
 31
0.0
  0
ARC
  8
OUTLINE
  6
CONTINUOUS
 62
     3
 10
-25.0
 20
-206.0
 30
0.0
 40
5.0
 50
180.0
 51
270.0
  0
LINE
  8
OUTLINE
  6
CONTINUOUS
 62
     3
 10
0.0
 20
-166.5000049999999
 30
0.0
 11
0.0
 21
-211.0
 31
0.0
  0
LINE
  8
OUTLINE
  6
CONTINUOUS
 62
     3
 10
154.99999999999969
 20
172.0
 30
0.0
 11
0.0
 21
172.0
 31
0.0
  0
LINE
  8
OUTLINE
  6
CONTINUOUS
 62
     3
 10
0.0
 20
211.0
 30
0.0
 11
-25.0
 21
211.0
 31
0.0
  0
ARC
  8
OUTLINE
  6
CONTINUOUS
 62
     3
 10
-25.0
 20
206.0
 30
0.0
 40
5.0
 50
90.0
 51
180.0
  0
LINE
  8
OUTLINE
  6
CONTINUOUS
 62
     3
 10
0.0
 20
211.0
 30
0.0
 11
0.0
 21
166.5000049999999
 31
0.0
  0
LINE
  8
DETAIL
  6
CONTINUOUS
 62
     5
 10
144.99999999999969
 20
110.0
 30
0.0
 11
144.99999999999969
 21
-110.0
 31
0.0
  0
LINE
  8
DETAIL
  6
CONTINUOUS
 62
     5
 10
122.9999999999997
 20
110.0
 30
0.0
 11
122.9999999999997
 21
-110.0
 31
0.0
  0
LINE
  8
DETAIL
  6
CONTINUOUS
 62
     5
 10
122.9999999999997
 20
110.0
 30
0.0
 11
144.99999999999969
 21
110.0
 31
0.0
  0
LINE
  8
DETAIL
  6
CONTINUOUS
 62
     5
 10
122.9999999999997
 20
-110.0
 30
0.0
 11
144.99999999999969
 21
-110.0
 31
0.0
  0
TEXT
  8
NOTE
  6
CONTINUOUS
 62
     4
 10
144.56846457142859
 20
-314.17236400000007
 30
0.0
 40
64.0
  1
EL
 41
0.9
  0
LINE
  8
NOTE
  6
CONTINUOUS
 62
     4
 10
122.753057
 20
-342.67154900000008
 30
0.0
 11
258.33520299999992
 21
-342.67154900000008
 31
0.0
  0
LINE
  8
NOTE
  6
CONTINUOUS
 62
     4
 10
0.0
 20
-172.0
 30
0.0
 11
122.753057
 21
-342.67154900000008
 31
0.0
  0
LINE
  8
NOTE
  6
CONTINUOUS
 62
     4
 10
0.0
 20
-150.1482943088879
 30
0.0
 11
0.0
 21
-190.1482943088879
 31
0.0
  0
LINE
  8
NOTE
  6
CONTINUOUS
 62
     4
 10
-20.0
 20
-172.0
 30
0.0
 11
20.0
 21
-172.0
 31
0.0
  0
LINE
  8
NOTE
  6
CONTINUOUS
 62
     4
 10
14.57157799999999
 20
-209.251431
 30
0.0
 11
0.0
 21
-172.0
 31
0.0
  0
LINE
  8
NOTE
  6
CONTINUOUS
 62
     4
 10
0.0
 20
-172.0
 30
0.0
 11
31.24507199999994
 21
-196.974896
 31
0.0
  0
ENDSEC
  0
EOF
