  0
SECTION
  2
HEADER
  9
$ACADVER
  1
AC1009
  9
$DWGCODEPAGE
  3
dos932
  9
$INSBASE
 10
0.0
 20
0.0
 30
0.0
  9
$EXTMIN
 10
-553.79331831796299
 20
-230.71287866997591
 30
-0.0015257624927045
  9
$EXTMAX
 10
887.33826824153948
 20
647.27784011894619
 30
0.0022888765696933
  9
$LIMMIN
 10
-2970.0
 20
-2100.0
  9
$LIMMAX
 10
2970.0
 20
2100.0
  9
$ORTHOMODE
 70
     1
  9
$REGENMODE
 70
     1
  9
$FILLMODE
 70
     1
  9
$QTEXTMODE
 70
     0
  9
$MIRRTEXT
 70
     0
  9
$LTSCALE
 40
20.0
  9
$ATTMODE
 70
     1
  9
$TEXTSIZE
 40
64.0
  9
$TRACEWID
 40
0.05
  9
$TEXTSTYLE
  7
STANDARD
  9
$CLAYER
  8
SIZE
  9
$CELTYPE
  6
CONTINUOUS
  9
$CECOLOR
 62
     7
  9
$DIMSCALE
 40
1.0
  9
$DIMASZ
 40
12.0
  9
$DIMEXO
 40
20.0
  9
$DIMDLI
 40
200.0
  9
$DIMRND
 40
0.0
  9
$DIMDLE
 40
0.0
  9
$DIMEXE
 40
20.0
  9
$DIMTP
 40
0.0
  9
$DIMTM
 40
0.0
  9
$DIMTXT
 40
64.0
  9
$DIMCEN
 40
0.09
  9
$DIMTSZ
 40
0.0
  9
$DIMTOL
 70
     0
  9
$DIMLIM
 70
     0
  9
$DIMTIH
 70
     0
  9
$DIMTOH
 70
     0
  9
$DIMSE1
 70
     0
  9
$DIMSE2
 70
     0
  9
$DIMTAD
 70
     1
  9
$DIMZIN
 70
     8
  9
$DIMBLK
  1

  9
$DIMASO
 70
     1
  9
$DIMSHO
 70
     0
  9
$DIMPOST
  1

  9
$DIMAPOST
  1

  9
$DIMALT
 70
     0
  9
$DIMALTD
 70
     2
  9
$DIMALTF
 40
25.399999999999999
  9
$DIMLFAC
 40
1.0
  9
$DIMTOFL
 70
     1
  9
$DIMTVP
 40
0.0
  9
$DIMTIX
 70
     1
  9
$DIMSOXD
 70
     0
  9
$DIMSAH
 70
     0
  9
$DIMBLK1
  1

  9
$DIMBLK2
  1

  9
$DIMSTYLE
  2
STANDARD
  9
$DIMCLRD
 70
     7
  9
$DIMCLRE
 70
     7
  9
$DIMCLRT
 70
     7
  9
$DIMTFAC
 40
1.0
  9
$DIMGAP
 40
25.0
  9
$LUNITS
 70
     2
  9
$LUPREC
 70
     4
  9
$SKETCHINC
 40
0.1
  9
$FILLETRAD
 40
3.0
  9
$AUNITS
 70
     1
  9
$AUPREC
 70
     3
  9
$MENU
  1
ACAD
  9
$ELEVATION
 40
0.0
  9
$PELEVATION
 40
0.0
  9
$THICKNESS
 40
50.0
  9
$LIMCHECK
 70
     0
  9
$CHAMFERA
 40
0.0
  9
$CHAMFERB
 40
0.0
  9
$SKPOLY
 70
     0
  9
$TDCREATE
 40
2453019.62301037
  9
$TDUPDATE
 40
2458949.433135197
  9
$TDINDWG
 40
1.7138585764
  9
$TDUSRTIMER
 40
1.7138585764
  9
$USRTIMER
 70
     1
  9
$ANGBASE
 50
0.0
  9
$ANGDIR
 70
     0
  9
$PDMODE
 70
     3
  9
$PDSIZE
 40
-2.0
  9
$PLINEWID
 40
0.0
  9
$SPLFRAME
 70
     0
  9
$SPLINETYPE
 70
     6
  9
$SPLINESEGS
 70
     8
  9
$SURFTAB1
 70
     6
  9
$SURFTAB2
 70
     6
  9
$SURFTYPE
 70
     6
  9
$SURFU
 70
     6
  9
$SURFV
 70
     6
  9
$UCSNAME
  2

  9
$UCSORG
 10
0.0
 20
0.0
 30
0.0
  9
$UCSXDIR
 10
1.0
 20
0.0
 30
0.0
  9
$UCSYDIR
 10
0.0
 20
1.0
 30
0.0
  9
$PUCSNAME
  2

  9
$PUCSORG
 10
0.0
 20
0.0
 30
0.0
  9
$PUCSXDIR
 10
1.0
 20
0.0
 30
0.0
  9
$PUCSYDIR
 10
0.0
 20
1.0
 30
0.0
  9
$USERI1
 70
     0
  9
$USERI2
 70
     0
  9
$USERI3
 70
     0
  9
$USERI4
 70
     0
  9
$USERI5
 70
     0
  9
$USERR1
 40
20.0
  9
$USERR2
 40
0.0
  9
$USERR3
 40
0.0
  9
$USERR4
 40
0.0
  9
$USERR5
 40
0.0
  9
$WORLDVIEW
 70
     1
  9
$SHADEDGE
 70
     3
  9
$SHADEDIF
 70
    70
  9
$TILEMODE
 70
     1
  9
$MAXACTVP
 70
    48
  9
$PINSBASE
 10
0.0
 20
0.0
 30
0.0
  9
$PLIMCHECK
 70
     0
  9
$PEXTMIN
 10
-100000000000000000000.0
 20
-100000000000000000000.0
 30
-100000000000000000000.0
  9
$PEXTMAX
 10
100000000000000000000.0
 20
100000000000000000000.0
 30
100000000000000000000.0
  9
$PLIMMIN
 10
0.0
 20
0.0
  9
$PLIMMAX
 10
12.0
 20
9.0
  9
$UNITMODE
 70
     0
  9
$VISRETAIN
 70
     0
  9
$PLINEGEN
 70
     0
  9
$PSLTSCALE
 70
     0
  9
$TREEDEPTH
 70
  3020
  9
$ATTDIA
 70
     0
  9
$ATTREQ
 70
     1
  9
$BLIPMODE
 70
     1
  9
$COORDS
 70
     1
  9
$DRAGMODE
 70
     2
  9
$OSMODE
 70
     0
  9
$HANDLING
 70
     0
  9
$HANDSEED
  5
F007
  0
ENDSEC
  0
SECTION
  2
TABLES
  0
TABLE
  2
LTYPE
 70
     2
  0
LTYPE
  2
CONTINUOUS
 70
     0
  3
実線
 72
    65
 73
     0
 40
0.0
  0
LTYPE
  2
DASHDOT
 70
     0
  3
____ _ ____ _ ____ _ ____ _ ____ _ ____ _ ____
 72
    65
 73
     4
 40
5.5
 49
4.0
 49
-0.6
 49
0.3
 49
-0.6
  0
ENDTAB
  0
TABLE
  2
LAYER
 70
    12
  0
LAYER
  2
0
 70
     0
 62
     7
  6
CONTINUOUS
  0
LAYER
  2
BASIS
 70
     0
 62
     6
  6
DASHDOT
  0
LAYER
  2
OUTLINE
 70
     0
 62
     3
  6
CONTINUOUS
  0
LAYER
  2
DETAIL
 70
     0
 62
     5
  6
CONTINUOUS
  0
LAYER
  2
SIZE
 70
     0
 62
    30
  6
CONTINUOUS
  0
LAYER
  2
ARRANGE
 70
     0
 62
     1
  6
CONTINUOUS
  0
LAYER
  2
ETC
 70
     0
 62
    61
  6
CONTINUOUS
  0
LAYER
  2
FIX
 70
     0
 62
    11
  6
CONTINUOUS
  0
LAYER
  2
NOTE
 70
     0
 62
     4
  6
CONTINUOUS
  0
LAYER
  2
DEFPOINTS
 70
    64
 62
     7
  6
CONTINUOUS
  0
LAYER
  2
SERVICESPACE
 70
    64
 62
     2
  6
DASHDOT
  0
LAYER
  2
SYMBOLLINE
 70
    64
 62
    15
  6
CONTINUOUS
  0
ENDTAB
  0
TABLE
  2
STYLE
 70
     1
  0
STYLE
  2
STANDARD
 70
     0
 40
64.0
 41
0.9
 50
0.0
 71
     0
 42
64.0
  3
SIMPLEX.shx
  4
BIGFONT.shx
  0
ENDTAB
  0
TABLE
  2
APPID
 70
    19
  0
APPID
  2
ACAD
 70
     0
  0
APPID
  2
AUTOCAD_POSTSCRIPT_FIGURE
 70
     0
  0
APPID
  2
ACAD_EXEMPT_FROM_CAD_STANDARDS
 70
     0
  0
APPID
  2
ACAD_PSEXT
 70
     0
  0
APPID
  2
ACAUTHENVIRON
 70
     0
  0
APPID
  2
GENIUS_GENOENT_13
 70
     0
  0
APPID
  2
GENIUS_GENCFG_13
 70
     0
  0
APPID
  2
GENIUS_GENCFG0_13
 70
     0
  0
APPID
  2
GENIUS_GENCFG1_13
 70
     0
  0
APPID
  2
GENIUS_GENCFG2_13
 70
     0
  0
APPID
  2
GENIUS_GENCFG3_13
 70
     0
  0
APPID
  2
GENIUS_GENCFG4_13
 70
     0
  0
APPID
  2
GENIUS_GEVCFG0_13
 70
     0
  0
APPID
  2
CONTENTBLOCKICON
 70
     0
  0
APPID
  2
CONTENTBLOCKDESCRIPTION
 70
     0
  0
APPID
  2
ACAD_NAV_VCDISPLAY
 70
     0
  0
APPID
  2
ACAD_MLEADERVER
 70
     0
  0
APPID
  2
ACDBDYNAMICBLOCKTRUENAME
 70
     0
  0
APPID
  2
ACDBDYNAMICBLOCKGUID
 70
     0
  0
ENDTAB
  0
TABLE
  2
DIMSTYLE
 70
     1
  0
DIMSTYLE
  2
STANDARD
 70
     0
  3

  4

  5
_ORIGIN
  6

  7

 40
1.0
 41
12.0
 42
20.0
 43
200.0
 44
20.0
 45
0.0
 46
0.0
 47
0.0
 48
0.0
140
64.0
141
0.09
142
0.0
143
25.399999999999999
144
1.0
145
0.0
146
1.0
147
25.0
 71
     0
 72
     0
 73
     0
 74
     0
 75
     0
 76
     0
 77
     1
 78
     8
170
     0
171
     2
172
     1
173
     0
174
     1
175
     0
176
     7
177
     7
178
     7
  0
ENDTAB
  0
TABLE
  2
VIEW
 70
     1
  0
VIEW
  2
ALL
 70
     0
 40
4282.6198079999986
 10
0.0
 20
41.309904000000003
 41
5940.0
 11
0.0
 21
0.0
 31
1.0
 12
0.0
 22
0.0
 32
0.0
 42
50.0
 43
0.0
 44
0.0
 50
0.0
 71
     0
  0
ENDTAB
  0
TABLE
  2
UCS
 70
     0
  0
ENDTAB
  0
TABLE
  2
VPORT
 70
     1
  0
VPORT
  2
*ACTIVE
 70
     0
 10
0.0
 20
0.0
 11
1.0
 21
1.0
 12
166.7724749617883
 22
208.2824807244852
 13
0.0
 23
0.0
 14
1.0
 24
1.0
 15
0.0
 25
0.0
 16
0.0
 26
0.0
 36
1.0
 17
0.0
 27
0.0
 37
0.0
 40
883.81165173116915
 41
1.747787610619469
 42
50.0
 43
0.0
 44
0.0
 50
0.0
 51
0.0
 71
     0
 72
  1000
 73
     1
 74
     3
 75
     0
 76
     0
 77
     0
 78
     0
  0
ENDTAB
  0
ENDSEC
  0
SECTION
  2
BLOCKS
  0
BLOCK
  8
0
  2
_ORIGIN
 70
     0
 10
0.0
 20
0.0
 30
0.0
  3
_ORIGIN
  1
_ORIGIN
  0
CIRCLE
  8
0
  6
CONTINUOUS
 62
     7
 10
0.0
 20
0.0
 30
0.0
 40
0.5
  0
LINE
  8
0
  6
CONTINUOUS
 62
     7
 10
0.0
 20
0.0
 30
0.0
 11
-1.0
 21
0.0
 31
0.0
  0
ENDBLK
  8
0
  0
ENDSEC
  0
SECTION
  2
ENTITIES
  0
LINE
  8
BASIS
  6
DASHDOT
 62
     6
 10
0.0
 20
185.647299
 30
0.0
 11
0.0
 21
-79.336862999999994
 31
0.0
  0
LINE
  8
DETAIL
  6
CONTINUOUS
 62
     5
 10
172.0
 20
155.0
 30
0.0
 11
172.0
 21
0.0
 31
0.0
  0
LINE
  8
DETAIL
  6
CONTINUOUS
 62
     5
 10
211.0
 20
0.0
 30
0.0
 11
211.0
 21
-25.0
 31
0.0
  0
LINE
  8
DETAIL
  6
CONTINUOUS
 62
     5
 10
-211.0
 20
0.0
 30
0.0
 11
-211.0
 21
-25.0
 31
0.0
  0
LINE
  8
NOTE
  6
CONTINUOUS
 62
     4
 10
190.0
 20
0.0
 30
0.0
 11
313.87313799999993
 21
-102.6040129999999
 31
0.0
  0
LINE
  8
NOTE
  6
CONTINUOUS
 62
     4
 10
313.87313799999993
 20
-102.6040129999999
 30
0.0
 11
609.31162200000017
 21
-102.6040129999999
 31
0.0
  0
LINE
  8
DETAIL
  6
CONTINUOUS
 62
     5
 10
-211.0
 20
0.0
 30
0.0
 11
-166.5000049999999
 21
0.0
 31
0.0
  0
CIRCLE
  8
ARRANGE
  6
CONTINUOUS
 62
     1
 10
0.0
 20
0.0
 30
0.0
 40
54.482759999999992
  0
LINE
  8
DETAIL
  6
CONTINUOUS
 62
     5
 10
166.5000049999999
 20
0.0
 30
0.0
 11
211.0
 21
0.0
 31
0.0
  0
LINE
  8
DETAIL
  6
CONTINUOUS
 62
     5
 10
-168.5000049999999
 20
0.0
 30
0.0
 11
168.5000049999999
 21
0.0
 31
0.0
  0
LINE
  8
DETAIL
  6
CONTINUOUS
 62
     5
 10
-172.0
 20
155.0
 30
0.0
 11
172.0
 21
155.0
 31
0.0
  0
LINE
  8
DETAIL
  6
CONTINUOUS
 62
     5
 10
-206.0
 20
-30.0
 30
0.0
 11
206.0
 21
-30.0
 31
0.0
  0
LINE
  8
NOTE
  6
CONTINUOUS
 62
     4
 10
190.0
 20
-20.0
 30
0.0
 11
190.0
 21
20.0
 31
0.0
  0
LINE
  8
NOTE
  6
CONTINUOUS
 62
     4
 10
170.0
 20
0.0
 30
0.0
 11
210.0
 21
0.0
 31
0.0
  0
TEXT
  8
NOTE
  6
CONTINUOUS
 62
     4
 10
316.40581700000013
 20
-76.338027000000011
 30
0.0
 40
64.0
  1
4-φ10
 41
0.9
  0
LINE
  8
NOTE
  6
CONTINUOUS
 62
     4
 10
226.347072
 20
-16.700012000000019
 30
0.0
 11
190.0
 21
0.0
 31
0.0
  0
LINE
  8
NOTE
  6
CONTINUOUS
 62
     4
 10
190.0
 20
0.0
 30
0.0
 11
213.12748099999999
 21
-32.636169999999993
 31
0.0
  0
LINE
  8
SIZE
  6
CONTINUOUS
 62
    30
 10
-231.0
 20
0.0
 30
0.0
 11
-484.626375
 21
0.0
 31
0.0
  0
LINE
  8
SIZE
  6
CONTINUOUS
 62
    30
 10
-226.0
 20
-30.0
 30
0.0
 11
-484.626375
 21
-30.0
 31
0.0
  0
LINE
  8
SIZE
  6
CONTINUOUS
 62
    30
 10
-464.626375
 20
12.0
 30
0.0
 11
-464.626375
 21
24.0
 31
0.0
  0
LINE
  8
SIZE
  6
CONTINUOUS
 62
    30
 10
-464.626375
 20
-42.0
 30
0.0
 11
-464.626375
 21
-197.2571429999999
 31
0.0
  0
LINE
  8
SIZE
  6
CONTINUOUS
 62
    30
 10
-464.626375
 20
0.0
 30
0.0
 11
-464.626375
 21
-30.0
 31
0.0
  0
CIRCLE
  8
SIZE
  6
CONTINUOUS
 62
    30
 10
-464.626375
 20
0.0
 30
0.0
 40
6.0
  0
LINE
  8
SIZE
  6
CONTINUOUS
 62
    30
 10
-464.626375
 20
0.0
 30
0.0
 11
-464.626375
 21
12.0
 31
0.0
  0
CIRCLE
  8
SIZE
  6
CONTINUOUS
 62
    30
 10
-464.626375
 20
-30.0
 30
0.0
 40
6.0
  0
LINE
  8
SIZE
  6
CONTINUOUS
 62
    30
 10
-464.626375
 20
-30.0
 30
0.0
 11
-464.626375
 21
-42.0
 31
0.0
  0
TEXT
  8
SIZE
  6
CONTINUOUS
 62
    30
 10
-489.626375
 20
-172.2571424285712
 30
0.0
 40
64.0
  1
30
 50
90.0
 41
0.9
 72
     1
 11
-489.626375
 21
-125.62857099999979
 31
0.0
  0
LINE
  8
SIZE
  6
CONTINUOUS
 62
    30
 10
-185.0
 20
155.0
 30
0.0
 11
-484.626375
 21
155.0
 31
0.0
  0
LINE
  8
SIZE
  6
CONTINUOUS
 62
    30
 10
-231.0
 20
0.0
 30
0.0
 11
-484.626375
 21
0.0
 31
0.0
  0
LINE
  8
SIZE
  6
CONTINUOUS
 62
    30
 10
-464.626375
 20
143.0
 30
0.0
 11
-464.626375
 21
12.0
 31
0.0
  0
CIRCLE
  8
SIZE
  6
CONTINUOUS
 62
    30
 10
-464.626375
 20
155.0
 30
0.0
 40
6.0
  0
LINE
  8
SIZE
  6
CONTINUOUS
 62
    30
 10
-464.626375
 20
155.0
 30
0.0
 11
-464.626375
 21
143.0
 31
0.0
  0
CIRCLE
  8
SIZE
  6
CONTINUOUS
 62
    30
 10
-464.626375
 20
0.0
 30
0.0
 40
6.0
  0
LINE
  8
SIZE
  6
CONTINUOUS
 62
    30
 10
-464.626375
 20
0.0
 30
0.0
 11
-464.626375
 21
12.0
 31
0.0
  0
TEXT
  8
SIZE
  6
CONTINUOUS
 62
    30
 10
-489.626375
 20
8.9285714285714306
 30
0.0
 40
64.0
  1
155
 50
90.0
 41
0.9
 72
     1
 11
-489.626375
 21
77.5
 31
0.0
  0
LINE
  8
SIZE
  6
CONTINUOUS
 62
    30
 10
-226.0
 20
-30.0
 30
0.0
 11
-343.03836200000001
 21
-30.0
 31
0.0
  0
LINE
  8
SIZE
  6
CONTINUOUS
 62
    30
 10
-163.23662899999999
 20
-66.0
 30
0.0
 11
-343.03836200000001
 21
-66.0
 31
0.0
  0
LINE
  8
SIZE
  6
CONTINUOUS
 62
    30
 10
-323.03836200000001
 20
-18.0
 30
0.0
 11
-323.03836200000001
 21
-6.0
 31
0.0
  0
LINE
  8
SIZE
  6
CONTINUOUS
 62
    30
 10
-323.03836200000001
 20
-78.0
 30
0.0
 11
-323.03836200000001
 21
-230.514286
 31
0.0
  0
LINE
  8
SIZE
  6
CONTINUOUS
 62
    30
 10
-323.03836200000001
 20
-30.0
 30
0.0
 11
-323.03836200000001
 21
-66.0
 31
0.0
  0
CIRCLE
  8
SIZE
  6
CONTINUOUS
 62
    30
 10
-323.03836200000001
 20
-30.0
 30
0.0
 40
6.0
  0
LINE
  8
SIZE
  6
CONTINUOUS
 62
    30
 10
-323.03836200000001
 20
-30.0
 30
0.0
 11
-323.03836200000001
 21
-18.0
 31
0.0
  0
CIRCLE
  8
SIZE
  6
CONTINUOUS
 62
    30
 10
-323.03836200000001
 20
-66.0
 30
0.0
 40
6.0
  0
LINE
  8
SIZE
  6
CONTINUOUS
 62
    30
 10
-323.03836200000001
 20
-66.0
 30
0.0
 11
-323.03836200000001
 21
-78.0
 31
0.0
  0
TEXT
  8
SIZE
  6
CONTINUOUS
 62
    30
 10
-348.03836200000001
 20
-205.51428585714271
 30
0.0
 40
64.0
  1
36
 50
90.0
 41
0.9
 72
     1
 11
-348.03836200000001
 21
-160.2571429999999
 31
0.0
  0
ARC
  8
DETAIL
  6
CONTINUOUS
 62
     5
 10
-206.0
 20
-25.0
 30
0.0
 40
5.0
 50
180.0
 51
270.0
  0
ARC
  8
DETAIL
  6
CONTINUOUS
 62
     5
 10
206.0
 20
-25.0
 30
0.0
 40
5.0
 50
270.0
 51
0.0
  0
CIRCLE
  8
FIX
  6
CONTINUOUS
 62
    11
 10
189.9999949999999
 20
0.0
 30
0.0
 40
5.0
  0
LINE
  8
SIZE
  6
CONTINUOUS
 62
    30
 10
211.0
 20
20.0
 30
0.0
 11
211.0
 21
568.61655851352998
 31
0.0
  0
LINE
  8
SIZE
  6
CONTINUOUS
 62
    30
 10
-211.0
 20
20.0
 30
0.0
 11
-211.0
 21
568.61655851352998
 31
0.0
  0
LINE
  8
SIZE
  6
CONTINUOUS
 62
    30
 10
199.0
 20
548.75592894763372
 30
0.0
 11
-199.0
 21
548.75592894763372
 31
0.0
  0
CIRCLE
  8
SIZE
  6
CONTINUOUS
 62
    30
 10
211.0
 20
548.75592894763372
 30
0.0
 40
6.0
  0
LINE
  8
SIZE
  6
CONTINUOUS
 62
    30
 10
211.0
 20
548.75592894763372
 30
0.0
 11
199.0
 21
548.75592894763372
 31
0.0
  0
CIRCLE
  8
SIZE
  6
CONTINUOUS
 62
    30
 10
-211.0
 20
548.75592894763372
 30
0.0
 40
6.0
  0
LINE
  8
SIZE
  6
CONTINUOUS
 62
    30
 10
-211.0
 20
548.75592894763372
 30
0.0
 11
-199.0
 21
548.75592894763372
 31
0.0
  0
TEXT
  8
SIZE
  6
CONTINUOUS
 62
    30
 10
-110.5371428571428
 20
573.75592894763361
 30
0.0
 40
64.0
  1
□422
 41
0.9
 72
     1
 11
0.0
 21
573.75592894763361
 31
0.0
  0
LINE
  8
SIZE
  6
CONTINUOUS
 62
    30
 10
190.0
 20
40.0
 30
0.0
 11
190.0
 21
448.83057758690171
 31
0.0
  0
LINE
  8
SIZE
  6
CONTINUOUS
 62
    30
 10
-190.0
 20
40.0
 30
0.0
 11
-190.0
 21
448.83057758690171
 31
0.0
  0
LINE
  8
SIZE
  6
CONTINUOUS
 62
    30
 10
178.0
 20
430.20056394763373
 30
0.0
 11
-178.0
 21
430.20056394763373
 31
0.0
  0
CIRCLE
  8
SIZE
  6
CONTINUOUS
 62
    30
 10
190.0
 20
430.20056394763373
 30
0.0
 40
6.0
  0
LINE
  8
SIZE
  6
CONTINUOUS
 62
    30
 10
190.0
 20
430.20056394763373
 30
0.0
 11
178.0
 21
430.20056394763373
 31
0.0
  0
CIRCLE
  8
SIZE
  6
CONTINUOUS
 62
    30
 10
-190.0
 20
430.20056394763373
 30
0.0
 40
6.0
  0
LINE
  8
SIZE
  6
CONTINUOUS
 62
    30
 10
-190.0
 20
430.20056394763373
 30
0.0
 11
-178.0
 21
430.20056394763373
 31
0.0
  0
TEXT
  8
SIZE
  6
CONTINUOUS
 62
    30
 10
-74.057142857142836
 20
455.20056394763373
 30
0.0
 40
64.0
  1
380
 41
0.9
 72
     1
 11
0.0
 21
455.20056394763373
 31
0.0
  0
LINE
  8
SIZE
  6
CONTINUOUS
 62
    30
 10
172.0
 20
175.0
 30
0.0
 11
172.0
 21
327.88162478987692
 31
0.0
  0
LINE
  8
SIZE
  6
CONTINUOUS
 62
    30
 10
-172.0
 20
175.0
 30
0.0
 11
-172.0
 21
327.88162478987692
 31
0.0
  0
LINE
  8
SIZE
  6
CONTINUOUS
 62
    30
 10
158.0
 20
309.27409194763368
 30
0.0
 11
-160.0
 21
309.27409194763368
 31
0.0
  0
CIRCLE
  8
SIZE
  6
CONTINUOUS
 62
    30
 10
172.0
 20
309.27409194763368
 30
0.0
 40
6.0
  0
LINE
  8
SIZE
  6
CONTINUOUS
 62
    30
 10
172.0
 20
309.27409194763368
 30
0.0
 11
158.0
 21
309.27409194763368
 31
0.0
  0
CIRCLE
  8
SIZE
  6
CONTINUOUS
 62
    30
 10
-172.0
 20
309.27409194763368
 30
0.0
 40
6.0
  0
LINE
  8
SIZE
  6
CONTINUOUS
 62
    30
 10
-172.0
 20
309.27409194763368
 30
0.0
 11
-160.0
 21
309.27409194763368
 31
0.0
  0
TEXT
  8
SIZE
  6
CONTINUOUS
 62
    30
 10
-114.8016379891349
 20
334.27409194763368
 30
0.0
 40
64.0
  1
□344
 41
0.9
 72
     1
 11
-2.8930665605635109
 21
334.27409194763368
 31
0.0
  0
LINE
  8
DETAIL
  6
CONTINUOUS
 62
     5
 10
-172.0
 20
155.0
 30
0.0
 11
-172.0
 21
0.0
 31
0.0
  0
LINE
  8
NOTE
  6
CONTINUOUS
 62
     4
 10
-190.0
 20
-20.0
 30
0.0
 11
-190.0
 21
20.0
 31
0.0
  0
LINE
  8
NOTE
  6
CONTINUOUS
 62
     4
 10
-170.0
 20
0.0
 30
0.0
 11
-210.0
 21
0.0
 31
0.0
  0
CIRCLE
  8
FIX
  6
CONTINUOUS
 62
    11
 10
-189.9999949999999
 20
0.0
 30
0.0
 40
5.0
  0
LINE
  8
NOTE
  6
CONTINUOUS
 62
     4
 10
172.0
 20
-20.0
 30
0.0
 11
172.0
 21
20.0
 31
0.0
  0
LINE
  8
NOTE
  6
CONTINUOUS
 62
     4
 10
190.0
 20
0.0
 30
0.0
 11
150.0
 21
0.0
 31
0.0
  0
LINE
  8
NOTE
  6
CONTINUOUS
 62
     4
 10
172.0
 20
0.0
 30
0.0
 11
254.21115345372439
 21
168.06081289353119
 31
0.0
  0
LINE
  8
NOTE
  6
CONTINUOUS
 62
     4
 10
253.03203971500551
 20
168.06081289353119
 30
0.0
 11
370.78849171500542
 21
168.06081289353119
 31
0.0
  0
TEXT
  8
NOTE
  6
CONTINUOUS
 62
     4
 10
265.86862928643382
 20
190.32193989353121
 30
0.0
 40
64.0
  1
EL
 41
0.9
  0
LINE
  8
NOTE
  6
CONTINUOUS
 62
     4
 10
198.74790999999999
 20
29.741374000000011
 30
0.0
 11
172.0
 21
0.0
 31
0.0
  0
LINE
  8
NOTE
  6
CONTINUOUS
 62
     4
 10
172.0
 20
0.0
 30
0.0
 11
180.29368199999999
 21
39.130740000000003
 31
0.0
  0
ARC
  8
DETAIL
  6
CONTINUOUS
 62
     5
 10
-108.5477309999999
 20
2.217424999999992
 30
0.0
 40
80.452703999999983
 50
214.95552999999919
 51
231.99635699999939
  0
LINE
  8
DETAIL
  6
CONTINUOUS
 62
     5
 10
-175.23662899999991
 20
-30.0
 30
0.0
 11
-175.20751799999999
 21
-31.65573999999998
 31
0.0
  0
ARC
  8
DETAIL
  6
CONTINUOUS
 62
     5
 10
-67.602257000000009
 20
-31.43964799999998
 30
0.0
 40
107.60547799999991
 50
180.11506099999889
 51
186.63734600000041
  0
LINE
  8
DETAIL
  6
CONTINUOUS
 62
     5
 10
-143.23662899999999
 20
-66.0
 30
0.0
 11
-140.34123
 21
-66.0
 31
0.0
  0
ARC
  8
DETAIL
  6
CONTINUOUS
 62
     5
 10
-144.634646
 20
-45.040395999999987
 30
0.0
 40
21.006176
 50
230.1911630000028
 51
266.1839909999984
  0
LINE
  8
DETAIL
  6
CONTINUOUS
 62
     5
 10
-146.0326639999999
 20
-66.0
 30
0.0
 11
-143.23662899999999
 21
-66.0
 31
0.0
  0
LINE
  8
DETAIL
  6
CONTINUOUS
 62
     5
 10
-129.26608999999999
 20
-62.356705000000026
 30
0.0
 11
-132.48719199999991
 21
-64.659257000000025
 31
0.0
  0
LINE
  8
DETAIL
  6
CONTINUOUS
 62
     5
 10
-133.36974599999999
 20
-65.012443000000019
 30
0.0
 11
-140.34123
 21
-66.0
 31
0.0
  0
ARC
  8
DETAIL
  6
CONTINUOUS
 62
     5
 10
-133.65025900000001
 20
-63.032212000000023
 30
0.0
 40
2.0
 50
278.06268400000329
 51
305.55846799999659
  0
LINE
  8
DETAIL
  6
CONTINUOUS
 62
     5
 10
-123.38488
 20
-52.067090000000007
 30
0.0
 11
-126.652124
 21
-58.348478999999998
 31
0.0
  0
LINE
  8
DETAIL
  6
CONTINUOUS
 62
     5
 10
-126.652124
 20
-58.348478999999998
 30
0.0
 11
-128.7177079999999
 21
-61.764522999999997
 31
0.0
  0
ARC
  8
DETAIL
  6
CONTINUOUS
 62
     5
 10
-130.42915699999969
 20
-60.729660000000017
 30
0.0
 40
2.0
 50
305.55846799999659
 51
328.83985200000228
  0
ARC
  8
DETAIL
  6
CONTINUOUS
 62
     5
 10
142.06636799999981
 20
-89.952821999999969
 30
0.0
 40
268.1411819999999
 50
167.0802109999988
 51
171.8774859999987
  0
ARC
  8
DETAIL
  6
CONTINUOUS
 62
     5
 10
149.86179299999981
 20
79.010141999999973
 30
0.0
 40
145.74770799999979
 50
238.05874699999839
 51
271.15279399999821
  0
ARC
  8
DETAIL
  6
CONTINUOUS
 62
     5
 10
278.51942000000008
 20
220.69504300000011
 30
0.0
 40
313.69956400000001
 50
233.0496279999995
 51
246.37287900000209
  0
ARC
  8
DETAIL
  6
CONTINUOUS
 62
     5
 10
-14.828450999999969
 20
7.9289269999999874
 30
0.0
 40
61.760230999999997
 50
280.21307800000199
 51
322.11113100000188
  0
ARC
  8
DETAIL
  6
CONTINUOUS
 62
     5
 10
10.849111999999989
 20
45.293039999999962
 30
0.0
 40
109.2042979999997
 50
261.40933600000142
 51
316.41186499999992
  0
ARC
  8
DETAIL
  6
CONTINUOUS
 62
     5
 10
-4.2312379999999621
 20
-57.840214000000003
 30
0.0
 40
5.0
 50
85.94631299999817
 51
255.7359150000012
  0
TEXT
  8
ETC
  6
CONTINUOUS
 62
    61
 10
333.10858814492451
 20
583.15341302339243
 30
0.0
 40
64.0
  1
EFG-30SB2_6
 41
0.9
  0
TEXT
  8
ETC
  6
CONTINUOUS
 62
    61
 10
412.19913237932519
 20
403.17459915168803
 30
0.0
 40
50.0
  1
EFG-30SB2
 41
0.9
  0
TEXT
  8
ETC
  6
CONTINUOUS
 62
    61
 10
325.03511014492437
 20
485.13468802339281
 30
0.0
 40
64.0
  1
産業扇
 41
0.9
  0
LINE
  8
SIZE
  6
CONTINUOUS
 62
    30
 10
-185.50569276105719
 20
238.0
 30
0.0
 11
-484.626375
 21
238.0
 31
0.0
  0
LINE
  8
SIZE
  6
CONTINUOUS
 62
    30
 10
-464.626375
 20
155.0
 30
0.0
 11
-464.626375
 21
353.46697817693871
 31
0.0
  0
CIRCLE
  8
SIZE
  6
CONTINUOUS
 62
    30
 10
-464.62637500000011
 20
238.0
 30
0.0
 40
6.0
  0
TEXT
  8
SIZE
  6
CONTINUOUS
 62
    30
 10
-489.626375
 20
255.71607663933099
 30
0.0
 40
64.0
  1
83
 50
90.0
 41
0.9
 72
     1
 11
-489.626375
 21
302.34464806790243
 31
0.0
  0
LINE
  8
DETAIL
  6
CONTINUOUS
 62
     5
 10
-164.5
 20
238.0
 30
0.0
 11
-164.5
 21
155.0
 31
0.0
  0
LINE
  8
DETAIL
  6
CONTINUOUS
 62
     5
 10
-164.5
 20
238.0
 30
0.0
 11
164.5
 21
238.0
 31
0.0
  0
LINE
  8
DETAIL
  6
CONTINUOUS
 62
     5
 10
164.5
 20
238.0
 30
0.0
 11
164.5
 21
155.0
 31
0.0
  0
POINT
  8
ARRANGE
  6
CONTINUOUS
 62
     1
 10
0.0
 20
0.0
 30
0.0
  0
LINE
  8
OUTLINE
  6
CONTINUOUS
 62
     3
 10
-206.0
 20
-30.0
 30
0.0
 11
206.0
 21
-30.0
 31
0.0
  0
LINE
  8
OUTLINE
  6
CONTINUOUS
 62
     3
 10
-168.5000049999999
 20
0.0
 30
0.0
 11
168.5000049999999
 21
0.0
 31
0.0
  0
LINE
  8
OUTLINE
  6
CONTINUOUS
 62
     3
 10
-172.0
 20
155.0
 30
0.0
 11
172.0
 21
155.0
 31
0.0
  0
ARC
  8
OUTLINE
  6
CONTINUOUS
 62
     3
 10
-206.0
 20
-25.0
 30
0.0
 40
5.0
 50
180.0
 51
270.0
  0
LINE
  8
OUTLINE
  6
CONTINUOUS
 62
     3
 10
-172.0
 20
155.0
 30
0.0
 11
-172.0
 21
0.0
 31
0.0
  0
LINE
  8
OUTLINE
  6
CONTINUOUS
 62
     3
 10
-211.0
 20
0.0
 30
0.0
 11
-166.5000049999999
 21
0.0
 31
0.0
  0
LINE
  8
OUTLINE
  6
CONTINUOUS
 62
     3
 10
-211.0
 20
0.0
 30
0.0
 11
-211.0
 21
-25.0
 31
0.0
  0
ARC
  8
OUTLINE
  6
CONTINUOUS
 62
     3
 10
206.0
 20
-25.0
 30
0.0
 40
5.0
 50
270.0
 51
0.0
  0
LINE
  8
OUTLINE
  6
CONTINUOUS
 62
     3
 10
172.0
 20
155.0
 30
0.0
 11
172.0
 21
0.0
 31
0.0
  0
LINE
  8
OUTLINE
  6
CONTINUOUS
 62
     3
 10
166.5000049999999
 20
0.0
 30
0.0
 11
211.0
 21
0.0
 31
0.0
  0
LINE
  8
OUTLINE
  6
CONTINUOUS
 62
     3
 10
211.0
 20
0.0
 30
0.0
 11
211.0
 21
-25.0
 31
0.0
  0
ENDSEC
  0
EOF
