  0
SECTION
  2
HEADER
  9
$ACADVER
  1
AC1009
  9
$DWGCODEPAGE
  3
dos932
  9
$INSBASE
 10
0.0
 20
0.0
 30
0.0
  9
$EXTMIN
 10
-298.63558499999982
 20
-285.066237
 30
0.0
  9
$EXTMAX
 10
1187.7798194116031
 20
694.41189246040881
 30
0.0
  9
$LIMMIN
 10
-2970.0
 20
-2100.0
  9
$LIMMAX
 10
2970.0
 20
2100.0
  9
$ORTHOMODE
 70
     0
  9
$REGENMODE
 70
     0
  9
$FILLMODE
 70
     1
  9
$QTEXTMODE
 70
     0
  9
$MIRRTEXT
 70
     0
  9
$LTSCALE
 40
20.0
  9
$ATTMODE
 70
     1
  9
$TEXTSIZE
 40
64.0
  9
$TRACEWID
 40
0.05
  9
$TEXTSTYLE
  7
STANDARD
  9
$CLAYER
  8
0
  9
$CELTYPE
  6
CONTINUOUS
  9
$CECOLOR
 62
     1
  9
$DIMSCALE
 40
1.0
  9
$DIMASZ
 40
2.0
  9
$DIMEXO
 40
20.0
  9
$DIMDLI
 40
200.0
  9
$DIMRND
 40
0.0
  9
$DIMDLE
 40
0.0
  9
$DIMEXE
 40
30.0
  9
$DIMTP
 40
0.0
  9
$DIMTM
 40
0.0
  9
$DIMTXT
 40
64.0
  9
$DIMCEN
 40
0.09
  9
$DIMTSZ
 40
0.0
  9
$DIMTOL
 70
     0
  9
$DIMLIM
 70
     0
  9
$DIMTIH
 70
     0
  9
$DIMTOH
 70
     0
  9
$DIMSE1
 70
     0
  9
$DIMSE2
 70
     0
  9
$DIMTAD
 70
     1
  9
$DIMZIN
 70
     8
  9
$DIMBLK
  1

  9
$DIMASO
 70
     1
  9
$DIMSHO
 70
     0
  9
$DIMPOST
  1

  9
$DIMAPOST
  1

  9
$DIMALT
 70
     0
  9
$DIMALTD
 70
     2
  9
$DIMALTF
 40
25.399999999999999
  9
$DIMLFAC
 40
1.0
  9
$DIMTOFL
 70
     1
  9
$DIMTVP
 40
0.0
  9
$DIMTIX
 70
     1
  9
$DIMSOXD
 70
     0
  9
$DIMSAH
 70
     0
  9
$DIMBLK1
  1

  9
$DIMBLK2
  1

  9
$DIMSTYLE
  2
STANDARD
  9
$DIMCLRD
 70
     7
  9
$DIMCLRE
 70
     7
  9
$DIMCLRT
 70
     7
  9
$DIMTFAC
 40
1.0
  9
$DIMGAP
 40
0.09
  9
$LUNITS
 70
     2
  9
$LUPREC
 70
     4
  9
$SKETCHINC
 40
0.1
  9
$FILLETRAD
 40
30.0
  9
$AUNITS
 70
     1
  9
$AUPREC
 70
     3
  9
$MENU
  1
ACAD
  9
$ELEVATION
 40
0.0
  9
$PELEVATION
 40
0.0
  9
$THICKNESS
 40
0.0
  9
$LIMCHECK
 70
     0
  9
$CHAMFERA
 40
0.0
  9
$CHAMFERB
 40
0.0
  9
$SKPOLY
 70
     0
  9
$TDCREATE
 40
2450967.38931713
  9
$TDUPDATE
 40
2456041.486537731
  9
$TDINDWG
 40
0.0432557639
  9
$TDUSRTIMER
 40
0.0432548727
  9
$USRTIMER
 70
     1
  9
$ANGBASE
 50
0.0
  9
$ANGDIR
 70
     0
  9
$PDMODE
 70
     3
  9
$PDSIZE
 40
-2.0
  9
$PLINEWID
 40
0.0
  9
$SPLFRAME
 70
     0
  9
$SPLINETYPE
 70
     6
  9
$SPLINESEGS
 70
     8
  9
$SURFTAB1
 70
     6
  9
$SURFTAB2
 70
     6
  9
$SURFTYPE
 70
     6
  9
$SURFU
 70
     6
  9
$SURFV
 70
     6
  9
$UCSNAME
  2

  9
$UCSORG
 10
0.0
 20
0.0
 30
0.0
  9
$UCSXDIR
 10
1.0
 20
0.0
 30
0.0
  9
$UCSYDIR
 10
0.0
 20
1.0
 30
0.0
  9
$PUCSNAME
  2

  9
$PUCSORG
 10
0.0
 20
0.0
 30
0.0
  9
$PUCSXDIR
 10
1.0
 20
0.0
 30
0.0
  9
$PUCSYDIR
 10
0.0
 20
1.0
 30
0.0
  9
$USERI1
 70
     0
  9
$USERI2
 70
     0
  9
$USERI3
 70
     0
  9
$USERI4
 70
     0
  9
$USERI5
 70
     0
  9
$USERR1
 40
20.0
  9
$USERR2
 40
0.0
  9
$USERR3
 40
0.0
  9
$USERR4
 40
0.0
  9
$USERR5
 40
0.0
  9
$WORLDVIEW
 70
     1
  9
$SHADEDGE
 70
     3
  9
$SHADEDIF
 70
    70
  9
$TILEMODE
 70
     1
  9
$MAXACTVP
 70
    64
  9
$PINSBASE
 10
0.0
 20
0.0
 30
0.0
  9
$PLIMCHECK
 70
     0
  9
$PEXTMIN
 10
-100000000000000000000.0
 20
-100000000000000000000.0
 30
-100000000000000000000.0
  9
$PEXTMAX
 10
100000000000000000000.0
 20
100000000000000000000.0
 30
100000000000000000000.0
  9
$PLIMMIN
 10
0.0
 20
0.0
  9
$PLIMMAX
 10
12.0
 20
9.0
  9
$UNITMODE
 70
     0
  9
$VISRETAIN
 70
     1
  9
$PLINEGEN
 70
     0
  9
$PSLTSCALE
 70
     1
  9
$TREEDEPTH
 70
  3020
  9
$ATTDIA
 70
     0
  9
$ATTREQ
 70
     1
  9
$BLIPMODE
 70
     1
  9
$COORDS
 70
     1
  9
$DRAGMODE
 70
     2
  9
$OSMODE
 70
     0
  9
$HANDLING
 70
     0
  9
$HANDSEED
  5
91D
  0
ENDSEC
  0
SECTION
  2
TABLES
  0
TABLE
  2
LTYPE
 70
     2
  0
LTYPE
  2
CONTINUOUS
 70
     0
  3
実線
 72
    65
 73
     0
 40
0.0
  0
LTYPE
  2
DASHDOT
 70
     0
  3
____ _ ____ _ ____ _ ____ _ ____ _ ____ _ ____
 72
    65
 73
     4
 40
5.5
 49
4.0
 49
-0.6
 49
0.3
 49
-0.6
  0
ENDTAB
  0
TABLE
  2
LAYER
 70
     7
  0
LAYER
  2
0
 70
     0
 62
     7
  6
CONTINUOUS
  0
LAYER
  2
OUTLINE
 70
     0
 62
     3
  6
CONTINUOUS
  0
LAYER
  2
DETAIL
 70
     0
 62
     5
  6
CONTINUOUS
  0
LAYER
  2
BASIS
 70
     0
 62
     6
  6
DASHDOT
  0
LAYER
  2
SIZE
 70
     0
 62
    30
  6
CONTINUOUS
  0
LAYER
  2
ETC
 70
     0
 62
    61
  6
CONTINUOUS
  0
LAYER
  2
ARRANGE
 70
     0
 62
     1
  6
CONTINUOUS
  0
ENDTAB
  0
TABLE
  2
STYLE
 70
     1
  0
STYLE
  2
STANDARD
 70
     0
 40
0.0
 41
0.9
 50
0.0
 71
     0
 42
64.0
  3
SIMPLEX
  4
BIGFONT
  0
ENDTAB
  0
TABLE
  2
APPID
 70
     1
  0
APPID
  2
ACAD
 70
     0
  0
ENDTAB
  0
TABLE
  2
DIMSTYLE
 70
     1
  0
DIMSTYLE
  2
STANDARD
 70
     0
  3

  4

  5

  6

  7

 40
1.0
 41
0.18
 42
0.0625
 43
0.38
 44
0.18
 45
0.0
 46
0.0
 47
0.0
 48
0.0
140
0.18
141
0.09
142
0.0
143
25.399999999999999
144
1.0
145
0.0
146
1.0
147
0.09
 71
     0
 72
     0
 73
     1
 74
     1
 75
     0
 76
     0
 77
     0
 78
     0
170
     0
171
     2
172
     0
173
     0
174
     0
175
     0
176
     7
177
     7
178
     7
  0
ENDTAB
  0
TABLE
  2
VIEW
 70
     1
  0
VIEW
  2
ALL
 70
     0
 40
4282.6198079999976
 10
0.0
 20
41.309903999999989
 41
5940.0
 11
0.0
 21
0.0
 31
1.0
 12
0.0
 22
0.0
 32
0.0
 42
50.0
 43
0.0
 44
0.0
 50
0.0
 71
     0
  0
ENDTAB
  0
TABLE
  2
UCS
 70
     0
  0
ENDTAB
  0
TABLE
  2
VPORT
 70
     1
  0
VPORT
  2
*ACTIVE
 70
     0
 10
0.0
 20
0.0
 11
1.0
 21
1.0
 12
406.35902722549957
 22
254.44549066086489
 13
0.0
 23
0.0
 14
50.0
 24
50.0
 15
100.0
 25
100.0
 16
0.0
 26
0.0
 36
1.0
 17
0.0
 27
0.0
 37
0.0
 40
1767.4383039314839
 41
1.215836526181354
 42
50.0
 43
0.0
 44
0.0
 50
0.0
 51
0.0
 71
     0
 72
  1000
 73
     1
 74
     0
 75
     0
 76
     0
 77
     0
 78
     0
  0
ENDTAB
  0
ENDSEC
  0
SECTION
  2
BLOCKS
  0
ENDSEC
  0
SECTION
  2
ENTITIES
  0
LINE
  8
BASIS
  6
DASHDOT
 62
     6
 10
0.0
 20
283.98301299999991
 30
0.0
 11
0.0
 21
-285.066237
 31
0.0
  0
POINT
  8
ARRANGE
  6
CONTINUOUS
 62
     1
 10
0.0
 20
0.0
 30
0.0
  0
LINE
  8
DETAIL
  6
CONTINUOUS
 62
     5
 10
242.00000000000011
 20
209.5
 30
0.0
 11
242.00000000000011
 21
-209.5
 31
0.0
  0
LINE
  8
DETAIL
  6
CONTINUOUS
 62
     5
 10
-241.9999999999998
 20
209.5
 30
0.0
 11
-241.9999999999998
 21
-209.5
 31
0.0
  0
CIRCLE
  8
ARRANGE
  6
CONTINUOUS
 62
     1
 10
0.0
 20
0.0
 30
0.0
 40
54.482759999999992
  0
LINE
  8
DETAIL
  6
CONTINUOUS
 62
     5
 10
-211.9999999999998
 20
239.5
 30
0.0
 11
212.00000000000011
 21
239.5
 31
0.0
  0
LINE
  8
DETAIL
  6
CONTINUOUS
 62
     5
 10
-211.9999999999998
 20
-239.5
 30
0.0
 11
212.00000000000011
 21
-239.5
 31
0.0
  0
LINE
  8
BASIS
  6
DASHDOT
 62
     6
 10
-298.63558499999982
 20
0.0
 30
0.0
 11
304.37358900000021
 21
0.0
 31
0.0
  0
ARC
  8
DETAIL
  6
CONTINUOUS
 62
     5
 10
-211.9999999999998
 20
209.5
 30
0.0
 40
30.0
 50
90.0
 51
180.0
  0
ARC
  8
DETAIL
  6
CONTINUOUS
 62
     5
 10
212.00000000000011
 20
209.5
 30
0.0
 40
30.0
 50
0.0
 51
90.0
  0
ARC
  8
DETAIL
  6
CONTINUOUS
 62
     5
 10
212.00000000000011
 20
-209.5
 30
0.0
 40
30.0
 50
270.0
 51
0.0
  0
ARC
  8
DETAIL
  6
CONTINUOUS
 62
     5
 10
-211.9999999999998
 20
-209.5
 30
0.0
 40
30.0
 50
180.0
 51
270.0
  0
ARC
  8
OUTLINE
  6
CONTINUOUS
 62
     3
 10
-211.9999999999998
 20
-209.5
 30
0.0
 40
30.0
 50
180.0
 51
270.0
  0
ARC
  8
OUTLINE
  6
CONTINUOUS
 62
     3
 10
212.00000000000011
 20
-209.5
 30
0.0
 40
30.0
 50
270.0
 51
0.0
  0
ARC
  8
OUTLINE
  6
CONTINUOUS
 62
     3
 10
212.00000000000011
 20
209.5
 30
0.0
 40
30.0
 50
0.0
 51
90.0
  0
ARC
  8
OUTLINE
  6
CONTINUOUS
 62
     3
 10
-211.9999999999998
 20
209.5
 30
0.0
 40
30.0
 50
90.0
 51
180.0
  0
LINE
  8
OUTLINE
  6
CONTINUOUS
 62
     3
 10
-211.9999999999998
 20
-239.5
 30
0.0
 11
212.00000000000011
 21
-239.5
 31
0.0
  0
LINE
  8
OUTLINE
  6
CONTINUOUS
 62
     3
 10
-211.9999999999998
 20
239.5
 30
0.0
 11
212.00000000000011
 21
239.5
 31
0.0
  0
LINE
  8
OUTLINE
  6
CONTINUOUS
 62
     3
 10
-241.9999999999998
 20
209.5
 30
0.0
 11
-241.9999999999998
 21
-209.5
 31
0.0
  0
LINE
  8
OUTLINE
  6
CONTINUOUS
 62
     3
 10
242.00000000000011
 20
209.5
 30
0.0
 11
242.00000000000011
 21
-209.5
 31
0.0
  0
LINE
  8
DETAIL
  6
CONTINUOUS
 62
     5
 10
-241.9999999999998
 20
209.5
 30
0.0
 11
242.00000000000011
 21
209.5
 31
0.0
  0
LINE
  8
DETAIL
  6
CONTINUOUS
 62
     5
 10
-241.9999999999998
 20
-209.5
 30
0.0
 11
242.00000000000011
 21
-209.5
 31
0.0
  0
ARC
  8
DETAIL
  6
CONTINUOUS
 62
     5
 10
-236.38499999999971
 20
203.81639999999999
 30
0.0
 40
2.6265
 50
0.0
 51
180.0
  0
ARC
  8
DETAIL
  6
CONTINUOUS
 62
     5
 10
-236.38499999999971
 20
177.5514
 30
0.0
 40
2.6265
 50
180.0
 51
0.0
  0
LINE
  8
DETAIL
  6
CONTINUOUS
 62
     5
 10
-239.01149999999981
 20
203.81639999999999
 30
0.0
 11
-239.01149999999981
 21
177.5514
 31
0.0
  0
LINE
  8
DETAIL
  6
CONTINUOUS
 62
     5
 10
-233.7584999999998
 20
203.81639999999999
 30
0.0
 11
-233.7584999999998
 21
177.5514
 31
0.0
  0
LINE
  8
DETAIL
  6
CONTINUOUS
 62
     5
 10
-233.7584999999998
 20
169.14660000000001
 30
0.0
 11
-233.7584999999998
 21
142.88159999999991
 31
0.0
  0
LINE
  8
DETAIL
  6
CONTINUOUS
 62
     5
 10
-239.01149999999981
 20
169.14660000000001
 30
0.0
 11
-239.01149999999981
 21
142.88159999999991
 31
0.0
  0
ARC
  8
DETAIL
  6
CONTINUOUS
 62
     5
 10
-236.38499999999971
 20
142.88159999999991
 30
0.0
 40
2.6265
 50
180.0
 51
0.0
  0
ARC
  8
DETAIL
  6
CONTINUOUS
 62
     5
 10
-236.38499999999971
 20
169.14660000000001
 30
0.0
 40
2.6265
 50
0.0
 51
180.0
  0
ARC
  8
DETAIL
  6
CONTINUOUS
 62
     5
 10
-236.38499999999971
 20
99.807000000000002
 30
0.0
 40
2.6265
 50
0.0
 51
180.0
  0
ARC
  8
DETAIL
  6
CONTINUOUS
 62
     5
 10
-236.38499999999971
 20
73.542000000000002
 30
0.0
 40
2.6265
 50
180.0
 51
0.0
  0
LINE
  8
DETAIL
  6
CONTINUOUS
 62
     5
 10
-239.01149999999981
 20
99.807000000000002
 30
0.0
 11
-239.01149999999981
 21
73.542000000000002
 31
0.0
  0
LINE
  8
DETAIL
  6
CONTINUOUS
 62
     5
 10
-233.7584999999998
 20
99.807000000000002
 30
0.0
 11
-233.7584999999998
 21
73.542000000000002
 31
0.0
  0
LINE
  8
DETAIL
  6
CONTINUOUS
 62
     5
 10
-233.7584999999998
 20
134.47679999999991
 30
0.0
 11
-233.7584999999998
 21
108.2117999999999
 31
0.0
  0
LINE
  8
DETAIL
  6
CONTINUOUS
 62
     5
 10
-239.01149999999981
 20
134.47679999999991
 30
0.0
 11
-239.01149999999981
 21
108.2117999999999
 31
0.0
  0
ARC
  8
DETAIL
  6
CONTINUOUS
 62
     5
 10
-236.38499999999971
 20
108.2117999999999
 30
0.0
 40
2.6265
 50
180.0
 51
0.0
  0
ARC
  8
DETAIL
  6
CONTINUOUS
 62
     5
 10
-236.38499999999971
 20
134.47679999999991
 30
0.0
 40
2.6265
 50
0.0
 51
180.0
  0
ARC
  8
DETAIL
  6
CONTINUOUS
 62
     5
 10
-236.38499999999971
 20
-4.202399999999999
 30
0.0
 40
2.6265
 50
0.0
 51
180.0
  0
ARC
  8
DETAIL
  6
CONTINUOUS
 62
     5
 10
-236.38499999999971
 20
-30.467399999999991
 30
0.0
 40
2.6265
 50
180.0
 51
0.0
  0
LINE
  8
DETAIL
  6
CONTINUOUS
 62
     5
 10
-239.01149999999981
 20
-4.202399999999999
 30
0.0
 11
-239.01149999999981
 21
-30.467399999999991
 31
0.0
  0
LINE
  8
DETAIL
  6
CONTINUOUS
 62
     5
 10
-233.7584999999998
 20
-4.202399999999999
 30
0.0
 11
-233.7584999999998
 21
-30.467399999999991
 31
0.0
  0
LINE
  8
DETAIL
  6
CONTINUOUS
 62
     5
 10
-233.7584999999998
 20
-38.872199999999999
 30
0.0
 11
-233.7584999999998
 21
-65.137200000000007
 31
0.0
  0
LINE
  8
DETAIL
  6
CONTINUOUS
 62
     5
 10
-239.01149999999981
 20
-38.872199999999999
 30
0.0
 11
-239.01149999999981
 21
-65.137200000000007
 31
0.0
  0
ARC
  8
DETAIL
  6
CONTINUOUS
 62
     5
 10
-236.38499999999971
 20
-65.137200000000007
 30
0.0
 40
2.6265
 50
180.0
 51
0.0
  0
ARC
  8
DETAIL
  6
CONTINUOUS
 62
     5
 10
-236.38499999999971
 20
-38.872199999999999
 30
0.0
 40
2.6265
 50
0.0
 51
180.0
  0
ARC
  8
DETAIL
  6
CONTINUOUS
 62
     5
 10
-236.38499999999971
 20
30.467400000000001
 30
0.0
 40
2.6265
 50
0.0
 51
180.0
  0
ARC
  8
DETAIL
  6
CONTINUOUS
 62
     5
 10
-236.38499999999971
 20
4.202399999999999
 30
0.0
 40
2.6265
 50
180.0
 51
0.0
  0
LINE
  8
DETAIL
  6
CONTINUOUS
 62
     5
 10
-239.01149999999981
 20
30.467400000000001
 30
0.0
 11
-239.01149999999981
 21
4.202399999999999
 31
0.0
  0
LINE
  8
DETAIL
  6
CONTINUOUS
 62
     5
 10
-233.7584999999998
 20
30.467400000000001
 30
0.0
 11
-233.7584999999998
 21
4.202399999999999
 31
0.0
  0
LINE
  8
DETAIL
  6
CONTINUOUS
 62
     5
 10
-233.7584999999998
 20
65.137200000000007
 30
0.0
 11
-233.7584999999998
 21
38.872199999999999
 31
0.0
  0
LINE
  8
DETAIL
  6
CONTINUOUS
 62
     5
 10
-239.01149999999981
 20
65.137200000000007
 30
0.0
 11
-239.01149999999981
 21
38.872199999999999
 31
0.0
  0
ARC
  8
DETAIL
  6
CONTINUOUS
 62
     5
 10
-236.38499999999971
 20
38.872199999999999
 30
0.0
 40
2.6265
 50
180.0
 51
0.0
  0
ARC
  8
DETAIL
  6
CONTINUOUS
 62
     5
 10
-236.38499999999971
 20
65.137200000000007
 30
0.0
 40
2.6265
 50
0.0
 51
180.0
  0
ARC
  8
DETAIL
  6
CONTINUOUS
 62
     5
 10
-236.38499999999971
 20
-108.2117999999999
 30
0.0
 40
2.6265
 50
0.0
 51
180.0
  0
ARC
  8
DETAIL
  6
CONTINUOUS
 62
     5
 10
-236.38499999999971
 20
-134.47679999999991
 30
0.0
 40
2.6265
 50
180.0
 51
0.0
  0
LINE
  8
DETAIL
  6
CONTINUOUS
 62
     5
 10
-239.01149999999981
 20
-108.2117999999999
 30
0.0
 11
-239.01149999999981
 21
-134.47679999999991
 31
0.0
  0
LINE
  8
DETAIL
  6
CONTINUOUS
 62
     5
 10
-233.7584999999998
 20
-108.2117999999999
 30
0.0
 11
-233.7584999999998
 21
-134.47679999999991
 31
0.0
  0
LINE
  8
DETAIL
  6
CONTINUOUS
 62
     5
 10
-233.7584999999998
 20
-142.88159999999991
 30
0.0
 11
-233.7584999999998
 21
-169.14660000000001
 31
0.0
  0
LINE
  8
DETAIL
  6
CONTINUOUS
 62
     5
 10
-239.01149999999981
 20
-142.88159999999991
 30
0.0
 11
-239.01149999999981
 21
-169.14660000000001
 31
0.0
  0
ARC
  8
DETAIL
  6
CONTINUOUS
 62
     5
 10
-236.38499999999971
 20
-169.14660000000001
 30
0.0
 40
2.6265
 50
180.0
 51
0.0
  0
ARC
  8
DETAIL
  6
CONTINUOUS
 62
     5
 10
-236.38499999999971
 20
-142.88159999999991
 30
0.0
 40
2.6265
 50
0.0
 51
180.0
  0
LINE
  8
DETAIL
  6
CONTINUOUS
 62
     5
 10
-233.7584999999998
 20
-177.5514
 30
0.0
 11
-233.7584999999998
 21
-203.81639999999999
 31
0.0
  0
LINE
  8
DETAIL
  6
CONTINUOUS
 62
     5
 10
-239.01149999999981
 20
-177.5514
 30
0.0
 11
-239.01149999999981
 21
-203.81639999999999
 31
0.0
  0
ARC
  8
DETAIL
  6
CONTINUOUS
 62
     5
 10
-236.38499999999971
 20
-203.81639999999999
 30
0.0
 40
2.6265
 50
180.0
 51
0.0
  0
ARC
  8
DETAIL
  6
CONTINUOUS
 62
     5
 10
-236.38499999999971
 20
-177.5514
 30
0.0
 40
2.6265
 50
0.0
 51
180.0
  0
LINE
  8
DETAIL
  6
CONTINUOUS
 62
     5
 10
-233.7584999999998
 20
-73.542000000000002
 30
0.0
 11
-233.7584999999998
 21
-99.807000000000002
 31
0.0
  0
LINE
  8
DETAIL
  6
CONTINUOUS
 62
     5
 10
-239.01149999999981
 20
-73.542000000000002
 30
0.0
 11
-239.01149999999981
 21
-99.807000000000002
 31
0.0
  0
ARC
  8
DETAIL
  6
CONTINUOUS
 62
     5
 10
-236.38499999999971
 20
-99.807000000000002
 30
0.0
 40
2.6265
 50
180.0
 51
0.0
  0
ARC
  8
DETAIL
  6
CONTINUOUS
 62
     5
 10
-236.38499999999971
 20
-73.542000000000002
 30
0.0
 40
2.6265
 50
0.0
 51
180.0
  0
ARC
  8
DETAIL
  6
CONTINUOUS
 62
     5
 10
-225.87899999999971
 20
-73.542000000000002
 30
0.0
 40
2.6265
 50
0.0
 51
180.0
  0
ARC
  8
DETAIL
  6
CONTINUOUS
 62
     5
 10
-225.87899999999971
 20
-99.807000000000002
 30
0.0
 40
2.6265
 50
180.0
 51
0.0
  0
LINE
  8
DETAIL
  6
CONTINUOUS
 62
     5
 10
-228.50549999999981
 20
-73.542000000000002
 30
0.0
 11
-228.50549999999981
 21
-99.807000000000002
 31
0.0
  0
LINE
  8
DETAIL
  6
CONTINUOUS
 62
     5
 10
-223.25249999999991
 20
-73.542000000000002
 30
0.0
 11
-223.25249999999991
 21
-99.807000000000002
 31
0.0
  0
ARC
  8
DETAIL
  6
CONTINUOUS
 62
     5
 10
-225.87899999999971
 20
-177.5514
 30
0.0
 40
2.6265
 50
0.0
 51
180.0
  0
ARC
  8
DETAIL
  6
CONTINUOUS
 62
     5
 10
-225.87899999999971
 20
-203.81639999999999
 30
0.0
 40
2.6265
 50
180.0
 51
0.0
  0
LINE
  8
DETAIL
  6
CONTINUOUS
 62
     5
 10
-228.50549999999981
 20
-177.5514
 30
0.0
 11
-228.50549999999981
 21
-203.81639999999999
 31
0.0
  0
LINE
  8
DETAIL
  6
CONTINUOUS
 62
     5
 10
-223.25249999999991
 20
-177.5514
 30
0.0
 11
-223.25249999999991
 21
-203.81639999999999
 31
0.0
  0
ARC
  8
DETAIL
  6
CONTINUOUS
 62
     5
 10
-225.87899999999971
 20
-142.88159999999991
 30
0.0
 40
2.6265
 50
0.0
 51
180.0
  0
ARC
  8
DETAIL
  6
CONTINUOUS
 62
     5
 10
-225.87899999999971
 20
-169.14660000000001
 30
0.0
 40
2.6265
 50
180.0
 51
0.0
  0
LINE
  8
DETAIL
  6
CONTINUOUS
 62
     5
 10
-228.50549999999981
 20
-142.88159999999991
 30
0.0
 11
-228.50549999999981
 21
-169.14660000000001
 31
0.0
  0
LINE
  8
DETAIL
  6
CONTINUOUS
 62
     5
 10
-223.25249999999991
 20
-142.88159999999991
 30
0.0
 11
-223.25249999999991
 21
-169.14660000000001
 31
0.0
  0
LINE
  8
DETAIL
  6
CONTINUOUS
 62
     5
 10
-223.25249999999991
 20
-108.2117999999999
 30
0.0
 11
-223.25249999999991
 21
-134.47679999999991
 31
0.0
  0
LINE
  8
DETAIL
  6
CONTINUOUS
 62
     5
 10
-228.50549999999981
 20
-108.2117999999999
 30
0.0
 11
-228.50549999999981
 21
-134.47679999999991
 31
0.0
  0
ARC
  8
DETAIL
  6
CONTINUOUS
 62
     5
 10
-225.87899999999971
 20
-134.47679999999991
 30
0.0
 40
2.6265
 50
180.0
 51
0.0
  0
ARC
  8
DETAIL
  6
CONTINUOUS
 62
     5
 10
-225.87899999999971
 20
-108.2117999999999
 30
0.0
 40
2.6265
 50
0.0
 51
180.0
  0
ARC
  8
DETAIL
  6
CONTINUOUS
 62
     5
 10
-225.87899999999971
 20
65.137200000000007
 30
0.0
 40
2.6265
 50
0.0
 51
180.0
  0
ARC
  8
DETAIL
  6
CONTINUOUS
 62
     5
 10
-225.87899999999971
 20
38.872199999999999
 30
0.0
 40
2.6265
 50
180.0
 51
0.0
  0
LINE
  8
DETAIL
  6
CONTINUOUS
 62
     5
 10
-228.50549999999981
 20
65.137200000000007
 30
0.0
 11
-228.50549999999981
 21
38.872199999999999
 31
0.0
  0
LINE
  8
DETAIL
  6
CONTINUOUS
 62
     5
 10
-223.25249999999991
 20
65.137200000000007
 30
0.0
 11
-223.25249999999991
 21
38.872199999999999
 31
0.0
  0
LINE
  8
DETAIL
  6
CONTINUOUS
 62
     5
 10
-223.25249999999991
 20
30.467400000000001
 30
0.0
 11
-223.25249999999991
 21
4.202399999999999
 31
0.0
  0
LINE
  8
DETAIL
  6
CONTINUOUS
 62
     5
 10
-228.50549999999981
 20
30.467400000000001
 30
0.0
 11
-228.50549999999981
 21
4.202399999999999
 31
0.0
  0
ARC
  8
DETAIL
  6
CONTINUOUS
 62
     5
 10
-225.87899999999971
 20
4.202399999999999
 30
0.0
 40
2.6265
 50
180.0
 51
0.0
  0
ARC
  8
DETAIL
  6
CONTINUOUS
 62
     5
 10
-225.87899999999971
 20
30.467400000000001
 30
0.0
 40
2.6265
 50
0.0
 51
180.0
  0
ARC
  8
DETAIL
  6
CONTINUOUS
 62
     5
 10
-225.87899999999971
 20
-38.872199999999999
 30
0.0
 40
2.6265
 50
0.0
 51
180.0
  0
ARC
  8
DETAIL
  6
CONTINUOUS
 62
     5
 10
-225.87899999999971
 20
-65.137200000000007
 30
0.0
 40
2.6265
 50
180.0
 51
0.0
  0
LINE
  8
DETAIL
  6
CONTINUOUS
 62
     5
 10
-228.50549999999981
 20
-38.872199999999999
 30
0.0
 11
-228.50549999999981
 21
-65.137200000000007
 31
0.0
  0
LINE
  8
DETAIL
  6
CONTINUOUS
 62
     5
 10
-223.25249999999991
 20
-38.872199999999999
 30
0.0
 11
-223.25249999999991
 21
-65.137200000000007
 31
0.0
  0
LINE
  8
DETAIL
  6
CONTINUOUS
 62
     5
 10
-223.25249999999991
 20
-4.202399999999999
 30
0.0
 11
-223.25249999999991
 21
-30.467399999999991
 31
0.0
  0
LINE
  8
DETAIL
  6
CONTINUOUS
 62
     5
 10
-228.50549999999981
 20
-4.202399999999999
 30
0.0
 11
-228.50549999999981
 21
-30.467399999999991
 31
0.0
  0
ARC
  8
DETAIL
  6
CONTINUOUS
 62
     5
 10
-225.87899999999971
 20
-30.467399999999991
 30
0.0
 40
2.6265
 50
180.0
 51
0.0
  0
ARC
  8
DETAIL
  6
CONTINUOUS
 62
     5
 10
-225.87899999999971
 20
-4.202399999999999
 30
0.0
 40
2.6265
 50
0.0
 51
180.0
  0
ARC
  8
DETAIL
  6
CONTINUOUS
 62
     5
 10
-225.87899999999971
 20
134.47679999999991
 30
0.0
 40
2.6265
 50
0.0
 51
180.0
  0
ARC
  8
DETAIL
  6
CONTINUOUS
 62
     5
 10
-225.87899999999971
 20
108.2117999999999
 30
0.0
 40
2.6265
 50
180.0
 51
0.0
  0
LINE
  8
DETAIL
  6
CONTINUOUS
 62
     5
 10
-228.50549999999981
 20
134.47679999999991
 30
0.0
 11
-228.50549999999981
 21
108.2117999999999
 31
0.0
  0
LINE
  8
DETAIL
  6
CONTINUOUS
 62
     5
 10
-223.25249999999991
 20
134.47679999999991
 30
0.0
 11
-223.25249999999991
 21
108.2117999999999
 31
0.0
  0
LINE
  8
DETAIL
  6
CONTINUOUS
 62
     5
 10
-223.25249999999991
 20
99.807000000000002
 30
0.0
 11
-223.25249999999991
 21
73.542000000000002
 31
0.0
  0
LINE
  8
DETAIL
  6
CONTINUOUS
 62
     5
 10
-228.50549999999981
 20
99.807000000000002
 30
0.0
 11
-228.50549999999981
 21
73.542000000000002
 31
0.0
  0
ARC
  8
DETAIL
  6
CONTINUOUS
 62
     5
 10
-225.87899999999971
 20
73.542000000000002
 30
0.0
 40
2.6265
 50
180.0
 51
0.0
  0
ARC
  8
DETAIL
  6
CONTINUOUS
 62
     5
 10
-225.87899999999971
 20
99.807000000000002
 30
0.0
 40
2.6265
 50
0.0
 51
180.0
  0
ARC
  8
DETAIL
  6
CONTINUOUS
 62
     5
 10
-225.87899999999971
 20
169.14660000000001
 30
0.0
 40
2.6265
 50
0.0
 51
180.0
  0
ARC
  8
DETAIL
  6
CONTINUOUS
 62
     5
 10
-225.87899999999971
 20
142.88159999999991
 30
0.0
 40
2.6265
 50
180.0
 51
0.0
  0
LINE
  8
DETAIL
  6
CONTINUOUS
 62
     5
 10
-228.50549999999981
 20
169.14660000000001
 30
0.0
 11
-228.50549999999981
 21
142.88159999999991
 31
0.0
  0
LINE
  8
DETAIL
  6
CONTINUOUS
 62
     5
 10
-223.25249999999991
 20
169.14660000000001
 30
0.0
 11
-223.25249999999991
 21
142.88159999999991
 31
0.0
  0
LINE
  8
DETAIL
  6
CONTINUOUS
 62
     5
 10
-223.25249999999991
 20
203.81639999999999
 30
0.0
 11
-223.25249999999991
 21
177.5514
 31
0.0
  0
LINE
  8
DETAIL
  6
CONTINUOUS
 62
     5
 10
-228.50549999999981
 20
203.81639999999999
 30
0.0
 11
-228.50549999999981
 21
177.5514
 31
0.0
  0
ARC
  8
DETAIL
  6
CONTINUOUS
 62
     5
 10
-225.87899999999971
 20
177.5514
 30
0.0
 40
2.6265
 50
180.0
 51
0.0
  0
ARC
  8
DETAIL
  6
CONTINUOUS
 62
     5
 10
-225.87899999999971
 20
203.81639999999999
 30
0.0
 40
2.6265
 50
0.0
 51
180.0
  0
ARC
  8
DETAIL
  6
CONTINUOUS
 62
     5
 10
-204.8669999999999
 20
203.81639999999999
 30
0.0
 40
2.6265
 50
0.0
 51
180.0
  0
ARC
  8
DETAIL
  6
CONTINUOUS
 62
     5
 10
-204.8669999999999
 20
177.5514
 30
0.0
 40
2.6265
 50
180.0
 51
0.0
  0
LINE
  8
DETAIL
  6
CONTINUOUS
 62
     5
 10
-207.49349999999981
 20
203.81639999999999
 30
0.0
 11
-207.49349999999981
 21
177.5514
 31
0.0
  0
LINE
  8
DETAIL
  6
CONTINUOUS
 62
     5
 10
-202.2404999999998
 20
203.81639999999999
 30
0.0
 11
-202.2404999999998
 21
177.5514
 31
0.0
  0
LINE
  8
DETAIL
  6
CONTINUOUS
 62
     5
 10
-202.2404999999998
 20
169.14660000000001
 30
0.0
 11
-202.2404999999998
 21
142.88159999999991
 31
0.0
  0
LINE
  8
DETAIL
  6
CONTINUOUS
 62
     5
 10
-207.49349999999981
 20
169.14660000000001
 30
0.0
 11
-207.49349999999981
 21
142.88159999999991
 31
0.0
  0
ARC
  8
DETAIL
  6
CONTINUOUS
 62
     5
 10
-204.8669999999999
 20
142.88159999999991
 30
0.0
 40
2.6265
 50
180.0
 51
0.0
  0
ARC
  8
DETAIL
  6
CONTINUOUS
 62
     5
 10
-204.8669999999999
 20
169.14660000000001
 30
0.0
 40
2.6265
 50
0.0
 51
180.0
  0
ARC
  8
DETAIL
  6
CONTINUOUS
 62
     5
 10
-204.8669999999999
 20
99.807000000000002
 30
0.0
 40
2.6265
 50
0.0
 51
180.0
  0
ARC
  8
DETAIL
  6
CONTINUOUS
 62
     5
 10
-204.8669999999999
 20
73.542000000000002
 30
0.0
 40
2.6265
 50
180.0
 51
0.0
  0
LINE
  8
DETAIL
  6
CONTINUOUS
 62
     5
 10
-207.49349999999981
 20
99.807000000000002
 30
0.0
 11
-207.49349999999981
 21
73.542000000000002
 31
0.0
  0
LINE
  8
DETAIL
  6
CONTINUOUS
 62
     5
 10
-202.2404999999998
 20
99.807000000000002
 30
0.0
 11
-202.2404999999998
 21
73.542000000000002
 31
0.0
  0
LINE
  8
DETAIL
  6
CONTINUOUS
 62
     5
 10
-202.2404999999998
 20
134.47679999999991
 30
0.0
 11
-202.2404999999998
 21
108.2117999999999
 31
0.0
  0
LINE
  8
DETAIL
  6
CONTINUOUS
 62
     5
 10
-207.49349999999981
 20
134.47679999999991
 30
0.0
 11
-207.49349999999981
 21
108.2117999999999
 31
0.0
  0
ARC
  8
DETAIL
  6
CONTINUOUS
 62
     5
 10
-204.8669999999999
 20
108.2117999999999
 30
0.0
 40
2.6265
 50
180.0
 51
0.0
  0
ARC
  8
DETAIL
  6
CONTINUOUS
 62
     5
 10
-204.8669999999999
 20
134.47679999999991
 30
0.0
 40
2.6265
 50
0.0
 51
180.0
  0
ARC
  8
DETAIL
  6
CONTINUOUS
 62
     5
 10
-204.8669999999999
 20
-4.202399999999999
 30
0.0
 40
2.6265
 50
0.0
 51
180.0
  0
ARC
  8
DETAIL
  6
CONTINUOUS
 62
     5
 10
-204.8669999999999
 20
-30.467399999999991
 30
0.0
 40
2.6265
 50
180.0
 51
0.0
  0
LINE
  8
DETAIL
  6
CONTINUOUS
 62
     5
 10
-207.49349999999981
 20
-4.202399999999999
 30
0.0
 11
-207.49349999999981
 21
-30.467399999999991
 31
0.0
  0
LINE
  8
DETAIL
  6
CONTINUOUS
 62
     5
 10
-202.2404999999998
 20
-4.202399999999999
 30
0.0
 11
-202.2404999999998
 21
-30.467399999999991
 31
0.0
  0
LINE
  8
DETAIL
  6
CONTINUOUS
 62
     5
 10
-202.2404999999998
 20
-38.872199999999999
 30
0.0
 11
-202.2404999999998
 21
-65.137200000000007
 31
0.0
  0
LINE
  8
DETAIL
  6
CONTINUOUS
 62
     5
 10
-207.49349999999981
 20
-38.872199999999999
 30
0.0
 11
-207.49349999999981
 21
-65.137200000000007
 31
0.0
  0
ARC
  8
DETAIL
  6
CONTINUOUS
 62
     5
 10
-204.8669999999999
 20
-65.137200000000007
 30
0.0
 40
2.6265
 50
180.0
 51
0.0
  0
ARC
  8
DETAIL
  6
CONTINUOUS
 62
     5
 10
-204.8669999999999
 20
-38.872199999999999
 30
0.0
 40
2.6265
 50
0.0
 51
180.0
  0
ARC
  8
DETAIL
  6
CONTINUOUS
 62
     5
 10
-204.8669999999999
 20
30.467400000000001
 30
0.0
 40
2.6265
 50
0.0
 51
180.0
  0
ARC
  8
DETAIL
  6
CONTINUOUS
 62
     5
 10
-204.8669999999999
 20
4.202399999999999
 30
0.0
 40
2.6265
 50
180.0
 51
0.0
  0
LINE
  8
DETAIL
  6
CONTINUOUS
 62
     5
 10
-207.49349999999981
 20
30.467400000000001
 30
0.0
 11
-207.49349999999981
 21
4.202399999999999
 31
0.0
  0
LINE
  8
DETAIL
  6
CONTINUOUS
 62
     5
 10
-202.2404999999998
 20
30.467400000000001
 30
0.0
 11
-202.2404999999998
 21
4.202399999999999
 31
0.0
  0
LINE
  8
DETAIL
  6
CONTINUOUS
 62
     5
 10
-202.2404999999998
 20
65.137200000000007
 30
0.0
 11
-202.2404999999998
 21
38.872199999999999
 31
0.0
  0
LINE
  8
DETAIL
  6
CONTINUOUS
 62
     5
 10
-207.49349999999981
 20
65.137200000000007
 30
0.0
 11
-207.49349999999981
 21
38.872199999999999
 31
0.0
  0
ARC
  8
DETAIL
  6
CONTINUOUS
 62
     5
 10
-204.8669999999999
 20
38.872199999999999
 30
0.0
 40
2.6265
 50
180.0
 51
0.0
  0
ARC
  8
DETAIL
  6
CONTINUOUS
 62
     5
 10
-204.8669999999999
 20
65.137200000000007
 30
0.0
 40
2.6265
 50
0.0
 51
180.0
  0
ARC
  8
DETAIL
  6
CONTINUOUS
 62
     5
 10
-204.8669999999999
 20
-108.2117999999999
 30
0.0
 40
2.6265
 50
0.0
 51
180.0
  0
ARC
  8
DETAIL
  6
CONTINUOUS
 62
     5
 10
-204.8669999999999
 20
-134.47679999999991
 30
0.0
 40
2.6265
 50
180.0
 51
0.0
  0
LINE
  8
DETAIL
  6
CONTINUOUS
 62
     5
 10
-207.49349999999981
 20
-108.2117999999999
 30
0.0
 11
-207.49349999999981
 21
-134.47679999999991
 31
0.0
  0
LINE
  8
DETAIL
  6
CONTINUOUS
 62
     5
 10
-202.2404999999998
 20
-108.2117999999999
 30
0.0
 11
-202.2404999999998
 21
-134.47679999999991
 31
0.0
  0
LINE
  8
DETAIL
  6
CONTINUOUS
 62
     5
 10
-202.2404999999998
 20
-142.88159999999991
 30
0.0
 11
-202.2404999999998
 21
-169.14660000000001
 31
0.0
  0
LINE
  8
DETAIL
  6
CONTINUOUS
 62
     5
 10
-207.49349999999981
 20
-142.88159999999991
 30
0.0
 11
-207.49349999999981
 21
-169.14660000000001
 31
0.0
  0
ARC
  8
DETAIL
  6
CONTINUOUS
 62
     5
 10
-204.8669999999999
 20
-169.14660000000001
 30
0.0
 40
2.6265
 50
180.0
 51
0.0
  0
ARC
  8
DETAIL
  6
CONTINUOUS
 62
     5
 10
-204.8669999999999
 20
-142.88159999999991
 30
0.0
 40
2.6265
 50
0.0
 51
180.0
  0
LINE
  8
DETAIL
  6
CONTINUOUS
 62
     5
 10
-202.2404999999998
 20
-177.5514
 30
0.0
 11
-202.2404999999998
 21
-203.81639999999999
 31
0.0
  0
LINE
  8
DETAIL
  6
CONTINUOUS
 62
     5
 10
-207.49349999999981
 20
-177.5514
 30
0.0
 11
-207.49349999999981
 21
-203.81639999999999
 31
0.0
  0
ARC
  8
DETAIL
  6
CONTINUOUS
 62
     5
 10
-204.8669999999999
 20
-203.81639999999999
 30
0.0
 40
2.6265
 50
180.0
 51
0.0
  0
ARC
  8
DETAIL
  6
CONTINUOUS
 62
     5
 10
-204.8669999999999
 20
-177.5514
 30
0.0
 40
2.6265
 50
0.0
 51
180.0
  0
LINE
  8
DETAIL
  6
CONTINUOUS
 62
     5
 10
-202.2404999999998
 20
-73.542000000000002
 30
0.0
 11
-202.2404999999998
 21
-99.807000000000002
 31
0.0
  0
LINE
  8
DETAIL
  6
CONTINUOUS
 62
     5
 10
-207.49349999999981
 20
-73.542000000000002
 30
0.0
 11
-207.49349999999981
 21
-99.807000000000002
 31
0.0
  0
ARC
  8
DETAIL
  6
CONTINUOUS
 62
     5
 10
-204.8669999999999
 20
-99.807000000000002
 30
0.0
 40
2.6265
 50
180.0
 51
0.0
  0
ARC
  8
DETAIL
  6
CONTINUOUS
 62
     5
 10
-204.8669999999999
 20
-73.542000000000002
 30
0.0
 40
2.6265
 50
0.0
 51
180.0
  0
ARC
  8
DETAIL
  6
CONTINUOUS
 62
     5
 10
-215.37299999999971
 20
-73.542000000000002
 30
0.0
 40
2.6265
 50
0.0
 51
180.0
  0
ARC
  8
DETAIL
  6
CONTINUOUS
 62
     5
 10
-215.37299999999971
 20
-99.807000000000002
 30
0.0
 40
2.6265
 50
180.0
 51
0.0
  0
LINE
  8
DETAIL
  6
CONTINUOUS
 62
     5
 10
-217.99949999999981
 20
-73.542000000000002
 30
0.0
 11
-217.99949999999981
 21
-99.807000000000002
 31
0.0
  0
LINE
  8
DETAIL
  6
CONTINUOUS
 62
     5
 10
-212.7464999999998
 20
-73.542000000000002
 30
0.0
 11
-212.7464999999998
 21
-99.807000000000002
 31
0.0
  0
ARC
  8
DETAIL
  6
CONTINUOUS
 62
     5
 10
-215.37299999999971
 20
-177.5514
 30
0.0
 40
2.6265
 50
0.0
 51
180.0
  0
ARC
  8
DETAIL
  6
CONTINUOUS
 62
     5
 10
-215.37299999999971
 20
-203.81639999999999
 30
0.0
 40
2.6265
 50
180.0
 51
0.0
  0
LINE
  8
DETAIL
  6
CONTINUOUS
 62
     5
 10
-217.99949999999981
 20
-177.5514
 30
0.0
 11
-217.99949999999981
 21
-203.81639999999999
 31
0.0
  0
LINE
  8
DETAIL
  6
CONTINUOUS
 62
     5
 10
-212.7464999999998
 20
-177.5514
 30
0.0
 11
-212.7464999999998
 21
-203.81639999999999
 31
0.0
  0
ARC
  8
DETAIL
  6
CONTINUOUS
 62
     5
 10
-215.37299999999971
 20
-142.88159999999991
 30
0.0
 40
2.6265
 50
0.0
 51
180.0
  0
ARC
  8
DETAIL
  6
CONTINUOUS
 62
     5
 10
-215.37299999999971
 20
-169.14660000000001
 30
0.0
 40
2.6265
 50
180.0
 51
0.0
  0
LINE
  8
DETAIL
  6
CONTINUOUS
 62
     5
 10
-217.99949999999981
 20
-142.88159999999991
 30
0.0
 11
-217.99949999999981
 21
-169.14660000000001
 31
0.0
  0
LINE
  8
DETAIL
  6
CONTINUOUS
 62
     5
 10
-212.7464999999998
 20
-142.88159999999991
 30
0.0
 11
-212.7464999999998
 21
-169.14660000000001
 31
0.0
  0
LINE
  8
DETAIL
  6
CONTINUOUS
 62
     5
 10
-212.7464999999998
 20
-108.2117999999999
 30
0.0
 11
-212.7464999999998
 21
-134.47679999999991
 31
0.0
  0
LINE
  8
DETAIL
  6
CONTINUOUS
 62
     5
 10
-217.99949999999981
 20
-108.2117999999999
 30
0.0
 11
-217.99949999999981
 21
-134.47679999999991
 31
0.0
  0
ARC
  8
DETAIL
  6
CONTINUOUS
 62
     5
 10
-215.37299999999971
 20
-134.47679999999991
 30
0.0
 40
2.6265
 50
180.0
 51
0.0
  0
ARC
  8
DETAIL
  6
CONTINUOUS
 62
     5
 10
-215.37299999999971
 20
-108.2117999999999
 30
0.0
 40
2.6265
 50
0.0
 51
180.0
  0
ARC
  8
DETAIL
  6
CONTINUOUS
 62
     5
 10
-215.37299999999971
 20
65.137200000000007
 30
0.0
 40
2.6265
 50
0.0
 51
180.0
  0
ARC
  8
DETAIL
  6
CONTINUOUS
 62
     5
 10
-215.37299999999971
 20
38.872199999999999
 30
0.0
 40
2.6265
 50
180.0
 51
0.0
  0
LINE
  8
DETAIL
  6
CONTINUOUS
 62
     5
 10
-217.99949999999981
 20
65.137200000000007
 30
0.0
 11
-217.99949999999981
 21
38.872199999999999
 31
0.0
  0
LINE
  8
DETAIL
  6
CONTINUOUS
 62
     5
 10
-212.7464999999998
 20
65.137200000000007
 30
0.0
 11
-212.7464999999998
 21
38.872199999999999
 31
0.0
  0
LINE
  8
DETAIL
  6
CONTINUOUS
 62
     5
 10
-212.7464999999998
 20
30.467400000000001
 30
0.0
 11
-212.7464999999998
 21
4.202399999999999
 31
0.0
  0
LINE
  8
DETAIL
  6
CONTINUOUS
 62
     5
 10
-217.99949999999981
 20
30.467400000000001
 30
0.0
 11
-217.99949999999981
 21
4.202399999999999
 31
0.0
  0
ARC
  8
DETAIL
  6
CONTINUOUS
 62
     5
 10
-215.37299999999971
 20
4.202399999999999
 30
0.0
 40
2.6265
 50
180.0
 51
0.0
  0
ARC
  8
DETAIL
  6
CONTINUOUS
 62
     5
 10
-215.37299999999971
 20
30.467400000000001
 30
0.0
 40
2.6265
 50
0.0
 51
180.0
  0
ARC
  8
DETAIL
  6
CONTINUOUS
 62
     5
 10
-215.37299999999971
 20
-38.872199999999999
 30
0.0
 40
2.6265
 50
0.0
 51
180.0
  0
ARC
  8
DETAIL
  6
CONTINUOUS
 62
     5
 10
-215.37299999999971
 20
-65.137200000000007
 30
0.0
 40
2.6265
 50
180.0
 51
0.0
  0
LINE
  8
DETAIL
  6
CONTINUOUS
 62
     5
 10
-217.99949999999981
 20
-38.872199999999999
 30
0.0
 11
-217.99949999999981
 21
-65.137200000000007
 31
0.0
  0
LINE
  8
DETAIL
  6
CONTINUOUS
 62
     5
 10
-212.7464999999998
 20
-38.872199999999999
 30
0.0
 11
-212.7464999999998
 21
-65.137200000000007
 31
0.0
  0
LINE
  8
DETAIL
  6
CONTINUOUS
 62
     5
 10
-212.7464999999998
 20
-4.202399999999999
 30
0.0
 11
-212.7464999999998
 21
-30.467399999999991
 31
0.0
  0
LINE
  8
DETAIL
  6
CONTINUOUS
 62
     5
 10
-217.99949999999981
 20
-4.202399999999999
 30
0.0
 11
-217.99949999999981
 21
-30.467399999999991
 31
0.0
  0
ARC
  8
DETAIL
  6
CONTINUOUS
 62
     5
 10
-215.37299999999971
 20
-30.467399999999991
 30
0.0
 40
2.6265
 50
180.0
 51
0.0
  0
ARC
  8
DETAIL
  6
CONTINUOUS
 62
     5
 10
-215.37299999999971
 20
-4.202399999999999
 30
0.0
 40
2.6265
 50
0.0
 51
180.0
  0
ARC
  8
DETAIL
  6
CONTINUOUS
 62
     5
 10
-215.37299999999971
 20
134.47679999999991
 30
0.0
 40
2.6265
 50
0.0
 51
180.0
  0
ARC
  8
DETAIL
  6
CONTINUOUS
 62
     5
 10
-215.37299999999971
 20
108.2117999999999
 30
0.0
 40
2.6265
 50
180.0
 51
0.0
  0
LINE
  8
DETAIL
  6
CONTINUOUS
 62
     5
 10
-217.99949999999981
 20
134.47679999999991
 30
0.0
 11
-217.99949999999981
 21
108.2117999999999
 31
0.0
  0
LINE
  8
DETAIL
  6
CONTINUOUS
 62
     5
 10
-212.7464999999998
 20
134.47679999999991
 30
0.0
 11
-212.7464999999998
 21
108.2117999999999
 31
0.0
  0
LINE
  8
DETAIL
  6
CONTINUOUS
 62
     5
 10
-212.7464999999998
 20
99.807000000000002
 30
0.0
 11
-212.7464999999998
 21
73.542000000000002
 31
0.0
  0
LINE
  8
DETAIL
  6
CONTINUOUS
 62
     5
 10
-217.99949999999981
 20
99.807000000000002
 30
0.0
 11
-217.99949999999981
 21
73.542000000000002
 31
0.0
  0
ARC
  8
DETAIL
  6
CONTINUOUS
 62
     5
 10
-215.37299999999971
 20
73.542000000000002
 30
0.0
 40
2.6265
 50
180.0
 51
0.0
  0
ARC
  8
DETAIL
  6
CONTINUOUS
 62
     5
 10
-215.37299999999971
 20
99.807000000000002
 30
0.0
 40
2.6265
 50
0.0
 51
180.0
  0
ARC
  8
DETAIL
  6
CONTINUOUS
 62
     5
 10
-215.37299999999971
 20
169.14660000000001
 30
0.0
 40
2.6265
 50
0.0
 51
180.0
  0
ARC
  8
DETAIL
  6
CONTINUOUS
 62
     5
 10
-215.37299999999971
 20
142.88159999999991
 30
0.0
 40
2.6265
 50
180.0
 51
0.0
  0
LINE
  8
DETAIL
  6
CONTINUOUS
 62
     5
 10
-217.99949999999981
 20
169.14660000000001
 30
0.0
 11
-217.99949999999981
 21
142.88159999999991
 31
0.0
  0
LINE
  8
DETAIL
  6
CONTINUOUS
 62
     5
 10
-212.7464999999998
 20
169.14660000000001
 30
0.0
 11
-212.7464999999998
 21
142.88159999999991
 31
0.0
  0
LINE
  8
DETAIL
  6
CONTINUOUS
 62
     5
 10
-212.7464999999998
 20
203.81639999999999
 30
0.0
 11
-212.7464999999998
 21
177.5514
 31
0.0
  0
LINE
  8
DETAIL
  6
CONTINUOUS
 62
     5
 10
-217.99949999999981
 20
203.81639999999999
 30
0.0
 11
-217.99949999999981
 21
177.5514
 31
0.0
  0
ARC
  8
DETAIL
  6
CONTINUOUS
 62
     5
 10
-215.37299999999971
 20
177.5514
 30
0.0
 40
2.6265
 50
180.0
 51
0.0
  0
ARC
  8
DETAIL
  6
CONTINUOUS
 62
     5
 10
-215.37299999999971
 20
203.81639999999999
 30
0.0
 40
2.6265
 50
0.0
 51
180.0
  0
ARC
  8
DETAIL
  6
CONTINUOUS
 62
     5
 10
-173.3489999999999
 20
203.81639999999999
 30
0.0
 40
2.6265
 50
0.0
 51
180.0
  0
ARC
  8
DETAIL
  6
CONTINUOUS
 62
     5
 10
-173.3489999999999
 20
177.5514
 30
0.0
 40
2.6265
 50
180.0
 51
0.0
  0
LINE
  8
DETAIL
  6
CONTINUOUS
 62
     5
 10
-175.9754999999999
 20
203.81639999999999
 30
0.0
 11
-175.9754999999999
 21
177.5514
 31
0.0
  0
LINE
  8
DETAIL
  6
CONTINUOUS
 62
     5
 10
-170.7224999999998
 20
203.81639999999999
 30
0.0
 11
-170.7224999999998
 21
177.5514
 31
0.0
  0
LINE
  8
DETAIL
  6
CONTINUOUS
 62
     5
 10
-170.7224999999998
 20
169.14660000000001
 30
0.0
 11
-170.7224999999998
 21
142.88159999999991
 31
0.0
  0
LINE
  8
DETAIL
  6
CONTINUOUS
 62
     5
 10
-175.9754999999999
 20
169.14660000000001
 30
0.0
 11
-175.9754999999999
 21
142.88159999999991
 31
0.0
  0
ARC
  8
DETAIL
  6
CONTINUOUS
 62
     5
 10
-173.3489999999999
 20
142.88159999999991
 30
0.0
 40
2.6265
 50
180.0
 51
0.0
  0
ARC
  8
DETAIL
  6
CONTINUOUS
 62
     5
 10
-173.3489999999999
 20
169.14660000000001
 30
0.0
 40
2.6265
 50
0.0
 51
180.0
  0
ARC
  8
DETAIL
  6
CONTINUOUS
 62
     5
 10
-173.3489999999999
 20
99.807000000000002
 30
0.0
 40
2.6265
 50
0.0
 51
180.0
  0
ARC
  8
DETAIL
  6
CONTINUOUS
 62
     5
 10
-173.3489999999999
 20
73.542000000000002
 30
0.0
 40
2.6265
 50
180.0
 51
0.0
  0
LINE
  8
DETAIL
  6
CONTINUOUS
 62
     5
 10
-175.9754999999999
 20
99.807000000000002
 30
0.0
 11
-175.9754999999999
 21
73.542000000000002
 31
0.0
  0
LINE
  8
DETAIL
  6
CONTINUOUS
 62
     5
 10
-170.7224999999998
 20
99.807000000000002
 30
0.0
 11
-170.7224999999998
 21
73.542000000000002
 31
0.0
  0
LINE
  8
DETAIL
  6
CONTINUOUS
 62
     5
 10
-170.7224999999998
 20
134.47679999999991
 30
0.0
 11
-170.7224999999998
 21
108.2117999999999
 31
0.0
  0
LINE
  8
DETAIL
  6
CONTINUOUS
 62
     5
 10
-175.9754999999999
 20
134.47679999999991
 30
0.0
 11
-175.9754999999999
 21
108.2117999999999
 31
0.0
  0
ARC
  8
DETAIL
  6
CONTINUOUS
 62
     5
 10
-173.3489999999999
 20
108.2117999999999
 30
0.0
 40
2.6265
 50
180.0
 51
0.0
  0
ARC
  8
DETAIL
  6
CONTINUOUS
 62
     5
 10
-173.3489999999999
 20
134.47679999999991
 30
0.0
 40
2.6265
 50
0.0
 51
180.0
  0
ARC
  8
DETAIL
  6
CONTINUOUS
 62
     5
 10
-173.3489999999999
 20
-4.202399999999999
 30
0.0
 40
2.6265
 50
0.0
 51
180.0
  0
ARC
  8
DETAIL
  6
CONTINUOUS
 62
     5
 10
-173.3489999999999
 20
-30.467399999999991
 30
0.0
 40
2.6265
 50
180.0
 51
0.0
  0
LINE
  8
DETAIL
  6
CONTINUOUS
 62
     5
 10
-175.9754999999999
 20
-4.202399999999999
 30
0.0
 11
-175.9754999999999
 21
-30.467399999999991
 31
0.0
  0
LINE
  8
DETAIL
  6
CONTINUOUS
 62
     5
 10
-170.7224999999998
 20
-4.202399999999999
 30
0.0
 11
-170.7224999999998
 21
-30.467399999999991
 31
0.0
  0
LINE
  8
DETAIL
  6
CONTINUOUS
 62
     5
 10
-170.7224999999998
 20
-38.872199999999999
 30
0.0
 11
-170.7224999999998
 21
-65.137200000000007
 31
0.0
  0
LINE
  8
DETAIL
  6
CONTINUOUS
 62
     5
 10
-175.9754999999999
 20
-38.872199999999999
 30
0.0
 11
-175.9754999999999
 21
-65.137200000000007
 31
0.0
  0
ARC
  8
DETAIL
  6
CONTINUOUS
 62
     5
 10
-173.3489999999999
 20
-65.137200000000007
 30
0.0
 40
2.6265
 50
180.0
 51
0.0
  0
ARC
  8
DETAIL
  6
CONTINUOUS
 62
     5
 10
-173.3489999999999
 20
-38.872199999999999
 30
0.0
 40
2.6265
 50
0.0
 51
180.0
  0
ARC
  8
DETAIL
  6
CONTINUOUS
 62
     5
 10
-173.3489999999999
 20
30.467400000000001
 30
0.0
 40
2.6265
 50
0.0
 51
180.0
  0
ARC
  8
DETAIL
  6
CONTINUOUS
 62
     5
 10
-173.3489999999999
 20
4.202399999999999
 30
0.0
 40
2.6265
 50
180.0
 51
0.0
  0
LINE
  8
DETAIL
  6
CONTINUOUS
 62
     5
 10
-175.9754999999999
 20
30.467400000000001
 30
0.0
 11
-175.9754999999999
 21
4.202399999999999
 31
0.0
  0
LINE
  8
DETAIL
  6
CONTINUOUS
 62
     5
 10
-170.7224999999998
 20
30.467400000000001
 30
0.0
 11
-170.7224999999998
 21
4.202399999999999
 31
0.0
  0
LINE
  8
DETAIL
  6
CONTINUOUS
 62
     5
 10
-170.7224999999998
 20
65.137200000000007
 30
0.0
 11
-170.7224999999998
 21
38.872199999999999
 31
0.0
  0
LINE
  8
DETAIL
  6
CONTINUOUS
 62
     5
 10
-175.9754999999999
 20
65.137200000000007
 30
0.0
 11
-175.9754999999999
 21
38.872199999999999
 31
0.0
  0
ARC
  8
DETAIL
  6
CONTINUOUS
 62
     5
 10
-173.3489999999999
 20
38.872199999999999
 30
0.0
 40
2.6265
 50
180.0
 51
0.0
  0
ARC
  8
DETAIL
  6
CONTINUOUS
 62
     5
 10
-173.3489999999999
 20
65.137200000000007
 30
0.0
 40
2.6265
 50
0.0
 51
180.0
  0
ARC
  8
DETAIL
  6
CONTINUOUS
 62
     5
 10
-173.3489999999999
 20
-108.2117999999999
 30
0.0
 40
2.6265
 50
0.0
 51
180.0
  0
ARC
  8
DETAIL
  6
CONTINUOUS
 62
     5
 10
-173.3489999999999
 20
-134.47679999999991
 30
0.0
 40
2.6265
 50
180.0
 51
0.0
  0
LINE
  8
DETAIL
  6
CONTINUOUS
 62
     5
 10
-175.9754999999999
 20
-108.2117999999999
 30
0.0
 11
-175.9754999999999
 21
-134.47679999999991
 31
0.0
  0
LINE
  8
DETAIL
  6
CONTINUOUS
 62
     5
 10
-170.7224999999998
 20
-108.2117999999999
 30
0.0
 11
-170.7224999999998
 21
-134.47679999999991
 31
0.0
  0
LINE
  8
DETAIL
  6
CONTINUOUS
 62
     5
 10
-170.7224999999998
 20
-142.88159999999991
 30
0.0
 11
-170.7224999999998
 21
-169.14660000000001
 31
0.0
  0
LINE
  8
DETAIL
  6
CONTINUOUS
 62
     5
 10
-175.9754999999999
 20
-142.88159999999991
 30
0.0
 11
-175.9754999999999
 21
-169.14660000000001
 31
0.0
  0
ARC
  8
DETAIL
  6
CONTINUOUS
 62
     5
 10
-173.3489999999999
 20
-169.14660000000001
 30
0.0
 40
2.6265
 50
180.0
 51
0.0
  0
ARC
  8
DETAIL
  6
CONTINUOUS
 62
     5
 10
-173.3489999999999
 20
-142.88159999999991
 30
0.0
 40
2.6265
 50
0.0
 51
180.0
  0
LINE
  8
DETAIL
  6
CONTINUOUS
 62
     5
 10
-170.7224999999998
 20
-177.5514
 30
0.0
 11
-170.7224999999998
 21
-203.81639999999999
 31
0.0
  0
LINE
  8
DETAIL
  6
CONTINUOUS
 62
     5
 10
-175.9754999999999
 20
-177.5514
 30
0.0
 11
-175.9754999999999
 21
-203.81639999999999
 31
0.0
  0
ARC
  8
DETAIL
  6
CONTINUOUS
 62
     5
 10
-173.3489999999999
 20
-203.81639999999999
 30
0.0
 40
2.6265
 50
180.0
 51
0.0
  0
ARC
  8
DETAIL
  6
CONTINUOUS
 62
     5
 10
-173.3489999999999
 20
-177.5514
 30
0.0
 40
2.6265
 50
0.0
 51
180.0
  0
LINE
  8
DETAIL
  6
CONTINUOUS
 62
     5
 10
-170.7224999999998
 20
-73.542000000000002
 30
0.0
 11
-170.7224999999998
 21
-99.807000000000002
 31
0.0
  0
LINE
  8
DETAIL
  6
CONTINUOUS
 62
     5
 10
-175.9754999999999
 20
-73.542000000000002
 30
0.0
 11
-175.9754999999999
 21
-99.807000000000002
 31
0.0
  0
ARC
  8
DETAIL
  6
CONTINUOUS
 62
     5
 10
-173.3489999999999
 20
-99.807000000000002
 30
0.0
 40
2.6265
 50
180.0
 51
0.0
  0
ARC
  8
DETAIL
  6
CONTINUOUS
 62
     5
 10
-173.3489999999999
 20
-73.542000000000002
 30
0.0
 40
2.6265
 50
0.0
 51
180.0
  0
ARC
  8
DETAIL
  6
CONTINUOUS
 62
     5
 10
-162.84299999999979
 20
-73.542000000000002
 30
0.0
 40
2.6265
 50
0.0
 51
180.0
  0
ARC
  8
DETAIL
  6
CONTINUOUS
 62
     5
 10
-162.84299999999979
 20
-99.807000000000002
 30
0.0
 40
2.6265
 50
180.0
 51
0.0
  0
LINE
  8
DETAIL
  6
CONTINUOUS
 62
     5
 10
-165.4694999999999
 20
-73.542000000000002
 30
0.0
 11
-165.4694999999999
 21
-99.807000000000002
 31
0.0
  0
LINE
  8
DETAIL
  6
CONTINUOUS
 62
     5
 10
-160.21649999999991
 20
-73.542000000000002
 30
0.0
 11
-160.21649999999991
 21
-99.807000000000002
 31
0.0
  0
ARC
  8
DETAIL
  6
CONTINUOUS
 62
     5
 10
-162.84299999999979
 20
-177.5514
 30
0.0
 40
2.6265
 50
0.0
 51
180.0
  0
ARC
  8
DETAIL
  6
CONTINUOUS
 62
     5
 10
-162.84299999999979
 20
-203.81639999999999
 30
0.0
 40
2.6265
 50
180.0
 51
0.0
  0
LINE
  8
DETAIL
  6
CONTINUOUS
 62
     5
 10
-165.4694999999999
 20
-177.5514
 30
0.0
 11
-165.4694999999999
 21
-203.81639999999999
 31
0.0
  0
LINE
  8
DETAIL
  6
CONTINUOUS
 62
     5
 10
-160.21649999999991
 20
-177.5514
 30
0.0
 11
-160.21649999999991
 21
-203.81639999999999
 31
0.0
  0
ARC
  8
DETAIL
  6
CONTINUOUS
 62
     5
 10
-162.84299999999979
 20
-142.88159999999991
 30
0.0
 40
2.6265
 50
0.0
 51
180.0
  0
ARC
  8
DETAIL
  6
CONTINUOUS
 62
     5
 10
-162.84299999999979
 20
-169.14660000000001
 30
0.0
 40
2.6265
 50
180.0
 51
0.0
  0
LINE
  8
DETAIL
  6
CONTINUOUS
 62
     5
 10
-165.4694999999999
 20
-142.88159999999991
 30
0.0
 11
-165.4694999999999
 21
-169.14660000000001
 31
0.0
  0
LINE
  8
DETAIL
  6
CONTINUOUS
 62
     5
 10
-160.21649999999991
 20
-142.88159999999991
 30
0.0
 11
-160.21649999999991
 21
-169.14660000000001
 31
0.0
  0
LINE
  8
DETAIL
  6
CONTINUOUS
 62
     5
 10
-160.21649999999991
 20
-108.2117999999999
 30
0.0
 11
-160.21649999999991
 21
-134.47679999999991
 31
0.0
  0
LINE
  8
DETAIL
  6
CONTINUOUS
 62
     5
 10
-165.4694999999999
 20
-108.2117999999999
 30
0.0
 11
-165.4694999999999
 21
-134.47679999999991
 31
0.0
  0
ARC
  8
DETAIL
  6
CONTINUOUS
 62
     5
 10
-162.84299999999979
 20
-134.47679999999991
 30
0.0
 40
2.6265
 50
180.0
 51
0.0
  0
ARC
  8
DETAIL
  6
CONTINUOUS
 62
     5
 10
-162.84299999999979
 20
-108.2117999999999
 30
0.0
 40
2.6265
 50
0.0
 51
180.0
  0
ARC
  8
DETAIL
  6
CONTINUOUS
 62
     5
 10
-162.84299999999979
 20
65.137200000000007
 30
0.0
 40
2.6265
 50
0.0
 51
180.0
  0
ARC
  8
DETAIL
  6
CONTINUOUS
 62
     5
 10
-162.84299999999979
 20
38.872199999999999
 30
0.0
 40
2.6265
 50
180.0
 51
0.0
  0
LINE
  8
DETAIL
  6
CONTINUOUS
 62
     5
 10
-165.4694999999999
 20
65.137200000000007
 30
0.0
 11
-165.4694999999999
 21
38.872199999999999
 31
0.0
  0
LINE
  8
DETAIL
  6
CONTINUOUS
 62
     5
 10
-160.21649999999991
 20
65.137200000000007
 30
0.0
 11
-160.21649999999991
 21
38.872199999999999
 31
0.0
  0
LINE
  8
DETAIL
  6
CONTINUOUS
 62
     5
 10
-160.21649999999991
 20
30.467400000000001
 30
0.0
 11
-160.21649999999991
 21
4.202399999999999
 31
0.0
  0
LINE
  8
DETAIL
  6
CONTINUOUS
 62
     5
 10
-165.4694999999999
 20
30.467400000000001
 30
0.0
 11
-165.4694999999999
 21
4.202399999999999
 31
0.0
  0
ARC
  8
DETAIL
  6
CONTINUOUS
 62
     5
 10
-162.84299999999979
 20
4.202399999999999
 30
0.0
 40
2.6265
 50
180.0
 51
0.0
  0
ARC
  8
DETAIL
  6
CONTINUOUS
 62
     5
 10
-162.84299999999979
 20
30.467400000000001
 30
0.0
 40
2.6265
 50
0.0
 51
180.0
  0
ARC
  8
DETAIL
  6
CONTINUOUS
 62
     5
 10
-162.84299999999979
 20
-38.872199999999999
 30
0.0
 40
2.6265
 50
0.0
 51
180.0
  0
ARC
  8
DETAIL
  6
CONTINUOUS
 62
     5
 10
-162.84299999999979
 20
-65.137200000000007
 30
0.0
 40
2.6265
 50
180.0
 51
0.0
  0
LINE
  8
DETAIL
  6
CONTINUOUS
 62
     5
 10
-165.4694999999999
 20
-38.872199999999999
 30
0.0
 11
-165.4694999999999
 21
-65.137200000000007
 31
0.0
  0
LINE
  8
DETAIL
  6
CONTINUOUS
 62
     5
 10
-160.21649999999991
 20
-38.872199999999999
 30
0.0
 11
-160.21649999999991
 21
-65.137200000000007
 31
0.0
  0
LINE
  8
DETAIL
  6
CONTINUOUS
 62
     5
 10
-160.21649999999991
 20
-4.202399999999999
 30
0.0
 11
-160.21649999999991
 21
-30.467399999999991
 31
0.0
  0
LINE
  8
DETAIL
  6
CONTINUOUS
 62
     5
 10
-165.4694999999999
 20
-4.202399999999999
 30
0.0
 11
-165.4694999999999
 21
-30.467399999999991
 31
0.0
  0
ARC
  8
DETAIL
  6
CONTINUOUS
 62
     5
 10
-162.84299999999979
 20
-30.467399999999991
 30
0.0
 40
2.6265
 50
180.0
 51
0.0
  0
ARC
  8
DETAIL
  6
CONTINUOUS
 62
     5
 10
-162.84299999999979
 20
-4.202399999999999
 30
0.0
 40
2.6265
 50
0.0
 51
180.0
  0
ARC
  8
DETAIL
  6
CONTINUOUS
 62
     5
 10
-162.84299999999979
 20
134.47679999999991
 30
0.0
 40
2.6265
 50
0.0
 51
180.0
  0
ARC
  8
DETAIL
  6
CONTINUOUS
 62
     5
 10
-162.84299999999979
 20
108.2117999999999
 30
0.0
 40
2.6265
 50
180.0
 51
0.0
  0
LINE
  8
DETAIL
  6
CONTINUOUS
 62
     5
 10
-165.4694999999999
 20
134.47679999999991
 30
0.0
 11
-165.4694999999999
 21
108.2117999999999
 31
0.0
  0
LINE
  8
DETAIL
  6
CONTINUOUS
 62
     5
 10
-160.21649999999991
 20
134.47679999999991
 30
0.0
 11
-160.21649999999991
 21
108.2117999999999
 31
0.0
  0
LINE
  8
DETAIL
  6
CONTINUOUS
 62
     5
 10
-160.21649999999991
 20
99.807000000000002
 30
0.0
 11
-160.21649999999991
 21
73.542000000000002
 31
0.0
  0
LINE
  8
DETAIL
  6
CONTINUOUS
 62
     5
 10
-165.4694999999999
 20
99.807000000000002
 30
0.0
 11
-165.4694999999999
 21
73.542000000000002
 31
0.0
  0
ARC
  8
DETAIL
  6
CONTINUOUS
 62
     5
 10
-162.84299999999979
 20
73.542000000000002
 30
0.0
 40
2.6265
 50
180.0
 51
0.0
  0
ARC
  8
DETAIL
  6
CONTINUOUS
 62
     5
 10
-162.84299999999979
 20
99.807000000000002
 30
0.0
 40
2.6265
 50
0.0
 51
180.0
  0
ARC
  8
DETAIL
  6
CONTINUOUS
 62
     5
 10
-162.84299999999979
 20
169.14660000000001
 30
0.0
 40
2.6265
 50
0.0
 51
180.0
  0
ARC
  8
DETAIL
  6
CONTINUOUS
 62
     5
 10
-162.84299999999979
 20
142.88159999999991
 30
0.0
 40
2.6265
 50
180.0
 51
0.0
  0
LINE
  8
DETAIL
  6
CONTINUOUS
 62
     5
 10
-165.4694999999999
 20
169.14660000000001
 30
0.0
 11
-165.4694999999999
 21
142.88159999999991
 31
0.0
  0
LINE
  8
DETAIL
  6
CONTINUOUS
 62
     5
 10
-160.21649999999991
 20
169.14660000000001
 30
0.0
 11
-160.21649999999991
 21
142.88159999999991
 31
0.0
  0
LINE
  8
DETAIL
  6
CONTINUOUS
 62
     5
 10
-160.21649999999991
 20
203.81639999999999
 30
0.0
 11
-160.21649999999991
 21
177.5514
 31
0.0
  0
LINE
  8
DETAIL
  6
CONTINUOUS
 62
     5
 10
-165.4694999999999
 20
203.81639999999999
 30
0.0
 11
-165.4694999999999
 21
177.5514
 31
0.0
  0
ARC
  8
DETAIL
  6
CONTINUOUS
 62
     5
 10
-162.84299999999979
 20
177.5514
 30
0.0
 40
2.6265
 50
180.0
 51
0.0
  0
ARC
  8
DETAIL
  6
CONTINUOUS
 62
     5
 10
-162.84299999999979
 20
203.81639999999999
 30
0.0
 40
2.6265
 50
0.0
 51
180.0
  0
ARC
  8
DETAIL
  6
CONTINUOUS
 62
     5
 10
-183.8549999999999
 20
203.81639999999999
 30
0.0
 40
2.6265
 50
0.0
 51
180.0
  0
ARC
  8
DETAIL
  6
CONTINUOUS
 62
     5
 10
-183.8549999999999
 20
177.5514
 30
0.0
 40
2.6265
 50
180.0
 51
0.0
  0
LINE
  8
DETAIL
  6
CONTINUOUS
 62
     5
 10
-186.48149999999981
 20
203.81639999999999
 30
0.0
 11
-186.48149999999981
 21
177.5514
 31
0.0
  0
LINE
  8
DETAIL
  6
CONTINUOUS
 62
     5
 10
-181.2284999999998
 20
203.81639999999999
 30
0.0
 11
-181.2284999999998
 21
177.5514
 31
0.0
  0
LINE
  8
DETAIL
  6
CONTINUOUS
 62
     5
 10
-181.2284999999998
 20
169.14660000000001
 30
0.0
 11
-181.2284999999998
 21
142.88159999999991
 31
0.0
  0
LINE
  8
DETAIL
  6
CONTINUOUS
 62
     5
 10
-186.48149999999981
 20
169.14660000000001
 30
0.0
 11
-186.48149999999981
 21
142.88159999999991
 31
0.0
  0
ARC
  8
DETAIL
  6
CONTINUOUS
 62
     5
 10
-183.8549999999999
 20
142.88159999999991
 30
0.0
 40
2.6265
 50
180.0
 51
0.0
  0
ARC
  8
DETAIL
  6
CONTINUOUS
 62
     5
 10
-183.8549999999999
 20
169.14660000000001
 30
0.0
 40
2.6265
 50
0.0
 51
180.0
  0
ARC
  8
DETAIL
  6
CONTINUOUS
 62
     5
 10
-183.8549999999999
 20
99.807000000000002
 30
0.0
 40
2.6265
 50
0.0
 51
180.0
  0
ARC
  8
DETAIL
  6
CONTINUOUS
 62
     5
 10
-183.8549999999999
 20
73.542000000000002
 30
0.0
 40
2.6265
 50
180.0
 51
0.0
  0
LINE
  8
DETAIL
  6
CONTINUOUS
 62
     5
 10
-186.48149999999981
 20
99.807000000000002
 30
0.0
 11
-186.48149999999981
 21
73.542000000000002
 31
0.0
  0
LINE
  8
DETAIL
  6
CONTINUOUS
 62
     5
 10
-181.2284999999998
 20
99.807000000000002
 30
0.0
 11
-181.2284999999998
 21
73.542000000000002
 31
0.0
  0
LINE
  8
DETAIL
  6
CONTINUOUS
 62
     5
 10
-181.2284999999998
 20
134.47679999999991
 30
0.0
 11
-181.2284999999998
 21
108.2117999999999
 31
0.0
  0
LINE
  8
DETAIL
  6
CONTINUOUS
 62
     5
 10
-186.48149999999981
 20
134.47679999999991
 30
0.0
 11
-186.48149999999981
 21
108.2117999999999
 31
0.0
  0
ARC
  8
DETAIL
  6
CONTINUOUS
 62
     5
 10
-183.8549999999999
 20
108.2117999999999
 30
0.0
 40
2.6265
 50
180.0
 51
0.0
  0
ARC
  8
DETAIL
  6
CONTINUOUS
 62
     5
 10
-183.8549999999999
 20
134.47679999999991
 30
0.0
 40
2.6265
 50
0.0
 51
180.0
  0
ARC
  8
DETAIL
  6
CONTINUOUS
 62
     5
 10
-183.8549999999999
 20
-4.202399999999999
 30
0.0
 40
2.6265
 50
0.0
 51
180.0
  0
ARC
  8
DETAIL
  6
CONTINUOUS
 62
     5
 10
-183.8549999999999
 20
-30.467399999999991
 30
0.0
 40
2.6265
 50
180.0
 51
0.0
  0
LINE
  8
DETAIL
  6
CONTINUOUS
 62
     5
 10
-186.48149999999981
 20
-4.202399999999999
 30
0.0
 11
-186.48149999999981
 21
-30.467399999999991
 31
0.0
  0
LINE
  8
DETAIL
  6
CONTINUOUS
 62
     5
 10
-181.2284999999998
 20
-4.202399999999999
 30
0.0
 11
-181.2284999999998
 21
-30.467399999999991
 31
0.0
  0
LINE
  8
DETAIL
  6
CONTINUOUS
 62
     5
 10
-181.2284999999998
 20
-38.872199999999999
 30
0.0
 11
-181.2284999999998
 21
-65.137200000000007
 31
0.0
  0
LINE
  8
DETAIL
  6
CONTINUOUS
 62
     5
 10
-186.48149999999981
 20
-38.872199999999999
 30
0.0
 11
-186.48149999999981
 21
-65.137200000000007
 31
0.0
  0
ARC
  8
DETAIL
  6
CONTINUOUS
 62
     5
 10
-183.8549999999999
 20
-65.137200000000007
 30
0.0
 40
2.6265
 50
180.0
 51
0.0
  0
ARC
  8
DETAIL
  6
CONTINUOUS
 62
     5
 10
-183.8549999999999
 20
-38.872199999999999
 30
0.0
 40
2.6265
 50
0.0
 51
180.0
  0
ARC
  8
DETAIL
  6
CONTINUOUS
 62
     5
 10
-183.8549999999999
 20
30.467400000000001
 30
0.0
 40
2.6265
 50
0.0
 51
180.0
  0
ARC
  8
DETAIL
  6
CONTINUOUS
 62
     5
 10
-183.8549999999999
 20
4.202399999999999
 30
0.0
 40
2.6265
 50
180.0
 51
0.0
  0
LINE
  8
DETAIL
  6
CONTINUOUS
 62
     5
 10
-186.48149999999981
 20
30.467400000000001
 30
0.0
 11
-186.48149999999981
 21
4.202399999999999
 31
0.0
  0
LINE
  8
DETAIL
  6
CONTINUOUS
 62
     5
 10
-181.2284999999998
 20
30.467400000000001
 30
0.0
 11
-181.2284999999998
 21
4.202399999999999
 31
0.0
  0
LINE
  8
DETAIL
  6
CONTINUOUS
 62
     5
 10
-181.2284999999998
 20
65.137200000000007
 30
0.0
 11
-181.2284999999998
 21
38.872199999999999
 31
0.0
  0
LINE
  8
DETAIL
  6
CONTINUOUS
 62
     5
 10
-186.48149999999981
 20
65.137200000000007
 30
0.0
 11
-186.48149999999981
 21
38.872199999999999
 31
0.0
  0
ARC
  8
DETAIL
  6
CONTINUOUS
 62
     5
 10
-183.8549999999999
 20
38.872199999999999
 30
0.0
 40
2.6265
 50
180.0
 51
0.0
  0
ARC
  8
DETAIL
  6
CONTINUOUS
 62
     5
 10
-183.8549999999999
 20
65.137200000000007
 30
0.0
 40
2.6265
 50
0.0
 51
180.0
  0
ARC
  8
DETAIL
  6
CONTINUOUS
 62
     5
 10
-183.8549999999999
 20
-108.2117999999999
 30
0.0
 40
2.6265
 50
0.0
 51
180.0
  0
ARC
  8
DETAIL
  6
CONTINUOUS
 62
     5
 10
-183.8549999999999
 20
-134.47679999999991
 30
0.0
 40
2.6265
 50
180.0
 51
0.0
  0
LINE
  8
DETAIL
  6
CONTINUOUS
 62
     5
 10
-186.48149999999981
 20
-108.2117999999999
 30
0.0
 11
-186.48149999999981
 21
-134.47679999999991
 31
0.0
  0
LINE
  8
DETAIL
  6
CONTINUOUS
 62
     5
 10
-181.2284999999998
 20
-108.2117999999999
 30
0.0
 11
-181.2284999999998
 21
-134.47679999999991
 31
0.0
  0
LINE
  8
DETAIL
  6
CONTINUOUS
 62
     5
 10
-181.2284999999998
 20
-142.88159999999991
 30
0.0
 11
-181.2284999999998
 21
-169.14660000000001
 31
0.0
  0
LINE
  8
DETAIL
  6
CONTINUOUS
 62
     5
 10
-186.48149999999981
 20
-142.88159999999991
 30
0.0
 11
-186.48149999999981
 21
-169.14660000000001
 31
0.0
  0
ARC
  8
DETAIL
  6
CONTINUOUS
 62
     5
 10
-183.8549999999999
 20
-169.14660000000001
 30
0.0
 40
2.6265
 50
180.0
 51
0.0
  0
ARC
  8
DETAIL
  6
CONTINUOUS
 62
     5
 10
-183.8549999999999
 20
-142.88159999999991
 30
0.0
 40
2.6265
 50
0.0
 51
180.0
  0
LINE
  8
DETAIL
  6
CONTINUOUS
 62
     5
 10
-181.2284999999998
 20
-177.5514
 30
0.0
 11
-181.2284999999998
 21
-203.81639999999999
 31
0.0
  0
LINE
  8
DETAIL
  6
CONTINUOUS
 62
     5
 10
-186.48149999999981
 20
-177.5514
 30
0.0
 11
-186.48149999999981
 21
-203.81639999999999
 31
0.0
  0
ARC
  8
DETAIL
  6
CONTINUOUS
 62
     5
 10
-183.8549999999999
 20
-203.81639999999999
 30
0.0
 40
2.6265
 50
180.0
 51
0.0
  0
ARC
  8
DETAIL
  6
CONTINUOUS
 62
     5
 10
-183.8549999999999
 20
-177.5514
 30
0.0
 40
2.6265
 50
0.0
 51
180.0
  0
LINE
  8
DETAIL
  6
CONTINUOUS
 62
     5
 10
-181.2284999999998
 20
-73.542000000000002
 30
0.0
 11
-181.2284999999998
 21
-99.807000000000002
 31
0.0
  0
LINE
  8
DETAIL
  6
CONTINUOUS
 62
     5
 10
-186.48149999999981
 20
-73.542000000000002
 30
0.0
 11
-186.48149999999981
 21
-99.807000000000002
 31
0.0
  0
ARC
  8
DETAIL
  6
CONTINUOUS
 62
     5
 10
-183.8549999999999
 20
-99.807000000000002
 30
0.0
 40
2.6265
 50
180.0
 51
0.0
  0
ARC
  8
DETAIL
  6
CONTINUOUS
 62
     5
 10
-183.8549999999999
 20
-73.542000000000002
 30
0.0
 40
2.6265
 50
0.0
 51
180.0
  0
ARC
  8
DETAIL
  6
CONTINUOUS
 62
     5
 10
-194.36099999999979
 20
-73.542000000000002
 30
0.0
 40
2.6265
 50
0.0
 51
180.0
  0
ARC
  8
DETAIL
  6
CONTINUOUS
 62
     5
 10
-194.36099999999979
 20
-99.807000000000002
 30
0.0
 40
2.6265
 50
180.0
 51
0.0
  0
LINE
  8
DETAIL
  6
CONTINUOUS
 62
     5
 10
-196.9874999999999
 20
-73.542000000000002
 30
0.0
 11
-196.9874999999999
 21
-99.807000000000002
 31
0.0
  0
LINE
  8
DETAIL
  6
CONTINUOUS
 62
     5
 10
-191.73449999999991
 20
-73.542000000000002
 30
0.0
 11
-191.73449999999991
 21
-99.807000000000002
 31
0.0
  0
ARC
  8
DETAIL
  6
CONTINUOUS
 62
     5
 10
-194.36099999999979
 20
-177.5514
 30
0.0
 40
2.6265
 50
0.0
 51
180.0
  0
ARC
  8
DETAIL
  6
CONTINUOUS
 62
     5
 10
-194.36099999999979
 20
-203.81639999999999
 30
0.0
 40
2.6265
 50
180.0
 51
0.0
  0
LINE
  8
DETAIL
  6
CONTINUOUS
 62
     5
 10
-196.9874999999999
 20
-177.5514
 30
0.0
 11
-196.9874999999999
 21
-203.81639999999999
 31
0.0
  0
LINE
  8
DETAIL
  6
CONTINUOUS
 62
     5
 10
-191.73449999999991
 20
-177.5514
 30
0.0
 11
-191.73449999999991
 21
-203.81639999999999
 31
0.0
  0
ARC
  8
DETAIL
  6
CONTINUOUS
 62
     5
 10
-194.36099999999979
 20
-142.88159999999991
 30
0.0
 40
2.6265
 50
0.0
 51
180.0
  0
ARC
  8
DETAIL
  6
CONTINUOUS
 62
     5
 10
-194.36099999999979
 20
-169.14660000000001
 30
0.0
 40
2.6265
 50
180.0
 51
0.0
  0
LINE
  8
DETAIL
  6
CONTINUOUS
 62
     5
 10
-196.9874999999999
 20
-142.88159999999991
 30
0.0
 11
-196.9874999999999
 21
-169.14660000000001
 31
0.0
  0
LINE
  8
DETAIL
  6
CONTINUOUS
 62
     5
 10
-191.73449999999991
 20
-142.88159999999991
 30
0.0
 11
-191.73449999999991
 21
-169.14660000000001
 31
0.0
  0
LINE
  8
DETAIL
  6
CONTINUOUS
 62
     5
 10
-191.73449999999991
 20
-108.2117999999999
 30
0.0
 11
-191.73449999999991
 21
-134.47679999999991
 31
0.0
  0
LINE
  8
DETAIL
  6
CONTINUOUS
 62
     5
 10
-196.9874999999999
 20
-108.2117999999999
 30
0.0
 11
-196.9874999999999
 21
-134.47679999999991
 31
0.0
  0
ARC
  8
DETAIL
  6
CONTINUOUS
 62
     5
 10
-194.36099999999979
 20
-134.47679999999991
 30
0.0
 40
2.6265
 50
180.0
 51
0.0
  0
ARC
  8
DETAIL
  6
CONTINUOUS
 62
     5
 10
-194.36099999999979
 20
-108.2117999999999
 30
0.0
 40
2.6265
 50
0.0
 51
180.0
  0
ARC
  8
DETAIL
  6
CONTINUOUS
 62
     5
 10
-194.36099999999979
 20
65.137200000000007
 30
0.0
 40
2.6265
 50
0.0
 51
180.0
  0
ARC
  8
DETAIL
  6
CONTINUOUS
 62
     5
 10
-194.36099999999979
 20
38.872199999999999
 30
0.0
 40
2.6265
 50
180.0
 51
0.0
  0
LINE
  8
DETAIL
  6
CONTINUOUS
 62
     5
 10
-196.9874999999999
 20
65.137200000000007
 30
0.0
 11
-196.9874999999999
 21
38.872199999999999
 31
0.0
  0
LINE
  8
DETAIL
  6
CONTINUOUS
 62
     5
 10
-191.73449999999991
 20
65.137200000000007
 30
0.0
 11
-191.73449999999991
 21
38.872199999999999
 31
0.0
  0
LINE
  8
DETAIL
  6
CONTINUOUS
 62
     5
 10
-191.73449999999991
 20
30.467400000000001
 30
0.0
 11
-191.73449999999991
 21
4.202399999999999
 31
0.0
  0
LINE
  8
DETAIL
  6
CONTINUOUS
 62
     5
 10
-196.9874999999999
 20
30.467400000000001
 30
0.0
 11
-196.9874999999999
 21
4.202399999999999
 31
0.0
  0
ARC
  8
DETAIL
  6
CONTINUOUS
 62
     5
 10
-194.36099999999979
 20
4.202399999999999
 30
0.0
 40
2.6265
 50
180.0
 51
0.0
  0
ARC
  8
DETAIL
  6
CONTINUOUS
 62
     5
 10
-194.36099999999979
 20
30.467400000000001
 30
0.0
 40
2.6265
 50
0.0
 51
180.0
  0
ARC
  8
DETAIL
  6
CONTINUOUS
 62
     5
 10
-194.36099999999979
 20
-38.872199999999999
 30
0.0
 40
2.6265
 50
0.0
 51
180.0
  0
ARC
  8
DETAIL
  6
CONTINUOUS
 62
     5
 10
-194.36099999999979
 20
-65.137200000000007
 30
0.0
 40
2.6265
 50
180.0
 51
0.0
  0
LINE
  8
DETAIL
  6
CONTINUOUS
 62
     5
 10
-196.9874999999999
 20
-38.872199999999999
 30
0.0
 11
-196.9874999999999
 21
-65.137200000000007
 31
0.0
  0
LINE
  8
DETAIL
  6
CONTINUOUS
 62
     5
 10
-191.73449999999991
 20
-38.872199999999999
 30
0.0
 11
-191.73449999999991
 21
-65.137200000000007
 31
0.0
  0
LINE
  8
DETAIL
  6
CONTINUOUS
 62
     5
 10
-191.73449999999991
 20
-4.202399999999999
 30
0.0
 11
-191.73449999999991
 21
-30.467399999999991
 31
0.0
  0
LINE
  8
DETAIL
  6
CONTINUOUS
 62
     5
 10
-196.9874999999999
 20
-4.202399999999999
 30
0.0
 11
-196.9874999999999
 21
-30.467399999999991
 31
0.0
  0
ARC
  8
DETAIL
  6
CONTINUOUS
 62
     5
 10
-194.36099999999979
 20
-30.467399999999991
 30
0.0
 40
2.6265
 50
180.0
 51
0.0
  0
ARC
  8
DETAIL
  6
CONTINUOUS
 62
     5
 10
-194.36099999999979
 20
-4.202399999999999
 30
0.0
 40
2.6265
 50
0.0
 51
180.0
  0
ARC
  8
DETAIL
  6
CONTINUOUS
 62
     5
 10
-194.36099999999979
 20
134.47679999999991
 30
0.0
 40
2.6265
 50
0.0
 51
180.0
  0
ARC
  8
DETAIL
  6
CONTINUOUS
 62
     5
 10
-194.36099999999979
 20
108.2117999999999
 30
0.0
 40
2.6265
 50
180.0
 51
0.0
  0
LINE
  8
DETAIL
  6
CONTINUOUS
 62
     5
 10
-196.9874999999999
 20
134.47679999999991
 30
0.0
 11
-196.9874999999999
 21
108.2117999999999
 31
0.0
  0
LINE
  8
DETAIL
  6
CONTINUOUS
 62
     5
 10
-191.73449999999991
 20
134.47679999999991
 30
0.0
 11
-191.73449999999991
 21
108.2117999999999
 31
0.0
  0
LINE
  8
DETAIL
  6
CONTINUOUS
 62
     5
 10
-191.73449999999991
 20
99.807000000000002
 30
0.0
 11
-191.73449999999991
 21
73.542000000000002
 31
0.0
  0
LINE
  8
DETAIL
  6
CONTINUOUS
 62
     5
 10
-196.9874999999999
 20
99.807000000000002
 30
0.0
 11
-196.9874999999999
 21
73.542000000000002
 31
0.0
  0
ARC
  8
DETAIL
  6
CONTINUOUS
 62
     5
 10
-194.36099999999979
 20
73.542000000000002
 30
0.0
 40
2.6265
 50
180.0
 51
0.0
  0
ARC
  8
DETAIL
  6
CONTINUOUS
 62
     5
 10
-194.36099999999979
 20
99.807000000000002
 30
0.0
 40
2.6265
 50
0.0
 51
180.0
  0
ARC
  8
DETAIL
  6
CONTINUOUS
 62
     5
 10
-194.36099999999979
 20
169.14660000000001
 30
0.0
 40
2.6265
 50
0.0
 51
180.0
  0
ARC
  8
DETAIL
  6
CONTINUOUS
 62
     5
 10
-194.36099999999979
 20
142.88159999999991
 30
0.0
 40
2.6265
 50
180.0
 51
0.0
  0
LINE
  8
DETAIL
  6
CONTINUOUS
 62
     5
 10
-196.9874999999999
 20
169.14660000000001
 30
0.0
 11
-196.9874999999999
 21
142.88159999999991
 31
0.0
  0
LINE
  8
DETAIL
  6
CONTINUOUS
 62
     5
 10
-191.73449999999991
 20
169.14660000000001
 30
0.0
 11
-191.73449999999991
 21
142.88159999999991
 31
0.0
  0
LINE
  8
DETAIL
  6
CONTINUOUS
 62
     5
 10
-191.73449999999991
 20
203.81639999999999
 30
0.0
 11
-191.73449999999991
 21
177.5514
 31
0.0
  0
LINE
  8
DETAIL
  6
CONTINUOUS
 62
     5
 10
-196.9874999999999
 20
203.81639999999999
 30
0.0
 11
-196.9874999999999
 21
177.5514
 31
0.0
  0
ARC
  8
DETAIL
  6
CONTINUOUS
 62
     5
 10
-194.36099999999979
 20
177.5514
 30
0.0
 40
2.6265
 50
180.0
 51
0.0
  0
ARC
  8
DETAIL
  6
CONTINUOUS
 62
     5
 10
-194.36099999999979
 20
203.81639999999999
 30
0.0
 40
2.6265
 50
0.0
 51
180.0
  0
ARC
  8
DETAIL
  6
CONTINUOUS
 62
     5
 10
-110.3129999999998
 20
203.81639999999999
 30
0.0
 40
2.6265
 50
0.0
 51
180.0
  0
ARC
  8
DETAIL
  6
CONTINUOUS
 62
     5
 10
-110.3129999999998
 20
177.5514
 30
0.0
 40
2.6265
 50
180.0
 51
0.0
  0
LINE
  8
DETAIL
  6
CONTINUOUS
 62
     5
 10
-112.9394999999999
 20
203.81639999999999
 30
0.0
 11
-112.9394999999999
 21
177.5514
 31
0.0
  0
LINE
  8
DETAIL
  6
CONTINUOUS
 62
     5
 10
-107.6864999999999
 20
203.81639999999999
 30
0.0
 11
-107.6864999999999
 21
177.5514
 31
0.0
  0
LINE
  8
DETAIL
  6
CONTINUOUS
 62
     5
 10
-107.6864999999999
 20
169.14660000000001
 30
0.0
 11
-107.6864999999999
 21
142.88159999999991
 31
0.0
  0
LINE
  8
DETAIL
  6
CONTINUOUS
 62
     5
 10
-112.9394999999999
 20
169.14660000000001
 30
0.0
 11
-112.9394999999999
 21
142.88159999999991
 31
0.0
  0
ARC
  8
DETAIL
  6
CONTINUOUS
 62
     5
 10
-110.3129999999998
 20
142.88159999999991
 30
0.0
 40
2.6265
 50
180.0
 51
0.0
  0
ARC
  8
DETAIL
  6
CONTINUOUS
 62
     5
 10
-110.3129999999998
 20
169.14660000000001
 30
0.0
 40
2.6265
 50
0.0
 51
180.0
  0
ARC
  8
DETAIL
  6
CONTINUOUS
 62
     5
 10
-110.3129999999998
 20
99.807000000000002
 30
0.0
 40
2.6265
 50
0.0
 51
180.0
  0
ARC
  8
DETAIL
  6
CONTINUOUS
 62
     5
 10
-110.3129999999998
 20
73.542000000000002
 30
0.0
 40
2.6265
 50
180.0
 51
0.0
  0
LINE
  8
DETAIL
  6
CONTINUOUS
 62
     5
 10
-112.9394999999999
 20
99.807000000000002
 30
0.0
 11
-112.9394999999999
 21
73.542000000000002
 31
0.0
  0
LINE
  8
DETAIL
  6
CONTINUOUS
 62
     5
 10
-107.6864999999999
 20
99.807000000000002
 30
0.0
 11
-107.6864999999999
 21
73.542000000000002
 31
0.0
  0
LINE
  8
DETAIL
  6
CONTINUOUS
 62
     5
 10
-107.6864999999999
 20
134.47679999999991
 30
0.0
 11
-107.6864999999999
 21
108.2117999999999
 31
0.0
  0
LINE
  8
DETAIL
  6
CONTINUOUS
 62
     5
 10
-112.9394999999999
 20
134.47679999999991
 30
0.0
 11
-112.9394999999999
 21
108.2117999999999
 31
0.0
  0
ARC
  8
DETAIL
  6
CONTINUOUS
 62
     5
 10
-110.3129999999998
 20
108.2117999999999
 30
0.0
 40
2.6265
 50
180.0
 51
0.0
  0
ARC
  8
DETAIL
  6
CONTINUOUS
 62
     5
 10
-110.3129999999998
 20
134.47679999999991
 30
0.0
 40
2.6265
 50
0.0
 51
180.0
  0
ARC
  8
DETAIL
  6
CONTINUOUS
 62
     5
 10
-110.3129999999998
 20
-4.202399999999999
 30
0.0
 40
2.6265
 50
0.0
 51
180.0
  0
ARC
  8
DETAIL
  6
CONTINUOUS
 62
     5
 10
-110.3129999999998
 20
-30.467399999999991
 30
0.0
 40
2.6265
 50
180.0
 51
0.0
  0
LINE
  8
DETAIL
  6
CONTINUOUS
 62
     5
 10
-112.9394999999999
 20
-4.202399999999999
 30
0.0
 11
-112.9394999999999
 21
-30.467399999999991
 31
0.0
  0
LINE
  8
DETAIL
  6
CONTINUOUS
 62
     5
 10
-107.6864999999999
 20
-4.202399999999999
 30
0.0
 11
-107.6864999999999
 21
-30.467399999999991
 31
0.0
  0
LINE
  8
DETAIL
  6
CONTINUOUS
 62
     5
 10
-107.6864999999999
 20
-38.872199999999999
 30
0.0
 11
-107.6864999999999
 21
-65.137200000000007
 31
0.0
  0
LINE
  8
DETAIL
  6
CONTINUOUS
 62
     5
 10
-112.9394999999999
 20
-38.872199999999999
 30
0.0
 11
-112.9394999999999
 21
-65.137200000000007
 31
0.0
  0
ARC
  8
DETAIL
  6
CONTINUOUS
 62
     5
 10
-110.3129999999998
 20
-65.137200000000007
 30
0.0
 40
2.6265
 50
180.0
 51
0.0
  0
ARC
  8
DETAIL
  6
CONTINUOUS
 62
     5
 10
-110.3129999999998
 20
-38.872199999999999
 30
0.0
 40
2.6265
 50
0.0
 51
180.0
  0
ARC
  8
DETAIL
  6
CONTINUOUS
 62
     5
 10
-110.3129999999998
 20
30.467400000000001
 30
0.0
 40
2.6265
 50
0.0
 51
180.0
  0
ARC
  8
DETAIL
  6
CONTINUOUS
 62
     5
 10
-110.3129999999998
 20
4.202399999999999
 30
0.0
 40
2.6265
 50
180.0
 51
0.0
  0
LINE
  8
DETAIL
  6
CONTINUOUS
 62
     5
 10
-112.9394999999999
 20
30.467400000000001
 30
0.0
 11
-112.9394999999999
 21
4.202399999999999
 31
0.0
  0
LINE
  8
DETAIL
  6
CONTINUOUS
 62
     5
 10
-107.6864999999999
 20
30.467400000000001
 30
0.0
 11
-107.6864999999999
 21
4.202399999999999
 31
0.0
  0
LINE
  8
DETAIL
  6
CONTINUOUS
 62
     5
 10
-107.6864999999999
 20
65.137200000000007
 30
0.0
 11
-107.6864999999999
 21
38.872199999999999
 31
0.0
  0
LINE
  8
DETAIL
  6
CONTINUOUS
 62
     5
 10
-112.9394999999999
 20
65.137200000000007
 30
0.0
 11
-112.9394999999999
 21
38.872199999999999
 31
0.0
  0
ARC
  8
DETAIL
  6
CONTINUOUS
 62
     5
 10
-110.3129999999998
 20
38.872199999999999
 30
0.0
 40
2.6265
 50
180.0
 51
0.0
  0
ARC
  8
DETAIL
  6
CONTINUOUS
 62
     5
 10
-110.3129999999998
 20
65.137200000000007
 30
0.0
 40
2.6265
 50
0.0
 51
180.0
  0
ARC
  8
DETAIL
  6
CONTINUOUS
 62
     5
 10
-110.3129999999998
 20
-108.2117999999999
 30
0.0
 40
2.6265
 50
0.0
 51
180.0
  0
ARC
  8
DETAIL
  6
CONTINUOUS
 62
     5
 10
-110.3129999999998
 20
-134.47679999999991
 30
0.0
 40
2.6265
 50
180.0
 51
0.0
  0
LINE
  8
DETAIL
  6
CONTINUOUS
 62
     5
 10
-112.9394999999999
 20
-108.2117999999999
 30
0.0
 11
-112.9394999999999
 21
-134.47679999999991
 31
0.0
  0
LINE
  8
DETAIL
  6
CONTINUOUS
 62
     5
 10
-107.6864999999999
 20
-108.2117999999999
 30
0.0
 11
-107.6864999999999
 21
-134.47679999999991
 31
0.0
  0
LINE
  8
DETAIL
  6
CONTINUOUS
 62
     5
 10
-107.6864999999999
 20
-142.88159999999991
 30
0.0
 11
-107.6864999999999
 21
-169.14660000000001
 31
0.0
  0
LINE
  8
DETAIL
  6
CONTINUOUS
 62
     5
 10
-112.9394999999999
 20
-142.88159999999991
 30
0.0
 11
-112.9394999999999
 21
-169.14660000000001
 31
0.0
  0
ARC
  8
DETAIL
  6
CONTINUOUS
 62
     5
 10
-110.3129999999998
 20
-169.14660000000001
 30
0.0
 40
2.6265
 50
180.0
 51
0.0
  0
ARC
  8
DETAIL
  6
CONTINUOUS
 62
     5
 10
-110.3129999999998
 20
-142.88159999999991
 30
0.0
 40
2.6265
 50
0.0
 51
180.0
  0
LINE
  8
DETAIL
  6
CONTINUOUS
 62
     5
 10
-107.6864999999999
 20
-177.5514
 30
0.0
 11
-107.6864999999999
 21
-203.81639999999999
 31
0.0
  0
LINE
  8
DETAIL
  6
CONTINUOUS
 62
     5
 10
-112.9394999999999
 20
-177.5514
 30
0.0
 11
-112.9394999999999
 21
-203.81639999999999
 31
0.0
  0
ARC
  8
DETAIL
  6
CONTINUOUS
 62
     5
 10
-110.3129999999998
 20
-203.81639999999999
 30
0.0
 40
2.6265
 50
180.0
 51
0.0
  0
ARC
  8
DETAIL
  6
CONTINUOUS
 62
     5
 10
-110.3129999999998
 20
-177.5514
 30
0.0
 40
2.6265
 50
0.0
 51
180.0
  0
LINE
  8
DETAIL
  6
CONTINUOUS
 62
     5
 10
-107.6864999999999
 20
-73.542000000000002
 30
0.0
 11
-107.6864999999999
 21
-99.807000000000002
 31
0.0
  0
LINE
  8
DETAIL
  6
CONTINUOUS
 62
     5
 10
-112.9394999999999
 20
-73.542000000000002
 30
0.0
 11
-112.9394999999999
 21
-99.807000000000002
 31
0.0
  0
ARC
  8
DETAIL
  6
CONTINUOUS
 62
     5
 10
-110.3129999999998
 20
-99.807000000000002
 30
0.0
 40
2.6265
 50
180.0
 51
0.0
  0
ARC
  8
DETAIL
  6
CONTINUOUS
 62
     5
 10
-110.3129999999998
 20
-73.542000000000002
 30
0.0
 40
2.6265
 50
0.0
 51
180.0
  0
ARC
  8
DETAIL
  6
CONTINUOUS
 62
     5
 10
-99.806999999999874
 20
-73.542000000000002
 30
0.0
 40
2.6265
 50
0.0
 51
180.0
  0
ARC
  8
DETAIL
  6
CONTINUOUS
 62
     5
 10
-99.806999999999874
 20
-99.807000000000002
 30
0.0
 40
2.6265
 50
180.0
 51
0.0
  0
LINE
  8
DETAIL
  6
CONTINUOUS
 62
     5
 10
-102.4334999999998
 20
-73.542000000000002
 30
0.0
 11
-102.4334999999998
 21
-99.807000000000002
 31
0.0
  0
LINE
  8
DETAIL
  6
CONTINUOUS
 62
     5
 10
-97.180499999999853
 20
-73.542000000000002
 30
0.0
 11
-97.180499999999853
 21
-99.807000000000002
 31
0.0
  0
ARC
  8
DETAIL
  6
CONTINUOUS
 62
     5
 10
-99.806999999999874
 20
-177.5514
 30
0.0
 40
2.6265
 50
0.0
 51
180.0
  0
ARC
  8
DETAIL
  6
CONTINUOUS
 62
     5
 10
-99.806999999999874
 20
-203.81639999999999
 30
0.0
 40
2.6265
 50
180.0
 51
0.0
  0
LINE
  8
DETAIL
  6
CONTINUOUS
 62
     5
 10
-102.4334999999998
 20
-177.5514
 30
0.0
 11
-102.4334999999998
 21
-203.81639999999999
 31
0.0
  0
LINE
  8
DETAIL
  6
CONTINUOUS
 62
     5
 10
-97.180499999999853
 20
-177.5514
 30
0.0
 11
-97.180499999999853
 21
-203.81639999999999
 31
0.0
  0
ARC
  8
DETAIL
  6
CONTINUOUS
 62
     5
 10
-99.806999999999874
 20
-142.88159999999991
 30
0.0
 40
2.6265
 50
0.0
 51
180.0
  0
ARC
  8
DETAIL
  6
CONTINUOUS
 62
     5
 10
-99.806999999999874
 20
-169.14660000000001
 30
0.0
 40
2.6265
 50
180.0
 51
0.0
  0
LINE
  8
DETAIL
  6
CONTINUOUS
 62
     5
 10
-102.4334999999998
 20
-142.88159999999991
 30
0.0
 11
-102.4334999999998
 21
-169.14660000000001
 31
0.0
  0
LINE
  8
DETAIL
  6
CONTINUOUS
 62
     5
 10
-97.180499999999853
 20
-142.88159999999991
 30
0.0
 11
-97.180499999999853
 21
-169.14660000000001
 31
0.0
  0
LINE
  8
DETAIL
  6
CONTINUOUS
 62
     5
 10
-97.180499999999853
 20
-108.2117999999999
 30
0.0
 11
-97.180499999999853
 21
-134.47679999999991
 31
0.0
  0
LINE
  8
DETAIL
  6
CONTINUOUS
 62
     5
 10
-102.4334999999998
 20
-108.2117999999999
 30
0.0
 11
-102.4334999999998
 21
-134.47679999999991
 31
0.0
  0
ARC
  8
DETAIL
  6
CONTINUOUS
 62
     5
 10
-99.806999999999874
 20
-134.47679999999991
 30
0.0
 40
2.6265
 50
180.0
 51
0.0
  0
ARC
  8
DETAIL
  6
CONTINUOUS
 62
     5
 10
-99.806999999999874
 20
-108.2117999999999
 30
0.0
 40
2.6265
 50
0.0
 51
180.0
  0
ARC
  8
DETAIL
  6
CONTINUOUS
 62
     5
 10
-99.806999999999874
 20
65.137200000000007
 30
0.0
 40
2.6265
 50
0.0
 51
180.0
  0
ARC
  8
DETAIL
  6
CONTINUOUS
 62
     5
 10
-99.806999999999874
 20
38.872199999999999
 30
0.0
 40
2.6265
 50
180.0
 51
0.0
  0
LINE
  8
DETAIL
  6
CONTINUOUS
 62
     5
 10
-102.4334999999998
 20
65.137200000000007
 30
0.0
 11
-102.4334999999998
 21
38.872199999999999
 31
0.0
  0
LINE
  8
DETAIL
  6
CONTINUOUS
 62
     5
 10
-97.180499999999853
 20
65.137200000000007
 30
0.0
 11
-97.180499999999853
 21
38.872199999999999
 31
0.0
  0
LINE
  8
DETAIL
  6
CONTINUOUS
 62
     5
 10
-97.180499999999853
 20
30.467400000000001
 30
0.0
 11
-97.180499999999853
 21
4.202399999999999
 31
0.0
  0
LINE
  8
DETAIL
  6
CONTINUOUS
 62
     5
 10
-102.4334999999998
 20
30.467400000000001
 30
0.0
 11
-102.4334999999998
 21
4.202399999999999
 31
0.0
  0
ARC
  8
DETAIL
  6
CONTINUOUS
 62
     5
 10
-99.806999999999874
 20
4.202399999999999
 30
0.0
 40
2.6265
 50
180.0
 51
0.0
  0
ARC
  8
DETAIL
  6
CONTINUOUS
 62
     5
 10
-99.806999999999874
 20
30.467400000000001
 30
0.0
 40
2.6265
 50
0.0
 51
180.0
  0
ARC
  8
DETAIL
  6
CONTINUOUS
 62
     5
 10
-99.806999999999874
 20
-38.872199999999999
 30
0.0
 40
2.6265
 50
0.0
 51
180.0
  0
ARC
  8
DETAIL
  6
CONTINUOUS
 62
     5
 10
-99.806999999999874
 20
-65.137200000000007
 30
0.0
 40
2.6265
 50
180.0
 51
0.0
  0
LINE
  8
DETAIL
  6
CONTINUOUS
 62
     5
 10
-102.4334999999998
 20
-38.872199999999999
 30
0.0
 11
-102.4334999999998
 21
-65.137200000000007
 31
0.0
  0
LINE
  8
DETAIL
  6
CONTINUOUS
 62
     5
 10
-97.180499999999853
 20
-38.872199999999999
 30
0.0
 11
-97.180499999999853
 21
-65.137200000000007
 31
0.0
  0
LINE
  8
DETAIL
  6
CONTINUOUS
 62
     5
 10
-97.180499999999853
 20
-4.202399999999999
 30
0.0
 11
-97.180499999999853
 21
-30.467399999999991
 31
0.0
  0
LINE
  8
DETAIL
  6
CONTINUOUS
 62
     5
 10
-102.4334999999998
 20
-4.202399999999999
 30
0.0
 11
-102.4334999999998
 21
-30.467399999999991
 31
0.0
  0
ARC
  8
DETAIL
  6
CONTINUOUS
 62
     5
 10
-99.806999999999874
 20
-30.467399999999991
 30
0.0
 40
2.6265
 50
180.0
 51
0.0
  0
ARC
  8
DETAIL
  6
CONTINUOUS
 62
     5
 10
-99.806999999999874
 20
-4.202399999999999
 30
0.0
 40
2.6265
 50
0.0
 51
180.0
  0
ARC
  8
DETAIL
  6
CONTINUOUS
 62
     5
 10
-99.806999999999874
 20
134.47679999999991
 30
0.0
 40
2.6265
 50
0.0
 51
180.0
  0
ARC
  8
DETAIL
  6
CONTINUOUS
 62
     5
 10
-99.806999999999874
 20
108.2117999999999
 30
0.0
 40
2.6265
 50
180.0
 51
0.0
  0
LINE
  8
DETAIL
  6
CONTINUOUS
 62
     5
 10
-102.4334999999998
 20
134.47679999999991
 30
0.0
 11
-102.4334999999998
 21
108.2117999999999
 31
0.0
  0
LINE
  8
DETAIL
  6
CONTINUOUS
 62
     5
 10
-97.180499999999853
 20
134.47679999999991
 30
0.0
 11
-97.180499999999853
 21
108.2117999999999
 31
0.0
  0
LINE
  8
DETAIL
  6
CONTINUOUS
 62
     5
 10
-97.180499999999853
 20
99.807000000000002
 30
0.0
 11
-97.180499999999853
 21
73.542000000000002
 31
0.0
  0
LINE
  8
DETAIL
  6
CONTINUOUS
 62
     5
 10
-102.4334999999998
 20
99.807000000000002
 30
0.0
 11
-102.4334999999998
 21
73.542000000000002
 31
0.0
  0
ARC
  8
DETAIL
  6
CONTINUOUS
 62
     5
 10
-99.806999999999874
 20
73.542000000000002
 30
0.0
 40
2.6265
 50
180.0
 51
0.0
  0
ARC
  8
DETAIL
  6
CONTINUOUS
 62
     5
 10
-99.806999999999874
 20
99.807000000000002
 30
0.0
 40
2.6265
 50
0.0
 51
180.0
  0
ARC
  8
DETAIL
  6
CONTINUOUS
 62
     5
 10
-99.806999999999874
 20
169.14660000000001
 30
0.0
 40
2.6265
 50
0.0
 51
180.0
  0
ARC
  8
DETAIL
  6
CONTINUOUS
 62
     5
 10
-99.806999999999874
 20
142.88159999999991
 30
0.0
 40
2.6265
 50
180.0
 51
0.0
  0
LINE
  8
DETAIL
  6
CONTINUOUS
 62
     5
 10
-102.4334999999998
 20
169.14660000000001
 30
0.0
 11
-102.4334999999998
 21
142.88159999999991
 31
0.0
  0
LINE
  8
DETAIL
  6
CONTINUOUS
 62
     5
 10
-97.180499999999853
 20
169.14660000000001
 30
0.0
 11
-97.180499999999853
 21
142.88159999999991
 31
0.0
  0
LINE
  8
DETAIL
  6
CONTINUOUS
 62
     5
 10
-97.180499999999853
 20
203.81639999999999
 30
0.0
 11
-97.180499999999853
 21
177.5514
 31
0.0
  0
LINE
  8
DETAIL
  6
CONTINUOUS
 62
     5
 10
-102.4334999999998
 20
203.81639999999999
 30
0.0
 11
-102.4334999999998
 21
177.5514
 31
0.0
  0
ARC
  8
DETAIL
  6
CONTINUOUS
 62
     5
 10
-99.806999999999874
 20
177.5514
 30
0.0
 40
2.6265
 50
180.0
 51
0.0
  0
ARC
  8
DETAIL
  6
CONTINUOUS
 62
     5
 10
-99.806999999999874
 20
203.81639999999999
 30
0.0
 40
2.6265
 50
0.0
 51
180.0
  0
ARC
  8
DETAIL
  6
CONTINUOUS
 62
     5
 10
-78.794999999999888
 20
203.81639999999999
 30
0.0
 40
2.6265
 50
0.0
 51
180.0
  0
ARC
  8
DETAIL
  6
CONTINUOUS
 62
     5
 10
-78.794999999999888
 20
177.5514
 30
0.0
 40
2.6265
 50
180.0
 51
0.0
  0
LINE
  8
DETAIL
  6
CONTINUOUS
 62
     5
 10
-81.421499999999838
 20
203.81639999999999
 30
0.0
 11
-81.421499999999838
 21
177.5514
 31
0.0
  0
LINE
  8
DETAIL
  6
CONTINUOUS
 62
     5
 10
-76.168499999999852
 20
203.81639999999999
 30
0.0
 11
-76.168499999999852
 21
177.5514
 31
0.0
  0
LINE
  8
DETAIL
  6
CONTINUOUS
 62
     5
 10
-76.168499999999852
 20
169.14660000000001
 30
0.0
 11
-76.168499999999852
 21
142.88159999999991
 31
0.0
  0
LINE
  8
DETAIL
  6
CONTINUOUS
 62
     5
 10
-81.421499999999838
 20
169.14660000000001
 30
0.0
 11
-81.421499999999838
 21
142.88159999999991
 31
0.0
  0
ARC
  8
DETAIL
  6
CONTINUOUS
 62
     5
 10
-78.794999999999888
 20
142.88159999999991
 30
0.0
 40
2.6265
 50
180.0
 51
0.0
  0
ARC
  8
DETAIL
  6
CONTINUOUS
 62
     5
 10
-78.794999999999888
 20
169.14660000000001
 30
0.0
 40
2.6265
 50
0.0
 51
180.0
  0
ARC
  8
DETAIL
  6
CONTINUOUS
 62
     5
 10
-78.794999999999888
 20
99.807000000000002
 30
0.0
 40
2.6265
 50
0.0
 51
180.0
  0
ARC
  8
DETAIL
  6
CONTINUOUS
 62
     5
 10
-78.794999999999888
 20
73.542000000000002
 30
0.0
 40
2.6265
 50
180.0
 51
0.0
  0
LINE
  8
DETAIL
  6
CONTINUOUS
 62
     5
 10
-81.421499999999838
 20
99.807000000000002
 30
0.0
 11
-81.421499999999838
 21
73.542000000000002
 31
0.0
  0
LINE
  8
DETAIL
  6
CONTINUOUS
 62
     5
 10
-76.168499999999852
 20
99.807000000000002
 30
0.0
 11
-76.168499999999852
 21
73.542000000000002
 31
0.0
  0
LINE
  8
DETAIL
  6
CONTINUOUS
 62
     5
 10
-76.168499999999852
 20
134.47679999999991
 30
0.0
 11
-76.168499999999852
 21
108.2117999999999
 31
0.0
  0
LINE
  8
DETAIL
  6
CONTINUOUS
 62
     5
 10
-81.421499999999838
 20
134.47679999999991
 30
0.0
 11
-81.421499999999838
 21
108.2117999999999
 31
0.0
  0
ARC
  8
DETAIL
  6
CONTINUOUS
 62
     5
 10
-78.794999999999888
 20
108.2117999999999
 30
0.0
 40
2.6265
 50
180.0
 51
0.0
  0
ARC
  8
DETAIL
  6
CONTINUOUS
 62
     5
 10
-78.794999999999888
 20
134.47679999999991
 30
0.0
 40
2.6265
 50
0.0
 51
180.0
  0
ARC
  8
DETAIL
  6
CONTINUOUS
 62
     5
 10
-78.794999999999888
 20
-4.202399999999999
 30
0.0
 40
2.6265
 50
0.0
 51
180.0
  0
ARC
  8
DETAIL
  6
CONTINUOUS
 62
     5
 10
-78.794999999999888
 20
-30.467399999999991
 30
0.0
 40
2.6265
 50
180.0
 51
0.0
  0
LINE
  8
DETAIL
  6
CONTINUOUS
 62
     5
 10
-81.421499999999838
 20
-4.202399999999999
 30
0.0
 11
-81.421499999999838
 21
-30.467399999999991
 31
0.0
  0
LINE
  8
DETAIL
  6
CONTINUOUS
 62
     5
 10
-76.168499999999852
 20
-4.202399999999999
 30
0.0
 11
-76.168499999999852
 21
-30.467399999999991
 31
0.0
  0
LINE
  8
DETAIL
  6
CONTINUOUS
 62
     5
 10
-76.168499999999852
 20
-38.872199999999999
 30
0.0
 11
-76.168499999999852
 21
-65.137200000000007
 31
0.0
  0
LINE
  8
DETAIL
  6
CONTINUOUS
 62
     5
 10
-81.421499999999838
 20
-38.872199999999999
 30
0.0
 11
-81.421499999999838
 21
-65.137200000000007
 31
0.0
  0
ARC
  8
DETAIL
  6
CONTINUOUS
 62
     5
 10
-78.794999999999888
 20
-65.137200000000007
 30
0.0
 40
2.6265
 50
180.0
 51
0.0
  0
ARC
  8
DETAIL
  6
CONTINUOUS
 62
     5
 10
-78.794999999999888
 20
-38.872199999999999
 30
0.0
 40
2.6265
 50
0.0
 51
180.0
  0
ARC
  8
DETAIL
  6
CONTINUOUS
 62
     5
 10
-78.794999999999888
 20
30.467400000000001
 30
0.0
 40
2.6265
 50
0.0
 51
180.0
  0
ARC
  8
DETAIL
  6
CONTINUOUS
 62
     5
 10
-78.794999999999888
 20
4.202399999999999
 30
0.0
 40
2.6265
 50
180.0
 51
0.0
  0
LINE
  8
DETAIL
  6
CONTINUOUS
 62
     5
 10
-81.421499999999838
 20
30.467400000000001
 30
0.0
 11
-81.421499999999838
 21
4.202399999999999
 31
0.0
  0
LINE
  8
DETAIL
  6
CONTINUOUS
 62
     5
 10
-76.168499999999852
 20
30.467400000000001
 30
0.0
 11
-76.168499999999852
 21
4.202399999999999
 31
0.0
  0
LINE
  8
DETAIL
  6
CONTINUOUS
 62
     5
 10
-76.168499999999852
 20
65.137200000000007
 30
0.0
 11
-76.168499999999852
 21
38.872199999999999
 31
0.0
  0
LINE
  8
DETAIL
  6
CONTINUOUS
 62
     5
 10
-81.421499999999838
 20
65.137200000000007
 30
0.0
 11
-81.421499999999838
 21
38.872199999999999
 31
0.0
  0
ARC
  8
DETAIL
  6
CONTINUOUS
 62
     5
 10
-78.794999999999888
 20
38.872199999999999
 30
0.0
 40
2.6265
 50
180.0
 51
0.0
  0
ARC
  8
DETAIL
  6
CONTINUOUS
 62
     5
 10
-78.794999999999888
 20
65.137200000000007
 30
0.0
 40
2.6265
 50
0.0
 51
180.0
  0
ARC
  8
DETAIL
  6
CONTINUOUS
 62
     5
 10
-78.794999999999888
 20
-108.2117999999999
 30
0.0
 40
2.6265
 50
0.0
 51
180.0
  0
ARC
  8
DETAIL
  6
CONTINUOUS
 62
     5
 10
-78.794999999999888
 20
-134.47679999999991
 30
0.0
 40
2.6265
 50
180.0
 51
0.0
  0
LINE
  8
DETAIL
  6
CONTINUOUS
 62
     5
 10
-81.421499999999838
 20
-108.2117999999999
 30
0.0
 11
-81.421499999999838
 21
-134.47679999999991
 31
0.0
  0
LINE
  8
DETAIL
  6
CONTINUOUS
 62
     5
 10
-76.168499999999852
 20
-108.2117999999999
 30
0.0
 11
-76.168499999999852
 21
-134.47679999999991
 31
0.0
  0
LINE
  8
DETAIL
  6
CONTINUOUS
 62
     5
 10
-76.168499999999852
 20
-142.88159999999991
 30
0.0
 11
-76.168499999999852
 21
-169.14660000000001
 31
0.0
  0
LINE
  8
DETAIL
  6
CONTINUOUS
 62
     5
 10
-81.421499999999838
 20
-142.88159999999991
 30
0.0
 11
-81.421499999999838
 21
-169.14660000000001
 31
0.0
  0
ARC
  8
DETAIL
  6
CONTINUOUS
 62
     5
 10
-78.794999999999888
 20
-169.14660000000001
 30
0.0
 40
2.6265
 50
180.0
 51
0.0
  0
ARC
  8
DETAIL
  6
CONTINUOUS
 62
     5
 10
-78.794999999999888
 20
-142.88159999999991
 30
0.0
 40
2.6265
 50
0.0
 51
180.0
  0
LINE
  8
DETAIL
  6
CONTINUOUS
 62
     5
 10
-76.168499999999852
 20
-177.5514
 30
0.0
 11
-76.168499999999852
 21
-203.81639999999999
 31
0.0
  0
LINE
  8
DETAIL
  6
CONTINUOUS
 62
     5
 10
-81.421499999999838
 20
-177.5514
 30
0.0
 11
-81.421499999999838
 21
-203.81639999999999
 31
0.0
  0
ARC
  8
DETAIL
  6
CONTINUOUS
 62
     5
 10
-78.794999999999888
 20
-203.81639999999999
 30
0.0
 40
2.6265
 50
180.0
 51
0.0
  0
ARC
  8
DETAIL
  6
CONTINUOUS
 62
     5
 10
-78.794999999999888
 20
-177.5514
 30
0.0
 40
2.6265
 50
0.0
 51
180.0
  0
LINE
  8
DETAIL
  6
CONTINUOUS
 62
     5
 10
-76.168499999999852
 20
-73.542000000000002
 30
0.0
 11
-76.168499999999852
 21
-99.807000000000002
 31
0.0
  0
LINE
  8
DETAIL
  6
CONTINUOUS
 62
     5
 10
-81.421499999999838
 20
-73.542000000000002
 30
0.0
 11
-81.421499999999838
 21
-99.807000000000002
 31
0.0
  0
ARC
  8
DETAIL
  6
CONTINUOUS
 62
     5
 10
-78.794999999999888
 20
-99.807000000000002
 30
0.0
 40
2.6265
 50
180.0
 51
0.0
  0
ARC
  8
DETAIL
  6
CONTINUOUS
 62
     5
 10
-78.794999999999888
 20
-73.542000000000002
 30
0.0
 40
2.6265
 50
0.0
 51
180.0
  0
ARC
  8
DETAIL
  6
CONTINUOUS
 62
     5
 10
-89.300999999999846
 20
-73.542000000000002
 30
0.0
 40
2.6265
 50
0.0
 51
180.0
  0
ARC
  8
DETAIL
  6
CONTINUOUS
 62
     5
 10
-89.300999999999846
 20
-99.807000000000002
 30
0.0
 40
2.6265
 50
180.0
 51
0.0
  0
LINE
  8
DETAIL
  6
CONTINUOUS
 62
     5
 10
-91.927499999999881
 20
-73.542000000000002
 30
0.0
 11
-91.927499999999881
 21
-99.807000000000002
 31
0.0
  0
LINE
  8
DETAIL
  6
CONTINUOUS
 62
     5
 10
-86.674499999999838
 20
-73.542000000000002
 30
0.0
 11
-86.674499999999838
 21
-99.807000000000002
 31
0.0
  0
ARC
  8
DETAIL
  6
CONTINUOUS
 62
     5
 10
-89.300999999999846
 20
-177.5514
 30
0.0
 40
2.6265
 50
0.0
 51
180.0
  0
ARC
  8
DETAIL
  6
CONTINUOUS
 62
     5
 10
-89.300999999999846
 20
-203.81639999999999
 30
0.0
 40
2.6265
 50
180.0
 51
0.0
  0
LINE
  8
DETAIL
  6
CONTINUOUS
 62
     5
 10
-91.927499999999881
 20
-177.5514
 30
0.0
 11
-91.927499999999881
 21
-203.81639999999999
 31
0.0
  0
LINE
  8
DETAIL
  6
CONTINUOUS
 62
     5
 10
-86.674499999999838
 20
-177.5514
 30
0.0
 11
-86.674499999999838
 21
-203.81639999999999
 31
0.0
  0
ARC
  8
DETAIL
  6
CONTINUOUS
 62
     5
 10
-89.300999999999846
 20
-142.88159999999991
 30
0.0
 40
2.6265
 50
0.0
 51
180.0
  0
ARC
  8
DETAIL
  6
CONTINUOUS
 62
     5
 10
-89.300999999999846
 20
-169.14660000000001
 30
0.0
 40
2.6265
 50
180.0
 51
0.0
  0
LINE
  8
DETAIL
  6
CONTINUOUS
 62
     5
 10
-91.927499999999881
 20
-142.88159999999991
 30
0.0
 11
-91.927499999999881
 21
-169.14660000000001
 31
0.0
  0
LINE
  8
DETAIL
  6
CONTINUOUS
 62
     5
 10
-86.674499999999838
 20
-142.88159999999991
 30
0.0
 11
-86.674499999999838
 21
-169.14660000000001
 31
0.0
  0
LINE
  8
DETAIL
  6
CONTINUOUS
 62
     5
 10
-86.674499999999838
 20
-108.2117999999999
 30
0.0
 11
-86.674499999999838
 21
-134.47679999999991
 31
0.0
  0
LINE
  8
DETAIL
  6
CONTINUOUS
 62
     5
 10
-91.927499999999881
 20
-108.2117999999999
 30
0.0
 11
-91.927499999999881
 21
-134.47679999999991
 31
0.0
  0
ARC
  8
DETAIL
  6
CONTINUOUS
 62
     5
 10
-89.300999999999846
 20
-134.47679999999991
 30
0.0
 40
2.6265
 50
180.0
 51
0.0
  0
ARC
  8
DETAIL
  6
CONTINUOUS
 62
     5
 10
-89.300999999999846
 20
-108.2117999999999
 30
0.0
 40
2.6265
 50
0.0
 51
180.0
  0
ARC
  8
DETAIL
  6
CONTINUOUS
 62
     5
 10
-89.300999999999846
 20
65.137200000000007
 30
0.0
 40
2.6265
 50
0.0
 51
180.0
  0
ARC
  8
DETAIL
  6
CONTINUOUS
 62
     5
 10
-89.300999999999846
 20
38.872199999999999
 30
0.0
 40
2.6265
 50
180.0
 51
0.0
  0
LINE
  8
DETAIL
  6
CONTINUOUS
 62
     5
 10
-91.927499999999881
 20
65.137200000000007
 30
0.0
 11
-91.927499999999881
 21
38.872199999999999
 31
0.0
  0
LINE
  8
DETAIL
  6
CONTINUOUS
 62
     5
 10
-86.674499999999838
 20
65.137200000000007
 30
0.0
 11
-86.674499999999838
 21
38.872199999999999
 31
0.0
  0
LINE
  8
DETAIL
  6
CONTINUOUS
 62
     5
 10
-86.674499999999838
 20
30.467400000000001
 30
0.0
 11
-86.674499999999838
 21
4.202399999999999
 31
0.0
  0
LINE
  8
DETAIL
  6
CONTINUOUS
 62
     5
 10
-91.927499999999881
 20
30.467400000000001
 30
0.0
 11
-91.927499999999881
 21
4.202399999999999
 31
0.0
  0
ARC
  8
DETAIL
  6
CONTINUOUS
 62
     5
 10
-89.300999999999846
 20
4.202399999999999
 30
0.0
 40
2.6265
 50
180.0
 51
0.0
  0
ARC
  8
DETAIL
  6
CONTINUOUS
 62
     5
 10
-89.300999999999846
 20
30.467400000000001
 30
0.0
 40
2.6265
 50
0.0
 51
180.0
  0
ARC
  8
DETAIL
  6
CONTINUOUS
 62
     5
 10
-89.300999999999846
 20
-38.872199999999999
 30
0.0
 40
2.6265
 50
0.0
 51
180.0
  0
ARC
  8
DETAIL
  6
CONTINUOUS
 62
     5
 10
-89.300999999999846
 20
-65.137200000000007
 30
0.0
 40
2.6265
 50
180.0
 51
0.0
  0
LINE
  8
DETAIL
  6
CONTINUOUS
 62
     5
 10
-91.927499999999881
 20
-38.872199999999999
 30
0.0
 11
-91.927499999999881
 21
-65.137200000000007
 31
0.0
  0
LINE
  8
DETAIL
  6
CONTINUOUS
 62
     5
 10
-86.674499999999838
 20
-38.872199999999999
 30
0.0
 11
-86.674499999999838
 21
-65.137200000000007
 31
0.0
  0
LINE
  8
DETAIL
  6
CONTINUOUS
 62
     5
 10
-86.674499999999838
 20
-4.202399999999999
 30
0.0
 11
-86.674499999999838
 21
-30.467399999999991
 31
0.0
  0
LINE
  8
DETAIL
  6
CONTINUOUS
 62
     5
 10
-91.927499999999881
 20
-4.202399999999999
 30
0.0
 11
-91.927499999999881
 21
-30.467399999999991
 31
0.0
  0
ARC
  8
DETAIL
  6
CONTINUOUS
 62
     5
 10
-89.300999999999846
 20
-30.467399999999991
 30
0.0
 40
2.6265
 50
180.0
 51
0.0
  0
ARC
  8
DETAIL
  6
CONTINUOUS
 62
     5
 10
-89.300999999999846
 20
-4.202399999999999
 30
0.0
 40
2.6265
 50
0.0
 51
180.0
  0
ARC
  8
DETAIL
  6
CONTINUOUS
 62
     5
 10
-89.300999999999846
 20
134.47679999999991
 30
0.0
 40
2.6265
 50
0.0
 51
180.0
  0
ARC
  8
DETAIL
  6
CONTINUOUS
 62
     5
 10
-89.300999999999846
 20
108.2117999999999
 30
0.0
 40
2.6265
 50
180.0
 51
0.0
  0
LINE
  8
DETAIL
  6
CONTINUOUS
 62
     5
 10
-91.927499999999881
 20
134.47679999999991
 30
0.0
 11
-91.927499999999881
 21
108.2117999999999
 31
0.0
  0
LINE
  8
DETAIL
  6
CONTINUOUS
 62
     5
 10
-86.674499999999838
 20
134.47679999999991
 30
0.0
 11
-86.674499999999838
 21
108.2117999999999
 31
0.0
  0
LINE
  8
DETAIL
  6
CONTINUOUS
 62
     5
 10
-86.674499999999838
 20
99.807000000000002
 30
0.0
 11
-86.674499999999838
 21
73.542000000000002
 31
0.0
  0
LINE
  8
DETAIL
  6
CONTINUOUS
 62
     5
 10
-91.927499999999881
 20
99.807000000000002
 30
0.0
 11
-91.927499999999881
 21
73.542000000000002
 31
0.0
  0
ARC
  8
DETAIL
  6
CONTINUOUS
 62
     5
 10
-89.300999999999846
 20
73.542000000000002
 30
0.0
 40
2.6265
 50
180.0
 51
0.0
  0
ARC
  8
DETAIL
  6
CONTINUOUS
 62
     5
 10
-89.300999999999846
 20
99.807000000000002
 30
0.0
 40
2.6265
 50
0.0
 51
180.0
  0
ARC
  8
DETAIL
  6
CONTINUOUS
 62
     5
 10
-89.300999999999846
 20
169.14660000000001
 30
0.0
 40
2.6265
 50
0.0
 51
180.0
  0
ARC
  8
DETAIL
  6
CONTINUOUS
 62
     5
 10
-89.300999999999846
 20
142.88159999999991
 30
0.0
 40
2.6265
 50
180.0
 51
0.0
  0
LINE
  8
DETAIL
  6
CONTINUOUS
 62
     5
 10
-91.927499999999881
 20
169.14660000000001
 30
0.0
 11
-91.927499999999881
 21
142.88159999999991
 31
0.0
  0
LINE
  8
DETAIL
  6
CONTINUOUS
 62
     5
 10
-86.674499999999838
 20
169.14660000000001
 30
0.0
 11
-86.674499999999838
 21
142.88159999999991
 31
0.0
  0
LINE
  8
DETAIL
  6
CONTINUOUS
 62
     5
 10
-86.674499999999838
 20
203.81639999999999
 30
0.0
 11
-86.674499999999838
 21
177.5514
 31
0.0
  0
LINE
  8
DETAIL
  6
CONTINUOUS
 62
     5
 10
-91.927499999999881
 20
203.81639999999999
 30
0.0
 11
-91.927499999999881
 21
177.5514
 31
0.0
  0
ARC
  8
DETAIL
  6
CONTINUOUS
 62
     5
 10
-89.300999999999846
 20
177.5514
 30
0.0
 40
2.6265
 50
180.0
 51
0.0
  0
ARC
  8
DETAIL
  6
CONTINUOUS
 62
     5
 10
-89.300999999999846
 20
203.81639999999999
 30
0.0
 40
2.6265
 50
0.0
 51
180.0
  0
ARC
  8
DETAIL
  6
CONTINUOUS
 62
     5
 10
-131.32499999999979
 20
203.81639999999999
 30
0.0
 40
2.6265
 50
0.0
 51
180.0
  0
ARC
  8
DETAIL
  6
CONTINUOUS
 62
     5
 10
-131.32499999999979
 20
177.5514
 30
0.0
 40
2.6265
 50
180.0
 51
0.0
  0
LINE
  8
DETAIL
  6
CONTINUOUS
 62
     5
 10
-133.9514999999999
 20
203.81639999999999
 30
0.0
 11
-133.9514999999999
 21
177.5514
 31
0.0
  0
LINE
  8
DETAIL
  6
CONTINUOUS
 62
     5
 10
-128.6984999999998
 20
203.81639999999999
 30
0.0
 11
-128.6984999999998
 21
177.5514
 31
0.0
  0
LINE
  8
DETAIL
  6
CONTINUOUS
 62
     5
 10
-128.6984999999998
 20
169.14660000000001
 30
0.0
 11
-128.6984999999998
 21
142.88159999999991
 31
0.0
  0
LINE
  8
DETAIL
  6
CONTINUOUS
 62
     5
 10
-133.9514999999999
 20
169.14660000000001
 30
0.0
 11
-133.9514999999999
 21
142.88159999999991
 31
0.0
  0
ARC
  8
DETAIL
  6
CONTINUOUS
 62
     5
 10
-131.32499999999979
 20
142.88159999999991
 30
0.0
 40
2.6265
 50
180.0
 51
0.0
  0
ARC
  8
DETAIL
  6
CONTINUOUS
 62
     5
 10
-131.32499999999979
 20
169.14660000000001
 30
0.0
 40
2.6265
 50
0.0
 51
180.0
  0
ARC
  8
DETAIL
  6
CONTINUOUS
 62
     5
 10
-131.32499999999979
 20
99.807000000000002
 30
0.0
 40
2.6265
 50
0.0
 51
180.0
  0
ARC
  8
DETAIL
  6
CONTINUOUS
 62
     5
 10
-131.32499999999979
 20
73.542000000000002
 30
0.0
 40
2.6265
 50
180.0
 51
0.0
  0
LINE
  8
DETAIL
  6
CONTINUOUS
 62
     5
 10
-133.9514999999999
 20
99.807000000000002
 30
0.0
 11
-133.9514999999999
 21
73.542000000000002
 31
0.0
  0
LINE
  8
DETAIL
  6
CONTINUOUS
 62
     5
 10
-128.6984999999998
 20
99.807000000000002
 30
0.0
 11
-128.6984999999998
 21
73.542000000000002
 31
0.0
  0
LINE
  8
DETAIL
  6
CONTINUOUS
 62
     5
 10
-128.6984999999998
 20
134.47679999999991
 30
0.0
 11
-128.6984999999998
 21
108.2117999999999
 31
0.0
  0
LINE
  8
DETAIL
  6
CONTINUOUS
 62
     5
 10
-133.9514999999999
 20
134.47679999999991
 30
0.0
 11
-133.9514999999999
 21
108.2117999999999
 31
0.0
  0
ARC
  8
DETAIL
  6
CONTINUOUS
 62
     5
 10
-131.32499999999979
 20
108.2117999999999
 30
0.0
 40
2.6265
 50
180.0
 51
0.0
  0
ARC
  8
DETAIL
  6
CONTINUOUS
 62
     5
 10
-131.32499999999979
 20
134.47679999999991
 30
0.0
 40
2.6265
 50
0.0
 51
180.0
  0
ARC
  8
DETAIL
  6
CONTINUOUS
 62
     5
 10
-131.32499999999979
 20
-4.202399999999999
 30
0.0
 40
2.6265
 50
0.0
 51
180.0
  0
ARC
  8
DETAIL
  6
CONTINUOUS
 62
     5
 10
-131.32499999999979
 20
-30.467399999999991
 30
0.0
 40
2.6265
 50
180.0
 51
0.0
  0
LINE
  8
DETAIL
  6
CONTINUOUS
 62
     5
 10
-133.9514999999999
 20
-4.202399999999999
 30
0.0
 11
-133.9514999999999
 21
-30.467399999999991
 31
0.0
  0
LINE
  8
DETAIL
  6
CONTINUOUS
 62
     5
 10
-128.6984999999998
 20
-4.202399999999999
 30
0.0
 11
-128.6984999999998
 21
-30.467399999999991
 31
0.0
  0
LINE
  8
DETAIL
  6
CONTINUOUS
 62
     5
 10
-128.6984999999998
 20
-38.872199999999999
 30
0.0
 11
-128.6984999999998
 21
-65.137200000000007
 31
0.0
  0
LINE
  8
DETAIL
  6
CONTINUOUS
 62
     5
 10
-133.9514999999999
 20
-38.872199999999999
 30
0.0
 11
-133.9514999999999
 21
-65.137200000000007
 31
0.0
  0
ARC
  8
DETAIL
  6
CONTINUOUS
 62
     5
 10
-131.32499999999979
 20
-65.137200000000007
 30
0.0
 40
2.6265
 50
180.0
 51
0.0
  0
ARC
  8
DETAIL
  6
CONTINUOUS
 62
     5
 10
-131.32499999999979
 20
-38.872199999999999
 30
0.0
 40
2.6265
 50
0.0
 51
180.0
  0
ARC
  8
DETAIL
  6
CONTINUOUS
 62
     5
 10
-131.32499999999979
 20
30.467400000000001
 30
0.0
 40
2.6265
 50
0.0
 51
180.0
  0
ARC
  8
DETAIL
  6
CONTINUOUS
 62
     5
 10
-131.32499999999979
 20
4.202399999999999
 30
0.0
 40
2.6265
 50
180.0
 51
0.0
  0
LINE
  8
DETAIL
  6
CONTINUOUS
 62
     5
 10
-133.9514999999999
 20
30.467400000000001
 30
0.0
 11
-133.9514999999999
 21
4.202399999999999
 31
0.0
  0
LINE
  8
DETAIL
  6
CONTINUOUS
 62
     5
 10
-128.6984999999998
 20
30.467400000000001
 30
0.0
 11
-128.6984999999998
 21
4.202399999999999
 31
0.0
  0
LINE
  8
DETAIL
  6
CONTINUOUS
 62
     5
 10
-128.6984999999998
 20
65.137200000000007
 30
0.0
 11
-128.6984999999998
 21
38.872199999999999
 31
0.0
  0
LINE
  8
DETAIL
  6
CONTINUOUS
 62
     5
 10
-133.9514999999999
 20
65.137200000000007
 30
0.0
 11
-133.9514999999999
 21
38.872199999999999
 31
0.0
  0
ARC
  8
DETAIL
  6
CONTINUOUS
 62
     5
 10
-131.32499999999979
 20
38.872199999999999
 30
0.0
 40
2.6265
 50
180.0
 51
0.0
  0
ARC
  8
DETAIL
  6
CONTINUOUS
 62
     5
 10
-131.32499999999979
 20
65.137200000000007
 30
0.0
 40
2.6265
 50
0.0
 51
180.0
  0
ARC
  8
DETAIL
  6
CONTINUOUS
 62
     5
 10
-131.32499999999979
 20
-108.2117999999999
 30
0.0
 40
2.6265
 50
0.0
 51
180.0
  0
ARC
  8
DETAIL
  6
CONTINUOUS
 62
     5
 10
-131.32499999999979
 20
-134.47679999999991
 30
0.0
 40
2.6265
 50
180.0
 51
0.0
  0
LINE
  8
DETAIL
  6
CONTINUOUS
 62
     5
 10
-133.9514999999999
 20
-108.2117999999999
 30
0.0
 11
-133.9514999999999
 21
-134.47679999999991
 31
0.0
  0
LINE
  8
DETAIL
  6
CONTINUOUS
 62
     5
 10
-128.6984999999998
 20
-108.2117999999999
 30
0.0
 11
-128.6984999999998
 21
-134.47679999999991
 31
0.0
  0
LINE
  8
DETAIL
  6
CONTINUOUS
 62
     5
 10
-128.6984999999998
 20
-142.88159999999991
 30
0.0
 11
-128.6984999999998
 21
-169.14660000000001
 31
0.0
  0
LINE
  8
DETAIL
  6
CONTINUOUS
 62
     5
 10
-133.9514999999999
 20
-142.88159999999991
 30
0.0
 11
-133.9514999999999
 21
-169.14660000000001
 31
0.0
  0
ARC
  8
DETAIL
  6
CONTINUOUS
 62
     5
 10
-131.32499999999979
 20
-169.14660000000001
 30
0.0
 40
2.6265
 50
180.0
 51
0.0
  0
ARC
  8
DETAIL
  6
CONTINUOUS
 62
     5
 10
-131.32499999999979
 20
-142.88159999999991
 30
0.0
 40
2.6265
 50
0.0
 51
180.0
  0
LINE
  8
DETAIL
  6
CONTINUOUS
 62
     5
 10
-128.6984999999998
 20
-177.5514
 30
0.0
 11
-128.6984999999998
 21
-203.81639999999999
 31
0.0
  0
LINE
  8
DETAIL
  6
CONTINUOUS
 62
     5
 10
-133.9514999999999
 20
-177.5514
 30
0.0
 11
-133.9514999999999
 21
-203.81639999999999
 31
0.0
  0
ARC
  8
DETAIL
  6
CONTINUOUS
 62
     5
 10
-131.32499999999979
 20
-203.81639999999999
 30
0.0
 40
2.6265
 50
180.0
 51
0.0
  0
ARC
  8
DETAIL
  6
CONTINUOUS
 62
     5
 10
-131.32499999999979
 20
-177.5514
 30
0.0
 40
2.6265
 50
0.0
 51
180.0
  0
LINE
  8
DETAIL
  6
CONTINUOUS
 62
     5
 10
-128.6984999999998
 20
-73.542000000000002
 30
0.0
 11
-128.6984999999998
 21
-99.807000000000002
 31
0.0
  0
LINE
  8
DETAIL
  6
CONTINUOUS
 62
     5
 10
-133.9514999999999
 20
-73.542000000000002
 30
0.0
 11
-133.9514999999999
 21
-99.807000000000002
 31
0.0
  0
ARC
  8
DETAIL
  6
CONTINUOUS
 62
     5
 10
-131.32499999999979
 20
-99.807000000000002
 30
0.0
 40
2.6265
 50
180.0
 51
0.0
  0
ARC
  8
DETAIL
  6
CONTINUOUS
 62
     5
 10
-131.32499999999979
 20
-73.542000000000002
 30
0.0
 40
2.6265
 50
0.0
 51
180.0
  0
ARC
  8
DETAIL
  6
CONTINUOUS
 62
     5
 10
-120.8189999999999
 20
-73.542000000000002
 30
0.0
 40
2.6265
 50
0.0
 51
180.0
  0
ARC
  8
DETAIL
  6
CONTINUOUS
 62
     5
 10
-120.8189999999999
 20
-99.807000000000002
 30
0.0
 40
2.6265
 50
180.0
 51
0.0
  0
LINE
  8
DETAIL
  6
CONTINUOUS
 62
     5
 10
-123.4454999999998
 20
-73.542000000000002
 30
0.0
 11
-123.4454999999998
 21
-99.807000000000002
 31
0.0
  0
LINE
  8
DETAIL
  6
CONTINUOUS
 62
     5
 10
-118.1924999999998
 20
-73.542000000000002
 30
0.0
 11
-118.1924999999998
 21
-99.807000000000002
 31
0.0
  0
ARC
  8
DETAIL
  6
CONTINUOUS
 62
     5
 10
-120.8189999999999
 20
-177.5514
 30
0.0
 40
2.6265
 50
0.0
 51
180.0
  0
ARC
  8
DETAIL
  6
CONTINUOUS
 62
     5
 10
-120.8189999999999
 20
-203.81639999999999
 30
0.0
 40
2.6265
 50
180.0
 51
0.0
  0
LINE
  8
DETAIL
  6
CONTINUOUS
 62
     5
 10
-123.4454999999998
 20
-177.5514
 30
0.0
 11
-123.4454999999998
 21
-203.81639999999999
 31
0.0
  0
LINE
  8
DETAIL
  6
CONTINUOUS
 62
     5
 10
-118.1924999999998
 20
-177.5514
 30
0.0
 11
-118.1924999999998
 21
-203.81639999999999
 31
0.0
  0
ARC
  8
DETAIL
  6
CONTINUOUS
 62
     5
 10
-120.8189999999999
 20
-142.88159999999991
 30
0.0
 40
2.6265
 50
0.0
 51
180.0
  0
ARC
  8
DETAIL
  6
CONTINUOUS
 62
     5
 10
-120.8189999999999
 20
-169.14660000000001
 30
0.0
 40
2.6265
 50
180.0
 51
0.0
  0
LINE
  8
DETAIL
  6
CONTINUOUS
 62
     5
 10
-123.4454999999998
 20
-142.88159999999991
 30
0.0
 11
-123.4454999999998
 21
-169.14660000000001
 31
0.0
  0
LINE
  8
DETAIL
  6
CONTINUOUS
 62
     5
 10
-118.1924999999998
 20
-142.88159999999991
 30
0.0
 11
-118.1924999999998
 21
-169.14660000000001
 31
0.0
  0
LINE
  8
DETAIL
  6
CONTINUOUS
 62
     5
 10
-118.1924999999998
 20
-108.2117999999999
 30
0.0
 11
-118.1924999999998
 21
-134.47679999999991
 31
0.0
  0
LINE
  8
DETAIL
  6
CONTINUOUS
 62
     5
 10
-123.4454999999998
 20
-108.2117999999999
 30
0.0
 11
-123.4454999999998
 21
-134.47679999999991
 31
0.0
  0
ARC
  8
DETAIL
  6
CONTINUOUS
 62
     5
 10
-120.8189999999999
 20
-134.47679999999991
 30
0.0
 40
2.6265
 50
180.0
 51
0.0
  0
ARC
  8
DETAIL
  6
CONTINUOUS
 62
     5
 10
-120.8189999999999
 20
-108.2117999999999
 30
0.0
 40
2.6265
 50
0.0
 51
180.0
  0
ARC
  8
DETAIL
  6
CONTINUOUS
 62
     5
 10
-120.8189999999999
 20
65.137200000000007
 30
0.0
 40
2.6265
 50
0.0
 51
180.0
  0
ARC
  8
DETAIL
  6
CONTINUOUS
 62
     5
 10
-120.8189999999999
 20
38.872199999999999
 30
0.0
 40
2.6265
 50
180.0
 51
0.0
  0
LINE
  8
DETAIL
  6
CONTINUOUS
 62
     5
 10
-123.4454999999998
 20
65.137200000000007
 30
0.0
 11
-123.4454999999998
 21
38.872199999999999
 31
0.0
  0
LINE
  8
DETAIL
  6
CONTINUOUS
 62
     5
 10
-118.1924999999998
 20
65.137200000000007
 30
0.0
 11
-118.1924999999998
 21
38.872199999999999
 31
0.0
  0
LINE
  8
DETAIL
  6
CONTINUOUS
 62
     5
 10
-118.1924999999998
 20
30.467400000000001
 30
0.0
 11
-118.1924999999998
 21
4.202399999999999
 31
0.0
  0
LINE
  8
DETAIL
  6
CONTINUOUS
 62
     5
 10
-123.4454999999998
 20
30.467400000000001
 30
0.0
 11
-123.4454999999998
 21
4.202399999999999
 31
0.0
  0
ARC
  8
DETAIL
  6
CONTINUOUS
 62
     5
 10
-120.8189999999999
 20
4.202399999999999
 30
0.0
 40
2.6265
 50
180.0
 51
0.0
  0
ARC
  8
DETAIL
  6
CONTINUOUS
 62
     5
 10
-120.8189999999999
 20
30.467400000000001
 30
0.0
 40
2.6265
 50
0.0
 51
180.0
  0
ARC
  8
DETAIL
  6
CONTINUOUS
 62
     5
 10
-120.8189999999999
 20
-38.872199999999999
 30
0.0
 40
2.6265
 50
0.0
 51
180.0
  0
ARC
  8
DETAIL
  6
CONTINUOUS
 62
     5
 10
-120.8189999999999
 20
-65.137200000000007
 30
0.0
 40
2.6265
 50
180.0
 51
0.0
  0
LINE
  8
DETAIL
  6
CONTINUOUS
 62
     5
 10
-123.4454999999998
 20
-38.872199999999999
 30
0.0
 11
-123.4454999999998
 21
-65.137200000000007
 31
0.0
  0
LINE
  8
DETAIL
  6
CONTINUOUS
 62
     5
 10
-118.1924999999998
 20
-38.872199999999999
 30
0.0
 11
-118.1924999999998
 21
-65.137200000000007
 31
0.0
  0
LINE
  8
DETAIL
  6
CONTINUOUS
 62
     5
 10
-118.1924999999998
 20
-4.202399999999999
 30
0.0
 11
-118.1924999999998
 21
-30.467399999999991
 31
0.0
  0
LINE
  8
DETAIL
  6
CONTINUOUS
 62
     5
 10
-123.4454999999998
 20
-4.202399999999999
 30
0.0
 11
-123.4454999999998
 21
-30.467399999999991
 31
0.0
  0
ARC
  8
DETAIL
  6
CONTINUOUS
 62
     5
 10
-120.8189999999999
 20
-30.467399999999991
 30
0.0
 40
2.6265
 50
180.0
 51
0.0
  0
ARC
  8
DETAIL
  6
CONTINUOUS
 62
     5
 10
-120.8189999999999
 20
-4.202399999999999
 30
0.0
 40
2.6265
 50
0.0
 51
180.0
  0
ARC
  8
DETAIL
  6
CONTINUOUS
 62
     5
 10
-120.8189999999999
 20
134.47679999999991
 30
0.0
 40
2.6265
 50
0.0
 51
180.0
  0
ARC
  8
DETAIL
  6
CONTINUOUS
 62
     5
 10
-120.8189999999999
 20
108.2117999999999
 30
0.0
 40
2.6265
 50
180.0
 51
0.0
  0
LINE
  8
DETAIL
  6
CONTINUOUS
 62
     5
 10
-123.4454999999998
 20
134.47679999999991
 30
0.0
 11
-123.4454999999998
 21
108.2117999999999
 31
0.0
  0
LINE
  8
DETAIL
  6
CONTINUOUS
 62
     5
 10
-118.1924999999998
 20
134.47679999999991
 30
0.0
 11
-118.1924999999998
 21
108.2117999999999
 31
0.0
  0
LINE
  8
DETAIL
  6
CONTINUOUS
 62
     5
 10
-118.1924999999998
 20
99.807000000000002
 30
0.0
 11
-118.1924999999998
 21
73.542000000000002
 31
0.0
  0
LINE
  8
DETAIL
  6
CONTINUOUS
 62
     5
 10
-123.4454999999998
 20
99.807000000000002
 30
0.0
 11
-123.4454999999998
 21
73.542000000000002
 31
0.0
  0
ARC
  8
DETAIL
  6
CONTINUOUS
 62
     5
 10
-120.8189999999999
 20
73.542000000000002
 30
0.0
 40
2.6265
 50
180.0
 51
0.0
  0
ARC
  8
DETAIL
  6
CONTINUOUS
 62
     5
 10
-120.8189999999999
 20
99.807000000000002
 30
0.0
 40
2.6265
 50
0.0
 51
180.0
  0
ARC
  8
DETAIL
  6
CONTINUOUS
 62
     5
 10
-120.8189999999999
 20
169.14660000000001
 30
0.0
 40
2.6265
 50
0.0
 51
180.0
  0
ARC
  8
DETAIL
  6
CONTINUOUS
 62
     5
 10
-120.8189999999999
 20
142.88159999999991
 30
0.0
 40
2.6265
 50
180.0
 51
0.0
  0
LINE
  8
DETAIL
  6
CONTINUOUS
 62
     5
 10
-123.4454999999998
 20
169.14660000000001
 30
0.0
 11
-123.4454999999998
 21
142.88159999999991
 31
0.0
  0
LINE
  8
DETAIL
  6
CONTINUOUS
 62
     5
 10
-118.1924999999998
 20
169.14660000000001
 30
0.0
 11
-118.1924999999998
 21
142.88159999999991
 31
0.0
  0
LINE
  8
DETAIL
  6
CONTINUOUS
 62
     5
 10
-118.1924999999998
 20
203.81639999999999
 30
0.0
 11
-118.1924999999998
 21
177.5514
 31
0.0
  0
LINE
  8
DETAIL
  6
CONTINUOUS
 62
     5
 10
-123.4454999999998
 20
203.81639999999999
 30
0.0
 11
-123.4454999999998
 21
177.5514
 31
0.0
  0
ARC
  8
DETAIL
  6
CONTINUOUS
 62
     5
 10
-120.8189999999999
 20
177.5514
 30
0.0
 40
2.6265
 50
180.0
 51
0.0
  0
ARC
  8
DETAIL
  6
CONTINUOUS
 62
     5
 10
-120.8189999999999
 20
203.81639999999999
 30
0.0
 40
2.6265
 50
0.0
 51
180.0
  0
ARC
  8
DETAIL
  6
CONTINUOUS
 62
     5
 10
-141.8309999999999
 20
203.81639999999999
 30
0.0
 40
2.6265
 50
0.0
 51
180.0
  0
ARC
  8
DETAIL
  6
CONTINUOUS
 62
     5
 10
-141.8309999999999
 20
177.5514
 30
0.0
 40
2.6265
 50
180.0
 51
0.0
  0
LINE
  8
DETAIL
  6
CONTINUOUS
 62
     5
 10
-144.45749999999981
 20
203.81639999999999
 30
0.0
 11
-144.45749999999981
 21
177.5514
 31
0.0
  0
LINE
  8
DETAIL
  6
CONTINUOUS
 62
     5
 10
-139.2044999999998
 20
203.81639999999999
 30
0.0
 11
-139.2044999999998
 21
177.5514
 31
0.0
  0
LINE
  8
DETAIL
  6
CONTINUOUS
 62
     5
 10
-139.2044999999998
 20
169.14660000000001
 30
0.0
 11
-139.2044999999998
 21
142.88159999999991
 31
0.0
  0
LINE
  8
DETAIL
  6
CONTINUOUS
 62
     5
 10
-144.45749999999981
 20
169.14660000000001
 30
0.0
 11
-144.45749999999981
 21
142.88159999999991
 31
0.0
  0
ARC
  8
DETAIL
  6
CONTINUOUS
 62
     5
 10
-141.8309999999999
 20
142.88159999999991
 30
0.0
 40
2.6265
 50
180.0
 51
0.0
  0
ARC
  8
DETAIL
  6
CONTINUOUS
 62
     5
 10
-141.8309999999999
 20
169.14660000000001
 30
0.0
 40
2.6265
 50
0.0
 51
180.0
  0
ARC
  8
DETAIL
  6
CONTINUOUS
 62
     5
 10
-141.8309999999999
 20
99.807000000000002
 30
0.0
 40
2.6265
 50
0.0
 51
180.0
  0
ARC
  8
DETAIL
  6
CONTINUOUS
 62
     5
 10
-141.8309999999999
 20
73.542000000000002
 30
0.0
 40
2.6265
 50
180.0
 51
0.0
  0
LINE
  8
DETAIL
  6
CONTINUOUS
 62
     5
 10
-144.45749999999981
 20
99.807000000000002
 30
0.0
 11
-144.45749999999981
 21
73.542000000000002
 31
0.0
  0
LINE
  8
DETAIL
  6
CONTINUOUS
 62
     5
 10
-139.2044999999998
 20
99.807000000000002
 30
0.0
 11
-139.2044999999998
 21
73.542000000000002
 31
0.0
  0
LINE
  8
DETAIL
  6
CONTINUOUS
 62
     5
 10
-139.2044999999998
 20
134.47679999999991
 30
0.0
 11
-139.2044999999998
 21
108.2117999999999
 31
0.0
  0
LINE
  8
DETAIL
  6
CONTINUOUS
 62
     5
 10
-144.45749999999981
 20
134.47679999999991
 30
0.0
 11
-144.45749999999981
 21
108.2117999999999
 31
0.0
  0
ARC
  8
DETAIL
  6
CONTINUOUS
 62
     5
 10
-141.8309999999999
 20
108.2117999999999
 30
0.0
 40
2.6265
 50
180.0
 51
0.0
  0
ARC
  8
DETAIL
  6
CONTINUOUS
 62
     5
 10
-141.8309999999999
 20
134.47679999999991
 30
0.0
 40
2.6265
 50
0.0
 51
180.0
  0
ARC
  8
DETAIL
  6
CONTINUOUS
 62
     5
 10
-141.8309999999999
 20
-4.202399999999999
 30
0.0
 40
2.6265
 50
0.0
 51
180.0
  0
ARC
  8
DETAIL
  6
CONTINUOUS
 62
     5
 10
-141.8309999999999
 20
-30.467399999999991
 30
0.0
 40
2.6265
 50
180.0
 51
0.0
  0
LINE
  8
DETAIL
  6
CONTINUOUS
 62
     5
 10
-144.45749999999981
 20
-4.202399999999999
 30
0.0
 11
-144.45749999999981
 21
-30.467399999999991
 31
0.0
  0
LINE
  8
DETAIL
  6
CONTINUOUS
 62
     5
 10
-139.2044999999998
 20
-4.202399999999999
 30
0.0
 11
-139.2044999999998
 21
-30.467399999999991
 31
0.0
  0
LINE
  8
DETAIL
  6
CONTINUOUS
 62
     5
 10
-139.2044999999998
 20
-38.872199999999999
 30
0.0
 11
-139.2044999999998
 21
-65.137200000000007
 31
0.0
  0
LINE
  8
DETAIL
  6
CONTINUOUS
 62
     5
 10
-144.45749999999981
 20
-38.872199999999999
 30
0.0
 11
-144.45749999999981
 21
-65.137200000000007
 31
0.0
  0
ARC
  8
DETAIL
  6
CONTINUOUS
 62
     5
 10
-141.8309999999999
 20
-65.137200000000007
 30
0.0
 40
2.6265
 50
180.0
 51
0.0
  0
ARC
  8
DETAIL
  6
CONTINUOUS
 62
     5
 10
-141.8309999999999
 20
-38.872199999999999
 30
0.0
 40
2.6265
 50
0.0
 51
180.0
  0
ARC
  8
DETAIL
  6
CONTINUOUS
 62
     5
 10
-141.8309999999999
 20
30.467400000000001
 30
0.0
 40
2.6265
 50
0.0
 51
180.0
  0
ARC
  8
DETAIL
  6
CONTINUOUS
 62
     5
 10
-141.8309999999999
 20
4.202399999999999
 30
0.0
 40
2.6265
 50
180.0
 51
0.0
  0
LINE
  8
DETAIL
  6
CONTINUOUS
 62
     5
 10
-144.45749999999981
 20
30.467400000000001
 30
0.0
 11
-144.45749999999981
 21
4.202399999999999
 31
0.0
  0
LINE
  8
DETAIL
  6
CONTINUOUS
 62
     5
 10
-139.2044999999998
 20
30.467400000000001
 30
0.0
 11
-139.2044999999998
 21
4.202399999999999
 31
0.0
  0
LINE
  8
DETAIL
  6
CONTINUOUS
 62
     5
 10
-139.2044999999998
 20
65.137200000000007
 30
0.0
 11
-139.2044999999998
 21
38.872199999999999
 31
0.0
  0
LINE
  8
DETAIL
  6
CONTINUOUS
 62
     5
 10
-144.45749999999981
 20
65.137200000000007
 30
0.0
 11
-144.45749999999981
 21
38.872199999999999
 31
0.0
  0
ARC
  8
DETAIL
  6
CONTINUOUS
 62
     5
 10
-141.8309999999999
 20
38.872199999999999
 30
0.0
 40
2.6265
 50
180.0
 51
0.0
  0
ARC
  8
DETAIL
  6
CONTINUOUS
 62
     5
 10
-141.8309999999999
 20
65.137200000000007
 30
0.0
 40
2.6265
 50
0.0
 51
180.0
  0
ARC
  8
DETAIL
  6
CONTINUOUS
 62
     5
 10
-141.8309999999999
 20
-108.2117999999999
 30
0.0
 40
2.6265
 50
0.0
 51
180.0
  0
ARC
  8
DETAIL
  6
CONTINUOUS
 62
     5
 10
-141.8309999999999
 20
-134.47679999999991
 30
0.0
 40
2.6265
 50
180.0
 51
0.0
  0
LINE
  8
DETAIL
  6
CONTINUOUS
 62
     5
 10
-144.45749999999981
 20
-108.2117999999999
 30
0.0
 11
-144.45749999999981
 21
-134.47679999999991
 31
0.0
  0
LINE
  8
DETAIL
  6
CONTINUOUS
 62
     5
 10
-139.2044999999998
 20
-108.2117999999999
 30
0.0
 11
-139.2044999999998
 21
-134.47679999999991
 31
0.0
  0
LINE
  8
DETAIL
  6
CONTINUOUS
 62
     5
 10
-139.2044999999998
 20
-142.88159999999991
 30
0.0
 11
-139.2044999999998
 21
-169.14660000000001
 31
0.0
  0
LINE
  8
DETAIL
  6
CONTINUOUS
 62
     5
 10
-144.45749999999981
 20
-142.88159999999991
 30
0.0
 11
-144.45749999999981
 21
-169.14660000000001
 31
0.0
  0
ARC
  8
DETAIL
  6
CONTINUOUS
 62
     5
 10
-141.8309999999999
 20
-169.14660000000001
 30
0.0
 40
2.6265
 50
180.0
 51
0.0
  0
ARC
  8
DETAIL
  6
CONTINUOUS
 62
     5
 10
-141.8309999999999
 20
-142.88159999999991
 30
0.0
 40
2.6265
 50
0.0
 51
180.0
  0
LINE
  8
DETAIL
  6
CONTINUOUS
 62
     5
 10
-139.2044999999998
 20
-177.5514
 30
0.0
 11
-139.2044999999998
 21
-203.81639999999999
 31
0.0
  0
LINE
  8
DETAIL
  6
CONTINUOUS
 62
     5
 10
-144.45749999999981
 20
-177.5514
 30
0.0
 11
-144.45749999999981
 21
-203.81639999999999
 31
0.0
  0
ARC
  8
DETAIL
  6
CONTINUOUS
 62
     5
 10
-141.8309999999999
 20
-203.81639999999999
 30
0.0
 40
2.6265
 50
180.0
 51
0.0
  0
ARC
  8
DETAIL
  6
CONTINUOUS
 62
     5
 10
-141.8309999999999
 20
-177.5514
 30
0.0
 40
2.6265
 50
0.0
 51
180.0
  0
LINE
  8
DETAIL
  6
CONTINUOUS
 62
     5
 10
-139.2044999999998
 20
-73.542000000000002
 30
0.0
 11
-139.2044999999998
 21
-99.807000000000002
 31
0.0
  0
LINE
  8
DETAIL
  6
CONTINUOUS
 62
     5
 10
-144.45749999999981
 20
-73.542000000000002
 30
0.0
 11
-144.45749999999981
 21
-99.807000000000002
 31
0.0
  0
ARC
  8
DETAIL
  6
CONTINUOUS
 62
     5
 10
-141.8309999999999
 20
-99.807000000000002
 30
0.0
 40
2.6265
 50
180.0
 51
0.0
  0
ARC
  8
DETAIL
  6
CONTINUOUS
 62
     5
 10
-141.8309999999999
 20
-73.542000000000002
 30
0.0
 40
2.6265
 50
0.0
 51
180.0
  0
ARC
  8
DETAIL
  6
CONTINUOUS
 62
     5
 10
-152.33699999999979
 20
-73.542000000000002
 30
0.0
 40
2.6265
 50
0.0
 51
180.0
  0
ARC
  8
DETAIL
  6
CONTINUOUS
 62
     5
 10
-152.33699999999979
 20
-99.807000000000002
 30
0.0
 40
2.6265
 50
180.0
 51
0.0
  0
LINE
  8
DETAIL
  6
CONTINUOUS
 62
     5
 10
-154.9634999999999
 20
-73.542000000000002
 30
0.0
 11
-154.9634999999999
 21
-99.807000000000002
 31
0.0
  0
LINE
  8
DETAIL
  6
CONTINUOUS
 62
     5
 10
-149.71049999999991
 20
-73.542000000000002
 30
0.0
 11
-149.71049999999991
 21
-99.807000000000002
 31
0.0
  0
ARC
  8
DETAIL
  6
CONTINUOUS
 62
     5
 10
-152.33699999999979
 20
-177.5514
 30
0.0
 40
2.6265
 50
0.0
 51
180.0
  0
ARC
  8
DETAIL
  6
CONTINUOUS
 62
     5
 10
-152.33699999999979
 20
-203.81639999999999
 30
0.0
 40
2.6265
 50
180.0
 51
0.0
  0
LINE
  8
DETAIL
  6
CONTINUOUS
 62
     5
 10
-154.9634999999999
 20
-177.5514
 30
0.0
 11
-154.9634999999999
 21
-203.81639999999999
 31
0.0
  0
LINE
  8
DETAIL
  6
CONTINUOUS
 62
     5
 10
-149.71049999999991
 20
-177.5514
 30
0.0
 11
-149.71049999999991
 21
-203.81639999999999
 31
0.0
  0
ARC
  8
DETAIL
  6
CONTINUOUS
 62
     5
 10
-152.33699999999979
 20
-142.88159999999991
 30
0.0
 40
2.6265
 50
0.0
 51
180.0
  0
ARC
  8
DETAIL
  6
CONTINUOUS
 62
     5
 10
-152.33699999999979
 20
-169.14660000000001
 30
0.0
 40
2.6265
 50
180.0
 51
0.0
  0
LINE
  8
DETAIL
  6
CONTINUOUS
 62
     5
 10
-154.9634999999999
 20
-142.88159999999991
 30
0.0
 11
-154.9634999999999
 21
-169.14660000000001
 31
0.0
  0
LINE
  8
DETAIL
  6
CONTINUOUS
 62
     5
 10
-149.71049999999991
 20
-142.88159999999991
 30
0.0
 11
-149.71049999999991
 21
-169.14660000000001
 31
0.0
  0
LINE
  8
DETAIL
  6
CONTINUOUS
 62
     5
 10
-149.71049999999991
 20
-108.2117999999999
 30
0.0
 11
-149.71049999999991
 21
-134.47679999999991
 31
0.0
  0
LINE
  8
DETAIL
  6
CONTINUOUS
 62
     5
 10
-154.9634999999999
 20
-108.2117999999999
 30
0.0
 11
-154.9634999999999
 21
-134.47679999999991
 31
0.0
  0
ARC
  8
DETAIL
  6
CONTINUOUS
 62
     5
 10
-152.33699999999979
 20
-134.47679999999991
 30
0.0
 40
2.6265
 50
180.0
 51
0.0
  0
ARC
  8
DETAIL
  6
CONTINUOUS
 62
     5
 10
-152.33699999999979
 20
-108.2117999999999
 30
0.0
 40
2.6265
 50
0.0
 51
180.0
  0
ARC
  8
DETAIL
  6
CONTINUOUS
 62
     5
 10
-152.33699999999979
 20
65.137200000000007
 30
0.0
 40
2.6265
 50
0.0
 51
180.0
  0
ARC
  8
DETAIL
  6
CONTINUOUS
 62
     5
 10
-152.33699999999979
 20
38.872199999999999
 30
0.0
 40
2.6265
 50
180.0
 51
0.0
  0
LINE
  8
DETAIL
  6
CONTINUOUS
 62
     5
 10
-154.9634999999999
 20
65.137200000000007
 30
0.0
 11
-154.9634999999999
 21
38.872199999999999
 31
0.0
  0
LINE
  8
DETAIL
  6
CONTINUOUS
 62
     5
 10
-149.71049999999991
 20
65.137200000000007
 30
0.0
 11
-149.71049999999991
 21
38.872199999999999
 31
0.0
  0
LINE
  8
DETAIL
  6
CONTINUOUS
 62
     5
 10
-149.71049999999991
 20
30.467400000000001
 30
0.0
 11
-149.71049999999991
 21
4.202399999999999
 31
0.0
  0
LINE
  8
DETAIL
  6
CONTINUOUS
 62
     5
 10
-154.9634999999999
 20
30.467400000000001
 30
0.0
 11
-154.9634999999999
 21
4.202399999999999
 31
0.0
  0
ARC
  8
DETAIL
  6
CONTINUOUS
 62
     5
 10
-152.33699999999979
 20
4.202399999999999
 30
0.0
 40
2.6265
 50
180.0
 51
0.0
  0
ARC
  8
DETAIL
  6
CONTINUOUS
 62
     5
 10
-152.33699999999979
 20
30.467400000000001
 30
0.0
 40
2.6265
 50
0.0
 51
180.0
  0
ARC
  8
DETAIL
  6
CONTINUOUS
 62
     5
 10
-152.33699999999979
 20
-38.872199999999999
 30
0.0
 40
2.6265
 50
0.0
 51
180.0
  0
ARC
  8
DETAIL
  6
CONTINUOUS
 62
     5
 10
-152.33699999999979
 20
-65.137200000000007
 30
0.0
 40
2.6265
 50
180.0
 51
0.0
  0
LINE
  8
DETAIL
  6
CONTINUOUS
 62
     5
 10
-154.9634999999999
 20
-38.872199999999999
 30
0.0
 11
-154.9634999999999
 21
-65.137200000000007
 31
0.0
  0
LINE
  8
DETAIL
  6
CONTINUOUS
 62
     5
 10
-149.71049999999991
 20
-38.872199999999999
 30
0.0
 11
-149.71049999999991
 21
-65.137200000000007
 31
0.0
  0
LINE
  8
DETAIL
  6
CONTINUOUS
 62
     5
 10
-149.71049999999991
 20
-4.202399999999999
 30
0.0
 11
-149.71049999999991
 21
-30.467399999999991
 31
0.0
  0
LINE
  8
DETAIL
  6
CONTINUOUS
 62
     5
 10
-154.9634999999999
 20
-4.202399999999999
 30
0.0
 11
-154.9634999999999
 21
-30.467399999999991
 31
0.0
  0
ARC
  8
DETAIL
  6
CONTINUOUS
 62
     5
 10
-152.33699999999979
 20
-30.467399999999991
 30
0.0
 40
2.6265
 50
180.0
 51
0.0
  0
ARC
  8
DETAIL
  6
CONTINUOUS
 62
     5
 10
-152.33699999999979
 20
-4.202399999999999
 30
0.0
 40
2.6265
 50
0.0
 51
180.0
  0
ARC
  8
DETAIL
  6
CONTINUOUS
 62
     5
 10
-152.33699999999979
 20
134.47679999999991
 30
0.0
 40
2.6265
 50
0.0
 51
180.0
  0
ARC
  8
DETAIL
  6
CONTINUOUS
 62
     5
 10
-152.33699999999979
 20
108.2117999999999
 30
0.0
 40
2.6265
 50
180.0
 51
0.0
  0
LINE
  8
DETAIL
  6
CONTINUOUS
 62
     5
 10
-154.9634999999999
 20
134.47679999999991
 30
0.0
 11
-154.9634999999999
 21
108.2117999999999
 31
0.0
  0
LINE
  8
DETAIL
  6
CONTINUOUS
 62
     5
 10
-149.71049999999991
 20
134.47679999999991
 30
0.0
 11
-149.71049999999991
 21
108.2117999999999
 31
0.0
  0
LINE
  8
DETAIL
  6
CONTINUOUS
 62
     5
 10
-149.71049999999991
 20
99.807000000000002
 30
0.0
 11
-149.71049999999991
 21
73.542000000000002
 31
0.0
  0
LINE
  8
DETAIL
  6
CONTINUOUS
 62
     5
 10
-154.9634999999999
 20
99.807000000000002
 30
0.0
 11
-154.9634999999999
 21
73.542000000000002
 31
0.0
  0
ARC
  8
DETAIL
  6
CONTINUOUS
 62
     5
 10
-152.33699999999979
 20
73.542000000000002
 30
0.0
 40
2.6265
 50
180.0
 51
0.0
  0
ARC
  8
DETAIL
  6
CONTINUOUS
 62
     5
 10
-152.33699999999979
 20
99.807000000000002
 30
0.0
 40
2.6265
 50
0.0
 51
180.0
  0
ARC
  8
DETAIL
  6
CONTINUOUS
 62
     5
 10
-152.33699999999979
 20
169.14660000000001
 30
0.0
 40
2.6265
 50
0.0
 51
180.0
  0
ARC
  8
DETAIL
  6
CONTINUOUS
 62
     5
 10
-152.33699999999979
 20
142.88159999999991
 30
0.0
 40
2.6265
 50
180.0
 51
0.0
  0
LINE
  8
DETAIL
  6
CONTINUOUS
 62
     5
 10
-154.9634999999999
 20
169.14660000000001
 30
0.0
 11
-154.9634999999999
 21
142.88159999999991
 31
0.0
  0
LINE
  8
DETAIL
  6
CONTINUOUS
 62
     5
 10
-149.71049999999991
 20
169.14660000000001
 30
0.0
 11
-149.71049999999991
 21
142.88159999999991
 31
0.0
  0
LINE
  8
DETAIL
  6
CONTINUOUS
 62
     5
 10
-149.71049999999991
 20
203.81639999999999
 30
0.0
 11
-149.71049999999991
 21
177.5514
 31
0.0
  0
LINE
  8
DETAIL
  6
CONTINUOUS
 62
     5
 10
-154.9634999999999
 20
203.81639999999999
 30
0.0
 11
-154.9634999999999
 21
177.5514
 31
0.0
  0
ARC
  8
DETAIL
  6
CONTINUOUS
 62
     5
 10
-152.33699999999979
 20
177.5514
 30
0.0
 40
2.6265
 50
180.0
 51
0.0
  0
ARC
  8
DETAIL
  6
CONTINUOUS
 62
     5
 10
-152.33699999999979
 20
203.81639999999999
 30
0.0
 40
2.6265
 50
0.0
 51
180.0
  0
ARC
  8
DETAIL
  6
CONTINUOUS
 62
     5
 10
15.759
 20
203.81639999999999
 30
0.0
 40
2.6265
 50
0.0
 51
180.0
  0
ARC
  8
DETAIL
  6
CONTINUOUS
 62
     5
 10
15.759
 20
177.5514
 30
0.0
 40
2.6265
 50
180.0
 51
0.0
  0
LINE
  8
DETAIL
  6
CONTINUOUS
 62
     5
 10
13.132500000000009
 20
203.81639999999999
 30
0.0
 11
13.132500000000009
 21
177.5514
 31
0.0
  0
LINE
  8
DETAIL
  6
CONTINUOUS
 62
     5
 10
18.385500000000011
 20
203.81639999999999
 30
0.0
 11
18.385500000000011
 21
177.5514
 31
0.0
  0
LINE
  8
DETAIL
  6
CONTINUOUS
 62
     5
 10
18.385500000000011
 20
169.14660000000001
 30
0.0
 11
18.385500000000011
 21
142.88159999999991
 31
0.0
  0
LINE
  8
DETAIL
  6
CONTINUOUS
 62
     5
 10
13.132500000000009
 20
169.14660000000001
 30
0.0
 11
13.132500000000009
 21
142.88159999999991
 31
0.0
  0
ARC
  8
DETAIL
  6
CONTINUOUS
 62
     5
 10
15.759
 20
142.88159999999991
 30
0.0
 40
2.6265
 50
180.0
 51
0.0
  0
ARC
  8
DETAIL
  6
CONTINUOUS
 62
     5
 10
15.759
 20
169.14660000000001
 30
0.0
 40
2.6265
 50
0.0
 51
180.0
  0
ARC
  8
DETAIL
  6
CONTINUOUS
 62
     5
 10
15.759
 20
99.807000000000002
 30
0.0
 40
2.6265
 50
0.0
 51
180.0
  0
ARC
  8
DETAIL
  6
CONTINUOUS
 62
     5
 10
15.759
 20
73.542000000000002
 30
0.0
 40
2.6265
 50
180.0
 51
0.0
  0
LINE
  8
DETAIL
  6
CONTINUOUS
 62
     5
 10
13.132500000000009
 20
99.807000000000002
 30
0.0
 11
13.132500000000009
 21
73.542000000000002
 31
0.0
  0
LINE
  8
DETAIL
  6
CONTINUOUS
 62
     5
 10
18.385500000000011
 20
99.807000000000002
 30
0.0
 11
18.385500000000011
 21
73.542000000000002
 31
0.0
  0
LINE
  8
DETAIL
  6
CONTINUOUS
 62
     5
 10
18.385500000000011
 20
134.47679999999991
 30
0.0
 11
18.385500000000011
 21
108.2117999999999
 31
0.0
  0
LINE
  8
DETAIL
  6
CONTINUOUS
 62
     5
 10
13.132500000000009
 20
134.47679999999991
 30
0.0
 11
13.132500000000009
 21
108.2117999999999
 31
0.0
  0
ARC
  8
DETAIL
  6
CONTINUOUS
 62
     5
 10
15.759
 20
108.2117999999999
 30
0.0
 40
2.6265
 50
180.0
 51
0.0
  0
ARC
  8
DETAIL
  6
CONTINUOUS
 62
     5
 10
15.759
 20
134.47679999999991
 30
0.0
 40
2.6265
 50
0.0
 51
180.0
  0
ARC
  8
DETAIL
  6
CONTINUOUS
 62
     5
 10
15.759
 20
-4.202399999999999
 30
0.0
 40
2.6265
 50
0.0
 51
180.0
  0
ARC
  8
DETAIL
  6
CONTINUOUS
 62
     5
 10
15.759
 20
-30.467399999999991
 30
0.0
 40
2.6265
 50
180.0
 51
0.0
  0
LINE
  8
DETAIL
  6
CONTINUOUS
 62
     5
 10
13.132500000000009
 20
-4.202399999999999
 30
0.0
 11
13.132500000000009
 21
-30.467399999999991
 31
0.0
  0
LINE
  8
DETAIL
  6
CONTINUOUS
 62
     5
 10
18.385500000000011
 20
-4.202399999999999
 30
0.0
 11
18.385500000000011
 21
-30.467399999999991
 31
0.0
  0
LINE
  8
DETAIL
  6
CONTINUOUS
 62
     5
 10
18.385500000000011
 20
-38.872199999999999
 30
0.0
 11
18.385500000000011
 21
-65.137200000000007
 31
0.0
  0
LINE
  8
DETAIL
  6
CONTINUOUS
 62
     5
 10
13.132500000000009
 20
-38.872199999999999
 30
0.0
 11
13.132500000000009
 21
-65.137200000000007
 31
0.0
  0
ARC
  8
DETAIL
  6
CONTINUOUS
 62
     5
 10
15.759
 20
-65.137200000000007
 30
0.0
 40
2.6265
 50
180.0
 51
0.0
  0
ARC
  8
DETAIL
  6
CONTINUOUS
 62
     5
 10
15.759
 20
-38.872199999999999
 30
0.0
 40
2.6265
 50
0.0
 51
180.0
  0
ARC
  8
DETAIL
  6
CONTINUOUS
 62
     5
 10
15.759
 20
30.467400000000001
 30
0.0
 40
2.6265
 50
0.0
 51
180.0
  0
ARC
  8
DETAIL
  6
CONTINUOUS
 62
     5
 10
15.759
 20
4.202399999999999
 30
0.0
 40
2.6265
 50
180.0
 51
0.0
  0
LINE
  8
DETAIL
  6
CONTINUOUS
 62
     5
 10
13.132500000000009
 20
30.467400000000001
 30
0.0
 11
13.132500000000009
 21
4.202399999999999
 31
0.0
  0
LINE
  8
DETAIL
  6
CONTINUOUS
 62
     5
 10
18.385500000000011
 20
30.467400000000001
 30
0.0
 11
18.385500000000011
 21
4.202399999999999
 31
0.0
  0
LINE
  8
DETAIL
  6
CONTINUOUS
 62
     5
 10
18.385500000000011
 20
65.137200000000007
 30
0.0
 11
18.385500000000011
 21
38.872199999999999
 31
0.0
  0
LINE
  8
DETAIL
  6
CONTINUOUS
 62
     5
 10
13.132500000000009
 20
65.137200000000007
 30
0.0
 11
13.132500000000009
 21
38.872199999999999
 31
0.0
  0
ARC
  8
DETAIL
  6
CONTINUOUS
 62
     5
 10
15.759
 20
38.872199999999999
 30
0.0
 40
2.6265
 50
180.0
 51
0.0
  0
ARC
  8
DETAIL
  6
CONTINUOUS
 62
     5
 10
15.759
 20
65.137200000000007
 30
0.0
 40
2.6265
 50
0.0
 51
180.0
  0
ARC
  8
DETAIL
  6
CONTINUOUS
 62
     5
 10
15.759
 20
-108.2117999999999
 30
0.0
 40
2.6265
 50
0.0
 51
180.0
  0
ARC
  8
DETAIL
  6
CONTINUOUS
 62
     5
 10
15.759
 20
-134.47679999999991
 30
0.0
 40
2.6265
 50
180.0
 51
0.0
  0
LINE
  8
DETAIL
  6
CONTINUOUS
 62
     5
 10
13.132500000000009
 20
-108.2117999999999
 30
0.0
 11
13.132500000000009
 21
-134.47679999999991
 31
0.0
  0
LINE
  8
DETAIL
  6
CONTINUOUS
 62
     5
 10
18.385500000000011
 20
-108.2117999999999
 30
0.0
 11
18.385500000000011
 21
-134.47679999999991
 31
0.0
  0
LINE
  8
DETAIL
  6
CONTINUOUS
 62
     5
 10
18.385500000000011
 20
-142.88159999999991
 30
0.0
 11
18.385500000000011
 21
-169.14660000000001
 31
0.0
  0
LINE
  8
DETAIL
  6
CONTINUOUS
 62
     5
 10
13.132500000000009
 20
-142.88159999999991
 30
0.0
 11
13.132500000000009
 21
-169.14660000000001
 31
0.0
  0
ARC
  8
DETAIL
  6
CONTINUOUS
 62
     5
 10
15.759
 20
-169.14660000000001
 30
0.0
 40
2.6265
 50
180.0
 51
0.0
  0
ARC
  8
DETAIL
  6
CONTINUOUS
 62
     5
 10
15.759
 20
-142.88159999999991
 30
0.0
 40
2.6265
 50
0.0
 51
180.0
  0
LINE
  8
DETAIL
  6
CONTINUOUS
 62
     5
 10
18.385500000000011
 20
-177.5514
 30
0.0
 11
18.385500000000011
 21
-203.81639999999999
 31
0.0
  0
LINE
  8
DETAIL
  6
CONTINUOUS
 62
     5
 10
13.132500000000009
 20
-177.5514
 30
0.0
 11
13.132500000000009
 21
-203.81639999999999
 31
0.0
  0
ARC
  8
DETAIL
  6
CONTINUOUS
 62
     5
 10
15.759
 20
-203.81639999999999
 30
0.0
 40
2.6265
 50
180.0
 51
0.0
  0
ARC
  8
DETAIL
  6
CONTINUOUS
 62
     5
 10
15.759
 20
-177.5514
 30
0.0
 40
2.6265
 50
0.0
 51
180.0
  0
LINE
  8
DETAIL
  6
CONTINUOUS
 62
     5
 10
18.385500000000011
 20
-73.542000000000002
 30
0.0
 11
18.385500000000011
 21
-99.807000000000002
 31
0.0
  0
LINE
  8
DETAIL
  6
CONTINUOUS
 62
     5
 10
13.132500000000009
 20
-73.542000000000002
 30
0.0
 11
13.132500000000009
 21
-99.807000000000002
 31
0.0
  0
ARC
  8
DETAIL
  6
CONTINUOUS
 62
     5
 10
15.759
 20
-99.807000000000002
 30
0.0
 40
2.6265
 50
180.0
 51
0.0
  0
ARC
  8
DETAIL
  6
CONTINUOUS
 62
     5
 10
15.759
 20
-73.542000000000002
 30
0.0
 40
2.6265
 50
0.0
 51
180.0
  0
ARC
  8
DETAIL
  6
CONTINUOUS
 62
     5
 10
26.2650000000001
 20
-73.542000000000002
 30
0.0
 40
2.6265
 50
0.0
 51
180.0
  0
ARC
  8
DETAIL
  6
CONTINUOUS
 62
     5
 10
26.2650000000001
 20
-99.807000000000002
 30
0.0
 40
2.6265
 50
180.0
 51
0.0
  0
LINE
  8
DETAIL
  6
CONTINUOUS
 62
     5
 10
23.638500000000111
 20
-73.542000000000002
 30
0.0
 11
23.638500000000111
 21
-99.807000000000002
 31
0.0
  0
LINE
  8
DETAIL
  6
CONTINUOUS
 62
     5
 10
28.891500000000089
 20
-73.542000000000002
 30
0.0
 11
28.891500000000089
 21
-99.807000000000002
 31
0.0
  0
ARC
  8
DETAIL
  6
CONTINUOUS
 62
     5
 10
26.2650000000001
 20
-177.5514
 30
0.0
 40
2.6265
 50
0.0
 51
180.0
  0
ARC
  8
DETAIL
  6
CONTINUOUS
 62
     5
 10
26.2650000000001
 20
-203.81639999999999
 30
0.0
 40
2.6265
 50
180.0
 51
0.0
  0
LINE
  8
DETAIL
  6
CONTINUOUS
 62
     5
 10
23.638500000000111
 20
-177.5514
 30
0.0
 11
23.638500000000111
 21
-203.81639999999999
 31
0.0
  0
LINE
  8
DETAIL
  6
CONTINUOUS
 62
     5
 10
28.891500000000089
 20
-177.5514
 30
0.0
 11
28.891500000000089
 21
-203.81639999999999
 31
0.0
  0
ARC
  8
DETAIL
  6
CONTINUOUS
 62
     5
 10
26.2650000000001
 20
-142.88159999999991
 30
0.0
 40
2.6265
 50
0.0
 51
180.0
  0
ARC
  8
DETAIL
  6
CONTINUOUS
 62
     5
 10
26.2650000000001
 20
-169.14660000000001
 30
0.0
 40
2.6265
 50
180.0
 51
0.0
  0
LINE
  8
DETAIL
  6
CONTINUOUS
 62
     5
 10
23.638500000000111
 20
-142.88159999999991
 30
0.0
 11
23.638500000000111
 21
-169.14660000000001
 31
0.0
  0
LINE
  8
DETAIL
  6
CONTINUOUS
 62
     5
 10
28.891500000000089
 20
-142.88159999999991
 30
0.0
 11
28.891500000000089
 21
-169.14660000000001
 31
0.0
  0
LINE
  8
DETAIL
  6
CONTINUOUS
 62
     5
 10
28.891500000000089
 20
-108.2117999999999
 30
0.0
 11
28.891500000000089
 21
-134.47679999999991
 31
0.0
  0
LINE
  8
DETAIL
  6
CONTINUOUS
 62
     5
 10
23.638500000000111
 20
-108.2117999999999
 30
0.0
 11
23.638500000000111
 21
-134.47679999999991
 31
0.0
  0
ARC
  8
DETAIL
  6
CONTINUOUS
 62
     5
 10
26.2650000000001
 20
-134.47679999999991
 30
0.0
 40
2.6265
 50
180.0
 51
0.0
  0
ARC
  8
DETAIL
  6
CONTINUOUS
 62
     5
 10
26.2650000000001
 20
-108.2117999999999
 30
0.0
 40
2.6265
 50
0.0
 51
180.0
  0
ARC
  8
DETAIL
  6
CONTINUOUS
 62
     5
 10
26.2650000000001
 20
65.137200000000007
 30
0.0
 40
2.6265
 50
0.0
 51
180.0
  0
ARC
  8
DETAIL
  6
CONTINUOUS
 62
     5
 10
26.2650000000001
 20
38.872199999999999
 30
0.0
 40
2.6265
 50
180.0
 51
0.0
  0
LINE
  8
DETAIL
  6
CONTINUOUS
 62
     5
 10
23.638500000000111
 20
65.137200000000007
 30
0.0
 11
23.638500000000111
 21
38.872199999999999
 31
0.0
  0
LINE
  8
DETAIL
  6
CONTINUOUS
 62
     5
 10
28.891500000000089
 20
65.137200000000007
 30
0.0
 11
28.891500000000089
 21
38.872199999999999
 31
0.0
  0
LINE
  8
DETAIL
  6
CONTINUOUS
 62
     5
 10
28.891500000000089
 20
30.467400000000001
 30
0.0
 11
28.891500000000089
 21
4.202399999999999
 31
0.0
  0
LINE
  8
DETAIL
  6
CONTINUOUS
 62
     5
 10
23.638500000000111
 20
30.467400000000001
 30
0.0
 11
23.638500000000111
 21
4.202399999999999
 31
0.0
  0
ARC
  8
DETAIL
  6
CONTINUOUS
 62
     5
 10
26.2650000000001
 20
4.202399999999999
 30
0.0
 40
2.6265
 50
180.0
 51
0.0
  0
ARC
  8
DETAIL
  6
CONTINUOUS
 62
     5
 10
26.2650000000001
 20
30.467400000000001
 30
0.0
 40
2.6265
 50
0.0
 51
180.0
  0
ARC
  8
DETAIL
  6
CONTINUOUS
 62
     5
 10
26.2650000000001
 20
-38.872199999999999
 30
0.0
 40
2.6265
 50
0.0
 51
180.0
  0
ARC
  8
DETAIL
  6
CONTINUOUS
 62
     5
 10
26.2650000000001
 20
-65.137200000000007
 30
0.0
 40
2.6265
 50
180.0
 51
0.0
  0
LINE
  8
DETAIL
  6
CONTINUOUS
 62
     5
 10
23.638500000000111
 20
-38.872199999999999
 30
0.0
 11
23.638500000000111
 21
-65.137200000000007
 31
0.0
  0
LINE
  8
DETAIL
  6
CONTINUOUS
 62
     5
 10
28.891500000000089
 20
-38.872199999999999
 30
0.0
 11
28.891500000000089
 21
-65.137200000000007
 31
0.0
  0
LINE
  8
DETAIL
  6
CONTINUOUS
 62
     5
 10
28.891500000000089
 20
-4.202399999999999
 30
0.0
 11
28.891500000000089
 21
-30.467399999999991
 31
0.0
  0
LINE
  8
DETAIL
  6
CONTINUOUS
 62
     5
 10
23.638500000000111
 20
-4.202399999999999
 30
0.0
 11
23.638500000000111
 21
-30.467399999999991
 31
0.0
  0
ARC
  8
DETAIL
  6
CONTINUOUS
 62
     5
 10
26.2650000000001
 20
-30.467399999999991
 30
0.0
 40
2.6265
 50
180.0
 51
0.0
  0
ARC
  8
DETAIL
  6
CONTINUOUS
 62
     5
 10
26.2650000000001
 20
-4.202399999999999
 30
0.0
 40
2.6265
 50
0.0
 51
180.0
  0
ARC
  8
DETAIL
  6
CONTINUOUS
 62
     5
 10
26.2650000000001
 20
134.47679999999991
 30
0.0
 40
2.6265
 50
0.0
 51
180.0
  0
ARC
  8
DETAIL
  6
CONTINUOUS
 62
     5
 10
26.2650000000001
 20
108.2117999999999
 30
0.0
 40
2.6265
 50
180.0
 51
0.0
  0
LINE
  8
DETAIL
  6
CONTINUOUS
 62
     5
 10
23.638500000000111
 20
134.47679999999991
 30
0.0
 11
23.638500000000111
 21
108.2117999999999
 31
0.0
  0
LINE
  8
DETAIL
  6
CONTINUOUS
 62
     5
 10
28.891500000000089
 20
134.47679999999991
 30
0.0
 11
28.891500000000089
 21
108.2117999999999
 31
0.0
  0
LINE
  8
DETAIL
  6
CONTINUOUS
 62
     5
 10
28.891500000000089
 20
99.807000000000002
 30
0.0
 11
28.891500000000089
 21
73.542000000000002
 31
0.0
  0
LINE
  8
DETAIL
  6
CONTINUOUS
 62
     5
 10
23.638500000000111
 20
99.807000000000002
 30
0.0
 11
23.638500000000111
 21
73.542000000000002
 31
0.0
  0
ARC
  8
DETAIL
  6
CONTINUOUS
 62
     5
 10
26.2650000000001
 20
73.542000000000002
 30
0.0
 40
2.6265
 50
180.0
 51
0.0
  0
ARC
  8
DETAIL
  6
CONTINUOUS
 62
     5
 10
26.2650000000001
 20
99.807000000000002
 30
0.0
 40
2.6265
 50
0.0
 51
180.0
  0
ARC
  8
DETAIL
  6
CONTINUOUS
 62
     5
 10
26.2650000000001
 20
169.14660000000001
 30
0.0
 40
2.6265
 50
0.0
 51
180.0
  0
ARC
  8
DETAIL
  6
CONTINUOUS
 62
     5
 10
26.2650000000001
 20
142.88159999999991
 30
0.0
 40
2.6265
 50
180.0
 51
0.0
  0
LINE
  8
DETAIL
  6
CONTINUOUS
 62
     5
 10
23.638500000000111
 20
169.14660000000001
 30
0.0
 11
23.638500000000111
 21
142.88159999999991
 31
0.0
  0
LINE
  8
DETAIL
  6
CONTINUOUS
 62
     5
 10
28.891500000000089
 20
169.14660000000001
 30
0.0
 11
28.891500000000089
 21
142.88159999999991
 31
0.0
  0
LINE
  8
DETAIL
  6
CONTINUOUS
 62
     5
 10
28.891500000000089
 20
203.81639999999999
 30
0.0
 11
28.891500000000089
 21
177.5514
 31
0.0
  0
LINE
  8
DETAIL
  6
CONTINUOUS
 62
     5
 10
23.638500000000111
 20
203.81639999999999
 30
0.0
 11
23.638500000000111
 21
177.5514
 31
0.0
  0
ARC
  8
DETAIL
  6
CONTINUOUS
 62
     5
 10
26.2650000000001
 20
177.5514
 30
0.0
 40
2.6265
 50
180.0
 51
0.0
  0
ARC
  8
DETAIL
  6
CONTINUOUS
 62
     5
 10
26.2650000000001
 20
203.81639999999999
 30
0.0
 40
2.6265
 50
0.0
 51
180.0
  0
ARC
  8
DETAIL
  6
CONTINUOUS
 62
     5
 10
47.276999999999987
 20
203.81639999999999
 30
0.0
 40
2.6265
 50
0.0
 51
180.0
  0
ARC
  8
DETAIL
  6
CONTINUOUS
 62
     5
 10
47.276999999999987
 20
177.5514
 30
0.0
 40
2.6265
 50
180.0
 51
0.0
  0
LINE
  8
DETAIL
  6
CONTINUOUS
 62
     5
 10
44.650500000000108
 20
203.81639999999999
 30
0.0
 11
44.650500000000108
 21
177.5514
 31
0.0
  0
LINE
  8
DETAIL
  6
CONTINUOUS
 62
     5
 10
49.903500000000008
 20
203.81639999999999
 30
0.0
 11
49.903500000000008
 21
177.5514
 31
0.0
  0
LINE
  8
DETAIL
  6
CONTINUOUS
 62
     5
 10
49.903500000000008
 20
169.14660000000001
 30
0.0
 11
49.903500000000008
 21
142.88159999999991
 31
0.0
  0
LINE
  8
DETAIL
  6
CONTINUOUS
 62
     5
 10
44.650500000000108
 20
169.14660000000001
 30
0.0
 11
44.650500000000108
 21
142.88159999999991
 31
0.0
  0
ARC
  8
DETAIL
  6
CONTINUOUS
 62
     5
 10
47.276999999999987
 20
142.88159999999991
 30
0.0
 40
2.6265
 50
180.0
 51
0.0
  0
ARC
  8
DETAIL
  6
CONTINUOUS
 62
     5
 10
47.276999999999987
 20
169.14660000000001
 30
0.0
 40
2.6265
 50
0.0
 51
180.0
  0
ARC
  8
DETAIL
  6
CONTINUOUS
 62
     5
 10
47.276999999999987
 20
99.807000000000002
 30
0.0
 40
2.6265
 50
0.0
 51
180.0
  0
ARC
  8
DETAIL
  6
CONTINUOUS
 62
     5
 10
47.276999999999987
 20
73.542000000000002
 30
0.0
 40
2.6265
 50
180.0
 51
0.0
  0
LINE
  8
DETAIL
  6
CONTINUOUS
 62
     5
 10
44.650500000000108
 20
99.807000000000002
 30
0.0
 11
44.650500000000108
 21
73.542000000000002
 31
0.0
  0
LINE
  8
DETAIL
  6
CONTINUOUS
 62
     5
 10
49.903500000000008
 20
99.807000000000002
 30
0.0
 11
49.903500000000008
 21
73.542000000000002
 31
0.0
  0
LINE
  8
DETAIL
  6
CONTINUOUS
 62
     5
 10
49.903500000000008
 20
134.47679999999991
 30
0.0
 11
49.903500000000008
 21
108.2117999999999
 31
0.0
  0
LINE
  8
DETAIL
  6
CONTINUOUS
 62
     5
 10
44.650500000000108
 20
134.47679999999991
 30
0.0
 11
44.650500000000108
 21
108.2117999999999
 31
0.0
  0
ARC
  8
DETAIL
  6
CONTINUOUS
 62
     5
 10
47.276999999999987
 20
108.2117999999999
 30
0.0
 40
2.6265
 50
180.0
 51
0.0
  0
ARC
  8
DETAIL
  6
CONTINUOUS
 62
     5
 10
47.276999999999987
 20
134.47679999999991
 30
0.0
 40
2.6265
 50
0.0
 51
180.0
  0
ARC
  8
DETAIL
  6
CONTINUOUS
 62
     5
 10
47.276999999999987
 20
-4.202399999999999
 30
0.0
 40
2.6265
 50
0.0
 51
180.0
  0
ARC
  8
DETAIL
  6
CONTINUOUS
 62
     5
 10
47.276999999999987
 20
-30.467399999999991
 30
0.0
 40
2.6265
 50
180.0
 51
0.0
  0
LINE
  8
DETAIL
  6
CONTINUOUS
 62
     5
 10
44.650500000000108
 20
-4.202399999999999
 30
0.0
 11
44.650500000000108
 21
-30.467399999999991
 31
0.0
  0
LINE
  8
DETAIL
  6
CONTINUOUS
 62
     5
 10
49.903500000000008
 20
-4.202399999999999
 30
0.0
 11
49.903500000000008
 21
-30.467399999999991
 31
0.0
  0
LINE
  8
DETAIL
  6
CONTINUOUS
 62
     5
 10
49.903500000000008
 20
-38.872199999999999
 30
0.0
 11
49.903500000000008
 21
-65.137200000000007
 31
0.0
  0
LINE
  8
DETAIL
  6
CONTINUOUS
 62
     5
 10
44.650500000000108
 20
-38.872199999999999
 30
0.0
 11
44.650500000000108
 21
-65.137200000000007
 31
0.0
  0
ARC
  8
DETAIL
  6
CONTINUOUS
 62
     5
 10
47.276999999999987
 20
-65.137200000000007
 30
0.0
 40
2.6265
 50
180.0
 51
0.0
  0
ARC
  8
DETAIL
  6
CONTINUOUS
 62
     5
 10
47.276999999999987
 20
-38.872199999999999
 30
0.0
 40
2.6265
 50
0.0
 51
180.0
  0
ARC
  8
DETAIL
  6
CONTINUOUS
 62
     5
 10
47.276999999999987
 20
30.467400000000001
 30
0.0
 40
2.6265
 50
0.0
 51
180.0
  0
ARC
  8
DETAIL
  6
CONTINUOUS
 62
     5
 10
47.276999999999987
 20
4.202399999999999
 30
0.0
 40
2.6265
 50
180.0
 51
0.0
  0
LINE
  8
DETAIL
  6
CONTINUOUS
 62
     5
 10
44.650500000000108
 20
30.467400000000001
 30
0.0
 11
44.650500000000108
 21
4.202399999999999
 31
0.0
  0
LINE
  8
DETAIL
  6
CONTINUOUS
 62
     5
 10
49.903500000000008
 20
30.467400000000001
 30
0.0
 11
49.903500000000008
 21
4.202399999999999
 31
0.0
  0
LINE
  8
DETAIL
  6
CONTINUOUS
 62
     5
 10
49.903500000000008
 20
65.137200000000007
 30
0.0
 11
49.903500000000008
 21
38.872199999999999
 31
0.0
  0
LINE
  8
DETAIL
  6
CONTINUOUS
 62
     5
 10
44.650500000000108
 20
65.137200000000007
 30
0.0
 11
44.650500000000108
 21
38.872199999999999
 31
0.0
  0
ARC
  8
DETAIL
  6
CONTINUOUS
 62
     5
 10
47.276999999999987
 20
38.872199999999999
 30
0.0
 40
2.6265
 50
180.0
 51
0.0
  0
ARC
  8
DETAIL
  6
CONTINUOUS
 62
     5
 10
47.276999999999987
 20
65.137200000000007
 30
0.0
 40
2.6265
 50
0.0
 51
180.0
  0
ARC
  8
DETAIL
  6
CONTINUOUS
 62
     5
 10
47.276999999999987
 20
-108.2117999999999
 30
0.0
 40
2.6265
 50
0.0
 51
180.0
  0
ARC
  8
DETAIL
  6
CONTINUOUS
 62
     5
 10
47.276999999999987
 20
-134.47679999999991
 30
0.0
 40
2.6265
 50
180.0
 51
0.0
  0
LINE
  8
DETAIL
  6
CONTINUOUS
 62
     5
 10
44.650500000000108
 20
-108.2117999999999
 30
0.0
 11
44.650500000000108
 21
-134.47679999999991
 31
0.0
  0
LINE
  8
DETAIL
  6
CONTINUOUS
 62
     5
 10
49.903500000000008
 20
-108.2117999999999
 30
0.0
 11
49.903500000000008
 21
-134.47679999999991
 31
0.0
  0
LINE
  8
DETAIL
  6
CONTINUOUS
 62
     5
 10
49.903500000000008
 20
-142.88159999999991
 30
0.0
 11
49.903500000000008
 21
-169.14660000000001
 31
0.0
  0
LINE
  8
DETAIL
  6
CONTINUOUS
 62
     5
 10
44.650500000000108
 20
-142.88159999999991
 30
0.0
 11
44.650500000000108
 21
-169.14660000000001
 31
0.0
  0
ARC
  8
DETAIL
  6
CONTINUOUS
 62
     5
 10
47.276999999999987
 20
-169.14660000000001
 30
0.0
 40
2.6265
 50
180.0
 51
0.0
  0
ARC
  8
DETAIL
  6
CONTINUOUS
 62
     5
 10
47.276999999999987
 20
-142.88159999999991
 30
0.0
 40
2.6265
 50
0.0
 51
180.0
  0
LINE
  8
DETAIL
  6
CONTINUOUS
 62
     5
 10
49.903500000000008
 20
-177.5514
 30
0.0
 11
49.903500000000008
 21
-203.81639999999999
 31
0.0
  0
LINE
  8
DETAIL
  6
CONTINUOUS
 62
     5
 10
44.650500000000108
 20
-177.5514
 30
0.0
 11
44.650500000000108
 21
-203.81639999999999
 31
0.0
  0
ARC
  8
DETAIL
  6
CONTINUOUS
 62
     5
 10
47.276999999999987
 20
-203.81639999999999
 30
0.0
 40
2.6265
 50
180.0
 51
0.0
  0
ARC
  8
DETAIL
  6
CONTINUOUS
 62
     5
 10
47.276999999999987
 20
-177.5514
 30
0.0
 40
2.6265
 50
0.0
 51
180.0
  0
LINE
  8
DETAIL
  6
CONTINUOUS
 62
     5
 10
49.903500000000008
 20
-73.542000000000002
 30
0.0
 11
49.903500000000008
 21
-99.807000000000002
 31
0.0
  0
LINE
  8
DETAIL
  6
CONTINUOUS
 62
     5
 10
44.650500000000108
 20
-73.542000000000002
 30
0.0
 11
44.650500000000108
 21
-99.807000000000002
 31
0.0
  0
ARC
  8
DETAIL
  6
CONTINUOUS
 62
     5
 10
47.276999999999987
 20
-99.807000000000002
 30
0.0
 40
2.6265
 50
180.0
 51
0.0
  0
ARC
  8
DETAIL
  6
CONTINUOUS
 62
     5
 10
47.276999999999987
 20
-73.542000000000002
 30
0.0
 40
2.6265
 50
0.0
 51
180.0
  0
ARC
  8
DETAIL
  6
CONTINUOUS
 62
     5
 10
36.770999999999987
 20
-73.542000000000002
 30
0.0
 40
2.6265
 50
0.0
 51
180.0
  0
ARC
  8
DETAIL
  6
CONTINUOUS
 62
     5
 10
36.770999999999987
 20
-99.807000000000002
 30
0.0
 40
2.6265
 50
180.0
 51
0.0
  0
LINE
  8
DETAIL
  6
CONTINUOUS
 62
     5
 10
34.144499999999987
 20
-73.542000000000002
 30
0.0
 11
34.144499999999987
 21
-99.807000000000002
 31
0.0
  0
LINE
  8
DETAIL
  6
CONTINUOUS
 62
     5
 10
39.397500000000008
 20
-73.542000000000002
 30
0.0
 11
39.397500000000008
 21
-99.807000000000002
 31
0.0
  0
ARC
  8
DETAIL
  6
CONTINUOUS
 62
     5
 10
36.770999999999987
 20
-177.5514
 30
0.0
 40
2.6265
 50
0.0
 51
180.0
  0
ARC
  8
DETAIL
  6
CONTINUOUS
 62
     5
 10
36.770999999999987
 20
-203.81639999999999
 30
0.0
 40
2.6265
 50
180.0
 51
0.0
  0
LINE
  8
DETAIL
  6
CONTINUOUS
 62
     5
 10
34.144499999999987
 20
-177.5514
 30
0.0
 11
34.144499999999987
 21
-203.81639999999999
 31
0.0
  0
LINE
  8
DETAIL
  6
CONTINUOUS
 62
     5
 10
39.397500000000008
 20
-177.5514
 30
0.0
 11
39.397500000000008
 21
-203.81639999999999
 31
0.0
  0
ARC
  8
DETAIL
  6
CONTINUOUS
 62
     5
 10
36.770999999999987
 20
-142.88159999999991
 30
0.0
 40
2.6265
 50
0.0
 51
180.0
  0
ARC
  8
DETAIL
  6
CONTINUOUS
 62
     5
 10
36.770999999999987
 20
-169.14660000000001
 30
0.0
 40
2.6265
 50
180.0
 51
0.0
  0
LINE
  8
DETAIL
  6
CONTINUOUS
 62
     5
 10
34.144499999999987
 20
-142.88159999999991
 30
0.0
 11
34.144499999999987
 21
-169.14660000000001
 31
0.0
  0
LINE
  8
DETAIL
  6
CONTINUOUS
 62
     5
 10
39.397500000000008
 20
-142.88159999999991
 30
0.0
 11
39.397500000000008
 21
-169.14660000000001
 31
0.0
  0
LINE
  8
DETAIL
  6
CONTINUOUS
 62
     5
 10
39.397500000000008
 20
-108.2117999999999
 30
0.0
 11
39.397500000000008
 21
-134.47679999999991
 31
0.0
  0
LINE
  8
DETAIL
  6
CONTINUOUS
 62
     5
 10
34.144499999999987
 20
-108.2117999999999
 30
0.0
 11
34.144499999999987
 21
-134.47679999999991
 31
0.0
  0
ARC
  8
DETAIL
  6
CONTINUOUS
 62
     5
 10
36.770999999999987
 20
-134.47679999999991
 30
0.0
 40
2.6265
 50
180.0
 51
0.0
  0
ARC
  8
DETAIL
  6
CONTINUOUS
 62
     5
 10
36.770999999999987
 20
-108.2117999999999
 30
0.0
 40
2.6265
 50
0.0
 51
180.0
  0
ARC
  8
DETAIL
  6
CONTINUOUS
 62
     5
 10
36.770999999999987
 20
65.137200000000007
 30
0.0
 40
2.6265
 50
0.0
 51
180.0
  0
ARC
  8
DETAIL
  6
CONTINUOUS
 62
     5
 10
36.770999999999987
 20
38.872199999999999
 30
0.0
 40
2.6265
 50
180.0
 51
0.0
  0
LINE
  8
DETAIL
  6
CONTINUOUS
 62
     5
 10
34.144499999999987
 20
65.137200000000007
 30
0.0
 11
34.144499999999987
 21
38.872199999999999
 31
0.0
  0
LINE
  8
DETAIL
  6
CONTINUOUS
 62
     5
 10
39.397500000000008
 20
65.137200000000007
 30
0.0
 11
39.397500000000008
 21
38.872199999999999
 31
0.0
  0
LINE
  8
DETAIL
  6
CONTINUOUS
 62
     5
 10
39.397500000000008
 20
30.467400000000001
 30
0.0
 11
39.397500000000008
 21
4.202399999999999
 31
0.0
  0
LINE
  8
DETAIL
  6
CONTINUOUS
 62
     5
 10
34.144499999999987
 20
30.467400000000001
 30
0.0
 11
34.144499999999987
 21
4.202399999999999
 31
0.0
  0
ARC
  8
DETAIL
  6
CONTINUOUS
 62
     5
 10
36.770999999999987
 20
4.202399999999999
 30
0.0
 40
2.6265
 50
180.0
 51
0.0
  0
ARC
  8
DETAIL
  6
CONTINUOUS
 62
     5
 10
36.770999999999987
 20
30.467400000000001
 30
0.0
 40
2.6265
 50
0.0
 51
180.0
  0
ARC
  8
DETAIL
  6
CONTINUOUS
 62
     5
 10
36.770999999999987
 20
-38.872199999999999
 30
0.0
 40
2.6265
 50
0.0
 51
180.0
  0
ARC
  8
DETAIL
  6
CONTINUOUS
 62
     5
 10
36.770999999999987
 20
-65.137200000000007
 30
0.0
 40
2.6265
 50
180.0
 51
0.0
  0
LINE
  8
DETAIL
  6
CONTINUOUS
 62
     5
 10
34.144499999999987
 20
-38.872199999999999
 30
0.0
 11
34.144499999999987
 21
-65.137200000000007
 31
0.0
  0
LINE
  8
DETAIL
  6
CONTINUOUS
 62
     5
 10
39.397500000000008
 20
-38.872199999999999
 30
0.0
 11
39.397500000000008
 21
-65.137200000000007
 31
0.0
  0
LINE
  8
DETAIL
  6
CONTINUOUS
 62
     5
 10
39.397500000000008
 20
-4.202399999999999
 30
0.0
 11
39.397500000000008
 21
-30.467399999999991
 31
0.0
  0
LINE
  8
DETAIL
  6
CONTINUOUS
 62
     5
 10
34.144499999999987
 20
-4.202399999999999
 30
0.0
 11
34.144499999999987
 21
-30.467399999999991
 31
0.0
  0
ARC
  8
DETAIL
  6
CONTINUOUS
 62
     5
 10
36.770999999999987
 20
-30.467399999999991
 30
0.0
 40
2.6265
 50
180.0
 51
0.0
  0
ARC
  8
DETAIL
  6
CONTINUOUS
 62
     5
 10
36.770999999999987
 20
-4.202399999999999
 30
0.0
 40
2.6265
 50
0.0
 51
180.0
  0
ARC
  8
DETAIL
  6
CONTINUOUS
 62
     5
 10
36.770999999999987
 20
134.47679999999991
 30
0.0
 40
2.6265
 50
0.0
 51
180.0
  0
ARC
  8
DETAIL
  6
CONTINUOUS
 62
     5
 10
36.770999999999987
 20
108.2117999999999
 30
0.0
 40
2.6265
 50
180.0
 51
0.0
  0
LINE
  8
DETAIL
  6
CONTINUOUS
 62
     5
 10
34.144499999999987
 20
134.47679999999991
 30
0.0
 11
34.144499999999987
 21
108.2117999999999
 31
0.0
  0
LINE
  8
DETAIL
  6
CONTINUOUS
 62
     5
 10
39.397500000000008
 20
134.47679999999991
 30
0.0
 11
39.397500000000008
 21
108.2117999999999
 31
0.0
  0
LINE
  8
DETAIL
  6
CONTINUOUS
 62
     5
 10
39.397500000000008
 20
99.807000000000002
 30
0.0
 11
39.397500000000008
 21
73.542000000000002
 31
0.0
  0
LINE
  8
DETAIL
  6
CONTINUOUS
 62
     5
 10
34.144499999999987
 20
99.807000000000002
 30
0.0
 11
34.144499999999987
 21
73.542000000000002
 31
0.0
  0
ARC
  8
DETAIL
  6
CONTINUOUS
 62
     5
 10
36.770999999999987
 20
73.542000000000002
 30
0.0
 40
2.6265
 50
180.0
 51
0.0
  0
ARC
  8
DETAIL
  6
CONTINUOUS
 62
     5
 10
36.770999999999987
 20
99.807000000000002
 30
0.0
 40
2.6265
 50
0.0
 51
180.0
  0
ARC
  8
DETAIL
  6
CONTINUOUS
 62
     5
 10
36.770999999999987
 20
169.14660000000001
 30
0.0
 40
2.6265
 50
0.0
 51
180.0
  0
ARC
  8
DETAIL
  6
CONTINUOUS
 62
     5
 10
36.770999999999987
 20
142.88159999999991
 30
0.0
 40
2.6265
 50
180.0
 51
0.0
  0
LINE
  8
DETAIL
  6
CONTINUOUS
 62
     5
 10
34.144499999999987
 20
169.14660000000001
 30
0.0
 11
34.144499999999987
 21
142.88159999999991
 31
0.0
  0
LINE
  8
DETAIL
  6
CONTINUOUS
 62
     5
 10
39.397500000000008
 20
169.14660000000001
 30
0.0
 11
39.397500000000008
 21
142.88159999999991
 31
0.0
  0
LINE
  8
DETAIL
  6
CONTINUOUS
 62
     5
 10
39.397500000000008
 20
203.81639999999999
 30
0.0
 11
39.397500000000008
 21
177.5514
 31
0.0
  0
LINE
  8
DETAIL
  6
CONTINUOUS
 62
     5
 10
34.144499999999987
 20
203.81639999999999
 30
0.0
 11
34.144499999999987
 21
177.5514
 31
0.0
  0
ARC
  8
DETAIL
  6
CONTINUOUS
 62
     5
 10
36.770999999999987
 20
177.5514
 30
0.0
 40
2.6265
 50
180.0
 51
0.0
  0
ARC
  8
DETAIL
  6
CONTINUOUS
 62
     5
 10
36.770999999999987
 20
203.81639999999999
 30
0.0
 40
2.6265
 50
0.0
 51
180.0
  0
ARC
  8
DETAIL
  6
CONTINUOUS
 62
     5
 10
78.794999999999987
 20
203.81639999999999
 30
0.0
 40
2.6265
 50
0.0
 51
180.0
  0
ARC
  8
DETAIL
  6
CONTINUOUS
 62
     5
 10
78.794999999999987
 20
177.5514
 30
0.0
 40
2.6265
 50
180.0
 51
0.0
  0
LINE
  8
DETAIL
  6
CONTINUOUS
 62
     5
 10
76.168500000000108
 20
203.81639999999999
 30
0.0
 11
76.168500000000108
 21
177.5514
 31
0.0
  0
LINE
  8
DETAIL
  6
CONTINUOUS
 62
     5
 10
81.421500000000123
 20
203.81639999999999
 30
0.0
 11
81.421500000000123
 21
177.5514
 31
0.0
  0
LINE
  8
DETAIL
  6
CONTINUOUS
 62
     5
 10
81.421500000000123
 20
169.14660000000001
 30
0.0
 11
81.421500000000123
 21
142.88159999999991
 31
0.0
  0
LINE
  8
DETAIL
  6
CONTINUOUS
 62
     5
 10
76.168500000000108
 20
169.14660000000001
 30
0.0
 11
76.168500000000108
 21
142.88159999999991
 31
0.0
  0
ARC
  8
DETAIL
  6
CONTINUOUS
 62
     5
 10
78.794999999999987
 20
142.88159999999991
 30
0.0
 40
2.6265
 50
180.0
 51
0.0
  0
ARC
  8
DETAIL
  6
CONTINUOUS
 62
     5
 10
78.794999999999987
 20
169.14660000000001
 30
0.0
 40
2.6265
 50
0.0
 51
180.0
  0
ARC
  8
DETAIL
  6
CONTINUOUS
 62
     5
 10
78.794999999999987
 20
99.807000000000002
 30
0.0
 40
2.6265
 50
0.0
 51
180.0
  0
ARC
  8
DETAIL
  6
CONTINUOUS
 62
     5
 10
78.794999999999987
 20
73.542000000000002
 30
0.0
 40
2.6265
 50
180.0
 51
0.0
  0
LINE
  8
DETAIL
  6
CONTINUOUS
 62
     5
 10
76.168500000000108
 20
99.807000000000002
 30
0.0
 11
76.168500000000108
 21
73.542000000000002
 31
0.0
  0
LINE
  8
DETAIL
  6
CONTINUOUS
 62
     5
 10
81.421500000000123
 20
99.807000000000002
 30
0.0
 11
81.421500000000123
 21
73.542000000000002
 31
0.0
  0
LINE
  8
DETAIL
  6
CONTINUOUS
 62
     5
 10
81.421500000000123
 20
134.47679999999991
 30
0.0
 11
81.421500000000123
 21
108.2117999999999
 31
0.0
  0
LINE
  8
DETAIL
  6
CONTINUOUS
 62
     5
 10
76.168500000000108
 20
134.47679999999991
 30
0.0
 11
76.168500000000108
 21
108.2117999999999
 31
0.0
  0
ARC
  8
DETAIL
  6
CONTINUOUS
 62
     5
 10
78.794999999999987
 20
108.2117999999999
 30
0.0
 40
2.6265
 50
180.0
 51
0.0
  0
ARC
  8
DETAIL
  6
CONTINUOUS
 62
     5
 10
78.794999999999987
 20
134.47679999999991
 30
0.0
 40
2.6265
 50
0.0
 51
180.0
  0
ARC
  8
DETAIL
  6
CONTINUOUS
 62
     5
 10
78.794999999999987
 20
-4.202399999999999
 30
0.0
 40
2.6265
 50
0.0
 51
180.0
  0
ARC
  8
DETAIL
  6
CONTINUOUS
 62
     5
 10
78.794999999999987
 20
-30.467399999999991
 30
0.0
 40
2.6265
 50
180.0
 51
0.0
  0
LINE
  8
DETAIL
  6
CONTINUOUS
 62
     5
 10
76.168500000000108
 20
-4.202399999999999
 30
0.0
 11
76.168500000000108
 21
-30.467399999999991
 31
0.0
  0
LINE
  8
DETAIL
  6
CONTINUOUS
 62
     5
 10
81.421500000000123
 20
-4.202399999999999
 30
0.0
 11
81.421500000000123
 21
-30.467399999999991
 31
0.0
  0
LINE
  8
DETAIL
  6
CONTINUOUS
 62
     5
 10
81.421500000000123
 20
-38.872199999999999
 30
0.0
 11
81.421500000000123
 21
-65.137200000000007
 31
0.0
  0
LINE
  8
DETAIL
  6
CONTINUOUS
 62
     5
 10
76.168500000000108
 20
-38.872199999999999
 30
0.0
 11
76.168500000000108
 21
-65.137200000000007
 31
0.0
  0
ARC
  8
DETAIL
  6
CONTINUOUS
 62
     5
 10
78.794999999999987
 20
-65.137200000000007
 30
0.0
 40
2.6265
 50
180.0
 51
0.0
  0
ARC
  8
DETAIL
  6
CONTINUOUS
 62
     5
 10
78.794999999999987
 20
-38.872199999999999
 30
0.0
 40
2.6265
 50
0.0
 51
180.0
  0
ARC
  8
DETAIL
  6
CONTINUOUS
 62
     5
 10
78.794999999999987
 20
30.467400000000001
 30
0.0
 40
2.6265
 50
0.0
 51
180.0
  0
ARC
  8
DETAIL
  6
CONTINUOUS
 62
     5
 10
78.794999999999987
 20
4.202399999999999
 30
0.0
 40
2.6265
 50
180.0
 51
0.0
  0
LINE
  8
DETAIL
  6
CONTINUOUS
 62
     5
 10
76.168500000000108
 20
30.467400000000001
 30
0.0
 11
76.168500000000108
 21
4.202399999999999
 31
0.0
  0
LINE
  8
DETAIL
  6
CONTINUOUS
 62
     5
 10
81.421500000000123
 20
30.467400000000001
 30
0.0
 11
81.421500000000123
 21
4.202399999999999
 31
0.0
  0
LINE
  8
DETAIL
  6
CONTINUOUS
 62
     5
 10
81.421500000000123
 20
65.137200000000007
 30
0.0
 11
81.421500000000123
 21
38.872199999999999
 31
0.0
  0
LINE
  8
DETAIL
  6
CONTINUOUS
 62
     5
 10
76.168500000000108
 20
65.137200000000007
 30
0.0
 11
76.168500000000108
 21
38.872199999999999
 31
0.0
  0
ARC
  8
DETAIL
  6
CONTINUOUS
 62
     5
 10
78.794999999999987
 20
38.872199999999999
 30
0.0
 40
2.6265
 50
180.0
 51
0.0
  0
ARC
  8
DETAIL
  6
CONTINUOUS
 62
     5
 10
78.794999999999987
 20
65.137200000000007
 30
0.0
 40
2.6265
 50
0.0
 51
180.0
  0
ARC
  8
DETAIL
  6
CONTINUOUS
 62
     5
 10
78.794999999999987
 20
-108.2117999999999
 30
0.0
 40
2.6265
 50
0.0
 51
180.0
  0
ARC
  8
DETAIL
  6
CONTINUOUS
 62
     5
 10
78.794999999999987
 20
-134.47679999999991
 30
0.0
 40
2.6265
 50
180.0
 51
0.0
  0
LINE
  8
DETAIL
  6
CONTINUOUS
 62
     5
 10
76.168500000000108
 20
-108.2117999999999
 30
0.0
 11
76.168500000000108
 21
-134.47679999999991
 31
0.0
  0
LINE
  8
DETAIL
  6
CONTINUOUS
 62
     5
 10
81.421500000000123
 20
-108.2117999999999
 30
0.0
 11
81.421500000000123
 21
-134.47679999999991
 31
0.0
  0
LINE
  8
DETAIL
  6
CONTINUOUS
 62
     5
 10
81.421500000000123
 20
-142.88159999999991
 30
0.0
 11
81.421500000000123
 21
-169.14660000000001
 31
0.0
  0
LINE
  8
DETAIL
  6
CONTINUOUS
 62
     5
 10
76.168500000000108
 20
-142.88159999999991
 30
0.0
 11
76.168500000000108
 21
-169.14660000000001
 31
0.0
  0
ARC
  8
DETAIL
  6
CONTINUOUS
 62
     5
 10
78.794999999999987
 20
-169.14660000000001
 30
0.0
 40
2.6265
 50
180.0
 51
0.0
  0
ARC
  8
DETAIL
  6
CONTINUOUS
 62
     5
 10
78.794999999999987
 20
-142.88159999999991
 30
0.0
 40
2.6265
 50
0.0
 51
180.0
  0
LINE
  8
DETAIL
  6
CONTINUOUS
 62
     5
 10
81.421500000000123
 20
-177.5514
 30
0.0
 11
81.421500000000123
 21
-203.81639999999999
 31
0.0
  0
LINE
  8
DETAIL
  6
CONTINUOUS
 62
     5
 10
76.168500000000108
 20
-177.5514
 30
0.0
 11
76.168500000000108
 21
-203.81639999999999
 31
0.0
  0
ARC
  8
DETAIL
  6
CONTINUOUS
 62
     5
 10
78.794999999999987
 20
-203.81639999999999
 30
0.0
 40
2.6265
 50
180.0
 51
0.0
  0
ARC
  8
DETAIL
  6
CONTINUOUS
 62
     5
 10
78.794999999999987
 20
-177.5514
 30
0.0
 40
2.6265
 50
0.0
 51
180.0
  0
LINE
  8
DETAIL
  6
CONTINUOUS
 62
     5
 10
81.421500000000123
 20
-73.542000000000002
 30
0.0
 11
81.421500000000123
 21
-99.807000000000002
 31
0.0
  0
LINE
  8
DETAIL
  6
CONTINUOUS
 62
     5
 10
76.168500000000108
 20
-73.542000000000002
 30
0.0
 11
76.168500000000108
 21
-99.807000000000002
 31
0.0
  0
ARC
  8
DETAIL
  6
CONTINUOUS
 62
     5
 10
78.794999999999987
 20
-99.807000000000002
 30
0.0
 40
2.6265
 50
180.0
 51
0.0
  0
ARC
  8
DETAIL
  6
CONTINUOUS
 62
     5
 10
78.794999999999987
 20
-73.542000000000002
 30
0.0
 40
2.6265
 50
0.0
 51
180.0
  0
ARC
  8
DETAIL
  6
CONTINUOUS
 62
     5
 10
89.300999999999988
 20
-73.542000000000002
 30
0.0
 40
2.6265
 50
0.0
 51
180.0
  0
ARC
  8
DETAIL
  6
CONTINUOUS
 62
     5
 10
89.300999999999988
 20
-99.807000000000002
 30
0.0
 40
2.6265
 50
180.0
 51
0.0
  0
LINE
  8
DETAIL
  6
CONTINUOUS
 62
     5
 10
86.674500000000108
 20
-73.542000000000002
 30
0.0
 11
86.674500000000108
 21
-99.807000000000002
 31
0.0
  0
LINE
  8
DETAIL
  6
CONTINUOUS
 62
     5
 10
91.927500000000123
 20
-73.542000000000002
 30
0.0
 11
91.927500000000123
 21
-99.807000000000002
 31
0.0
  0
ARC
  8
DETAIL
  6
CONTINUOUS
 62
     5
 10
89.300999999999988
 20
-177.5514
 30
0.0
 40
2.6265
 50
0.0
 51
180.0
  0
ARC
  8
DETAIL
  6
CONTINUOUS
 62
     5
 10
89.300999999999988
 20
-203.81639999999999
 30
0.0
 40
2.6265
 50
180.0
 51
0.0
  0
LINE
  8
DETAIL
  6
CONTINUOUS
 62
     5
 10
86.674500000000108
 20
-177.5514
 30
0.0
 11
86.674500000000108
 21
-203.81639999999999
 31
0.0
  0
LINE
  8
DETAIL
  6
CONTINUOUS
 62
     5
 10
91.927500000000123
 20
-177.5514
 30
0.0
 11
91.927500000000123
 21
-203.81639999999999
 31
0.0
  0
ARC
  8
DETAIL
  6
CONTINUOUS
 62
     5
 10
89.300999999999988
 20
-142.88159999999991
 30
0.0
 40
2.6265
 50
0.0
 51
180.0
  0
ARC
  8
DETAIL
  6
CONTINUOUS
 62
     5
 10
89.300999999999988
 20
-169.14660000000001
 30
0.0
 40
2.6265
 50
180.0
 51
0.0
  0
LINE
  8
DETAIL
  6
CONTINUOUS
 62
     5
 10
86.674500000000108
 20
-142.88159999999991
 30
0.0
 11
86.674500000000108
 21
-169.14660000000001
 31
0.0
  0
LINE
  8
DETAIL
  6
CONTINUOUS
 62
     5
 10
91.927500000000123
 20
-142.88159999999991
 30
0.0
 11
91.927500000000123
 21
-169.14660000000001
 31
0.0
  0
LINE
  8
DETAIL
  6
CONTINUOUS
 62
     5
 10
91.927500000000123
 20
-108.2117999999999
 30
0.0
 11
91.927500000000123
 21
-134.47679999999991
 31
0.0
  0
LINE
  8
DETAIL
  6
CONTINUOUS
 62
     5
 10
86.674500000000108
 20
-108.2117999999999
 30
0.0
 11
86.674500000000108
 21
-134.47679999999991
 31
0.0
  0
ARC
  8
DETAIL
  6
CONTINUOUS
 62
     5
 10
89.300999999999988
 20
-134.47679999999991
 30
0.0
 40
2.6265
 50
180.0
 51
0.0
  0
ARC
  8
DETAIL
  6
CONTINUOUS
 62
     5
 10
89.300999999999988
 20
-108.2117999999999
 30
0.0
 40
2.6265
 50
0.0
 51
180.0
  0
ARC
  8
DETAIL
  6
CONTINUOUS
 62
     5
 10
89.300999999999988
 20
65.137200000000007
 30
0.0
 40
2.6265
 50
0.0
 51
180.0
  0
ARC
  8
DETAIL
  6
CONTINUOUS
 62
     5
 10
89.300999999999988
 20
38.872199999999999
 30
0.0
 40
2.6265
 50
180.0
 51
0.0
  0
LINE
  8
DETAIL
  6
CONTINUOUS
 62
     5
 10
86.674500000000108
 20
65.137200000000007
 30
0.0
 11
86.674500000000108
 21
38.872199999999999
 31
0.0
  0
LINE
  8
DETAIL
  6
CONTINUOUS
 62
     5
 10
91.927500000000123
 20
65.137200000000007
 30
0.0
 11
91.927500000000123
 21
38.872199999999999
 31
0.0
  0
LINE
  8
DETAIL
  6
CONTINUOUS
 62
     5
 10
91.927500000000123
 20
30.467400000000001
 30
0.0
 11
91.927500000000123
 21
4.202399999999999
 31
0.0
  0
LINE
  8
DETAIL
  6
CONTINUOUS
 62
     5
 10
86.674500000000108
 20
30.467400000000001
 30
0.0
 11
86.674500000000108
 21
4.202399999999999
 31
0.0
  0
ARC
  8
DETAIL
  6
CONTINUOUS
 62
     5
 10
89.300999999999988
 20
4.202399999999999
 30
0.0
 40
2.6265
 50
180.0
 51
0.0
  0
ARC
  8
DETAIL
  6
CONTINUOUS
 62
     5
 10
89.300999999999988
 20
30.467400000000001
 30
0.0
 40
2.6265
 50
0.0
 51
180.0
  0
ARC
  8
DETAIL
  6
CONTINUOUS
 62
     5
 10
89.300999999999988
 20
-38.872199999999999
 30
0.0
 40
2.6265
 50
0.0
 51
180.0
  0
ARC
  8
DETAIL
  6
CONTINUOUS
 62
     5
 10
89.300999999999988
 20
-65.137200000000007
 30
0.0
 40
2.6265
 50
180.0
 51
0.0
  0
LINE
  8
DETAIL
  6
CONTINUOUS
 62
     5
 10
86.674500000000108
 20
-38.872199999999999
 30
0.0
 11
86.674500000000108
 21
-65.137200000000007
 31
0.0
  0
LINE
  8
DETAIL
  6
CONTINUOUS
 62
     5
 10
91.927500000000123
 20
-38.872199999999999
 30
0.0
 11
91.927500000000123
 21
-65.137200000000007
 31
0.0
  0
LINE
  8
DETAIL
  6
CONTINUOUS
 62
     5
 10
91.927500000000123
 20
-4.202399999999999
 30
0.0
 11
91.927500000000123
 21
-30.467399999999991
 31
0.0
  0
LINE
  8
DETAIL
  6
CONTINUOUS
 62
     5
 10
86.674500000000108
 20
-4.202399999999999
 30
0.0
 11
86.674500000000108
 21
-30.467399999999991
 31
0.0
  0
ARC
  8
DETAIL
  6
CONTINUOUS
 62
     5
 10
89.300999999999988
 20
-30.467399999999991
 30
0.0
 40
2.6265
 50
180.0
 51
0.0
  0
ARC
  8
DETAIL
  6
CONTINUOUS
 62
     5
 10
89.300999999999988
 20
-4.202399999999999
 30
0.0
 40
2.6265
 50
0.0
 51
180.0
  0
ARC
  8
DETAIL
  6
CONTINUOUS
 62
     5
 10
89.300999999999988
 20
134.47679999999991
 30
0.0
 40
2.6265
 50
0.0
 51
180.0
  0
ARC
  8
DETAIL
  6
CONTINUOUS
 62
     5
 10
89.300999999999988
 20
108.2117999999999
 30
0.0
 40
2.6265
 50
180.0
 51
0.0
  0
LINE
  8
DETAIL
  6
CONTINUOUS
 62
     5
 10
86.674500000000108
 20
134.47679999999991
 30
0.0
 11
86.674500000000108
 21
108.2117999999999
 31
0.0
  0
LINE
  8
DETAIL
  6
CONTINUOUS
 62
     5
 10
91.927500000000123
 20
134.47679999999991
 30
0.0
 11
91.927500000000123
 21
108.2117999999999
 31
0.0
  0
LINE
  8
DETAIL
  6
CONTINUOUS
 62
     5
 10
91.927500000000123
 20
99.807000000000002
 30
0.0
 11
91.927500000000123
 21
73.542000000000002
 31
0.0
  0
LINE
  8
DETAIL
  6
CONTINUOUS
 62
     5
 10
86.674500000000108
 20
99.807000000000002
 30
0.0
 11
86.674500000000108
 21
73.542000000000002
 31
0.0
  0
ARC
  8
DETAIL
  6
CONTINUOUS
 62
     5
 10
89.300999999999988
 20
73.542000000000002
 30
0.0
 40
2.6265
 50
180.0
 51
0.0
  0
ARC
  8
DETAIL
  6
CONTINUOUS
 62
     5
 10
89.300999999999988
 20
99.807000000000002
 30
0.0
 40
2.6265
 50
0.0
 51
180.0
  0
ARC
  8
DETAIL
  6
CONTINUOUS
 62
     5
 10
89.300999999999988
 20
169.14660000000001
 30
0.0
 40
2.6265
 50
0.0
 51
180.0
  0
ARC
  8
DETAIL
  6
CONTINUOUS
 62
     5
 10
89.300999999999988
 20
142.88159999999991
 30
0.0
 40
2.6265
 50
180.0
 51
0.0
  0
LINE
  8
DETAIL
  6
CONTINUOUS
 62
     5
 10
86.674500000000108
 20
169.14660000000001
 30
0.0
 11
86.674500000000108
 21
142.88159999999991
 31
0.0
  0
LINE
  8
DETAIL
  6
CONTINUOUS
 62
     5
 10
91.927500000000123
 20
169.14660000000001
 30
0.0
 11
91.927500000000123
 21
142.88159999999991
 31
0.0
  0
LINE
  8
DETAIL
  6
CONTINUOUS
 62
     5
 10
91.927500000000123
 20
203.81639999999999
 30
0.0
 11
91.927500000000123
 21
177.5514
 31
0.0
  0
LINE
  8
DETAIL
  6
CONTINUOUS
 62
     5
 10
86.674500000000108
 20
203.81639999999999
 30
0.0
 11
86.674500000000108
 21
177.5514
 31
0.0
  0
ARC
  8
DETAIL
  6
CONTINUOUS
 62
     5
 10
89.300999999999988
 20
177.5514
 30
0.0
 40
2.6265
 50
180.0
 51
0.0
  0
ARC
  8
DETAIL
  6
CONTINUOUS
 62
     5
 10
89.300999999999988
 20
203.81639999999999
 30
0.0
 40
2.6265
 50
0.0
 51
180.0
  0
ARC
  8
DETAIL
  6
CONTINUOUS
 62
     5
 10
68.288999999999987
 20
203.81639999999999
 30
0.0
 40
2.6265
 50
0.0
 51
180.0
  0
ARC
  8
DETAIL
  6
CONTINUOUS
 62
     5
 10
68.288999999999987
 20
177.5514
 30
0.0
 40
2.6265
 50
180.0
 51
0.0
  0
LINE
  8
DETAIL
  6
CONTINUOUS
 62
     5
 10
65.662500000000108
 20
203.81639999999999
 30
0.0
 11
65.662500000000108
 21
177.5514
 31
0.0
  0
LINE
  8
DETAIL
  6
CONTINUOUS
 62
     5
 10
70.915500000000122
 20
203.81639999999999
 30
0.0
 11
70.915500000000122
 21
177.5514
 31
0.0
  0
LINE
  8
DETAIL
  6
CONTINUOUS
 62
     5
 10
70.915500000000122
 20
169.14660000000001
 30
0.0
 11
70.915500000000122
 21
142.88159999999991
 31
0.0
  0
LINE
  8
DETAIL
  6
CONTINUOUS
 62
     5
 10
65.662500000000108
 20
169.14660000000001
 30
0.0
 11
65.662500000000108
 21
142.88159999999991
 31
0.0
  0
ARC
  8
DETAIL
  6
CONTINUOUS
 62
     5
 10
68.288999999999987
 20
142.88159999999991
 30
0.0
 40
2.6265
 50
180.0
 51
0.0
  0
ARC
  8
DETAIL
  6
CONTINUOUS
 62
     5
 10
68.288999999999987
 20
169.14660000000001
 30
0.0
 40
2.6265
 50
0.0
 51
180.0
  0
ARC
  8
DETAIL
  6
CONTINUOUS
 62
     5
 10
68.288999999999987
 20
99.807000000000002
 30
0.0
 40
2.6265
 50
0.0
 51
180.0
  0
ARC
  8
DETAIL
  6
CONTINUOUS
 62
     5
 10
68.288999999999987
 20
73.542000000000002
 30
0.0
 40
2.6265
 50
180.0
 51
0.0
  0
LINE
  8
DETAIL
  6
CONTINUOUS
 62
     5
 10
65.662500000000108
 20
99.807000000000002
 30
0.0
 11
65.662500000000108
 21
73.542000000000002
 31
0.0
  0
LINE
  8
DETAIL
  6
CONTINUOUS
 62
     5
 10
70.915500000000122
 20
99.807000000000002
 30
0.0
 11
70.915500000000122
 21
73.542000000000002
 31
0.0
  0
LINE
  8
DETAIL
  6
CONTINUOUS
 62
     5
 10
70.915500000000122
 20
134.47679999999991
 30
0.0
 11
70.915500000000122
 21
108.2117999999999
 31
0.0
  0
LINE
  8
DETAIL
  6
CONTINUOUS
 62
     5
 10
65.662500000000108
 20
134.47679999999991
 30
0.0
 11
65.662500000000108
 21
108.2117999999999
 31
0.0
  0
ARC
  8
DETAIL
  6
CONTINUOUS
 62
     5
 10
68.288999999999987
 20
108.2117999999999
 30
0.0
 40
2.6265
 50
180.0
 51
0.0
  0
ARC
  8
DETAIL
  6
CONTINUOUS
 62
     5
 10
68.288999999999987
 20
134.47679999999991
 30
0.0
 40
2.6265
 50
0.0
 51
180.0
  0
ARC
  8
DETAIL
  6
CONTINUOUS
 62
     5
 10
68.288999999999987
 20
-4.202399999999999
 30
0.0
 40
2.6265
 50
0.0
 51
180.0
  0
ARC
  8
DETAIL
  6
CONTINUOUS
 62
     5
 10
68.288999999999987
 20
-30.467399999999991
 30
0.0
 40
2.6265
 50
180.0
 51
0.0
  0
LINE
  8
DETAIL
  6
CONTINUOUS
 62
     5
 10
65.662500000000108
 20
-4.202399999999999
 30
0.0
 11
65.662500000000108
 21
-30.467399999999991
 31
0.0
  0
LINE
  8
DETAIL
  6
CONTINUOUS
 62
     5
 10
70.915500000000122
 20
-4.202399999999999
 30
0.0
 11
70.915500000000122
 21
-30.467399999999991
 31
0.0
  0
LINE
  8
DETAIL
  6
CONTINUOUS
 62
     5
 10
70.915500000000122
 20
-38.872199999999999
 30
0.0
 11
70.915500000000122
 21
-65.137200000000007
 31
0.0
  0
LINE
  8
DETAIL
  6
CONTINUOUS
 62
     5
 10
65.662500000000108
 20
-38.872199999999999
 30
0.0
 11
65.662500000000108
 21
-65.137200000000007
 31
0.0
  0
ARC
  8
DETAIL
  6
CONTINUOUS
 62
     5
 10
68.288999999999987
 20
-65.137200000000007
 30
0.0
 40
2.6265
 50
180.0
 51
0.0
  0
ARC
  8
DETAIL
  6
CONTINUOUS
 62
     5
 10
68.288999999999987
 20
-38.872199999999999
 30
0.0
 40
2.6265
 50
0.0
 51
180.0
  0
ARC
  8
DETAIL
  6
CONTINUOUS
 62
     5
 10
68.288999999999987
 20
30.467400000000001
 30
0.0
 40
2.6265
 50
0.0
 51
180.0
  0
ARC
  8
DETAIL
  6
CONTINUOUS
 62
     5
 10
68.288999999999987
 20
4.202399999999999
 30
0.0
 40
2.6265
 50
180.0
 51
0.0
  0
LINE
  8
DETAIL
  6
CONTINUOUS
 62
     5
 10
65.662500000000108
 20
30.467400000000001
 30
0.0
 11
65.662500000000108
 21
4.202399999999999
 31
0.0
  0
LINE
  8
DETAIL
  6
CONTINUOUS
 62
     5
 10
70.915500000000122
 20
30.467400000000001
 30
0.0
 11
70.915500000000122
 21
4.202399999999999
 31
0.0
  0
LINE
  8
DETAIL
  6
CONTINUOUS
 62
     5
 10
70.915500000000122
 20
65.137200000000007
 30
0.0
 11
70.915500000000122
 21
38.872199999999999
 31
0.0
  0
LINE
  8
DETAIL
  6
CONTINUOUS
 62
     5
 10
65.662500000000108
 20
65.137200000000007
 30
0.0
 11
65.662500000000108
 21
38.872199999999999
 31
0.0
  0
ARC
  8
DETAIL
  6
CONTINUOUS
 62
     5
 10
68.288999999999987
 20
38.872199999999999
 30
0.0
 40
2.6265
 50
180.0
 51
0.0
  0
ARC
  8
DETAIL
  6
CONTINUOUS
 62
     5
 10
68.288999999999987
 20
65.137200000000007
 30
0.0
 40
2.6265
 50
0.0
 51
180.0
  0
ARC
  8
DETAIL
  6
CONTINUOUS
 62
     5
 10
68.288999999999987
 20
-108.2117999999999
 30
0.0
 40
2.6265
 50
0.0
 51
180.0
  0
ARC
  8
DETAIL
  6
CONTINUOUS
 62
     5
 10
68.288999999999987
 20
-134.47679999999991
 30
0.0
 40
2.6265
 50
180.0
 51
0.0
  0
LINE
  8
DETAIL
  6
CONTINUOUS
 62
     5
 10
65.662500000000108
 20
-108.2117999999999
 30
0.0
 11
65.662500000000108
 21
-134.47679999999991
 31
0.0
  0
LINE
  8
DETAIL
  6
CONTINUOUS
 62
     5
 10
70.915500000000122
 20
-108.2117999999999
 30
0.0
 11
70.915500000000122
 21
-134.47679999999991
 31
0.0
  0
LINE
  8
DETAIL
  6
CONTINUOUS
 62
     5
 10
70.915500000000122
 20
-142.88159999999991
 30
0.0
 11
70.915500000000122
 21
-169.14660000000001
 31
0.0
  0
LINE
  8
DETAIL
  6
CONTINUOUS
 62
     5
 10
65.662500000000108
 20
-142.88159999999991
 30
0.0
 11
65.662500000000108
 21
-169.14660000000001
 31
0.0
  0
ARC
  8
DETAIL
  6
CONTINUOUS
 62
     5
 10
68.288999999999987
 20
-169.14660000000001
 30
0.0
 40
2.6265
 50
180.0
 51
0.0
  0
ARC
  8
DETAIL
  6
CONTINUOUS
 62
     5
 10
68.288999999999987
 20
-142.88159999999991
 30
0.0
 40
2.6265
 50
0.0
 51
180.0
  0
LINE
  8
DETAIL
  6
CONTINUOUS
 62
     5
 10
70.915500000000122
 20
-177.5514
 30
0.0
 11
70.915500000000122
 21
-203.81639999999999
 31
0.0
  0
LINE
  8
DETAIL
  6
CONTINUOUS
 62
     5
 10
65.662500000000108
 20
-177.5514
 30
0.0
 11
65.662500000000108
 21
-203.81639999999999
 31
0.0
  0
ARC
  8
DETAIL
  6
CONTINUOUS
 62
     5
 10
68.288999999999987
 20
-203.81639999999999
 30
0.0
 40
2.6265
 50
180.0
 51
0.0
  0
ARC
  8
DETAIL
  6
CONTINUOUS
 62
     5
 10
68.288999999999987
 20
-177.5514
 30
0.0
 40
2.6265
 50
0.0
 51
180.0
  0
LINE
  8
DETAIL
  6
CONTINUOUS
 62
     5
 10
70.915500000000122
 20
-73.542000000000002
 30
0.0
 11
70.915500000000122
 21
-99.807000000000002
 31
0.0
  0
LINE
  8
DETAIL
  6
CONTINUOUS
 62
     5
 10
65.662500000000108
 20
-73.542000000000002
 30
0.0
 11
65.662500000000108
 21
-99.807000000000002
 31
0.0
  0
ARC
  8
DETAIL
  6
CONTINUOUS
 62
     5
 10
68.288999999999987
 20
-99.807000000000002
 30
0.0
 40
2.6265
 50
180.0
 51
0.0
  0
ARC
  8
DETAIL
  6
CONTINUOUS
 62
     5
 10
68.288999999999987
 20
-73.542000000000002
 30
0.0
 40
2.6265
 50
0.0
 51
180.0
  0
ARC
  8
DETAIL
  6
CONTINUOUS
 62
     5
 10
57.783000000000101
 20
-73.542000000000002
 30
0.0
 40
2.6265
 50
0.0
 51
180.0
  0
ARC
  8
DETAIL
  6
CONTINUOUS
 62
     5
 10
57.783000000000101
 20
-99.807000000000002
 30
0.0
 40
2.6265
 50
180.0
 51
0.0
  0
LINE
  8
DETAIL
  6
CONTINUOUS
 62
     5
 10
55.156500000000108
 20
-73.542000000000002
 30
0.0
 11
55.156500000000108
 21
-99.807000000000002
 31
0.0
  0
LINE
  8
DETAIL
  6
CONTINUOUS
 62
     5
 10
60.409500000000087
 20
-73.542000000000002
 30
0.0
 11
60.409500000000087
 21
-99.807000000000002
 31
0.0
  0
ARC
  8
DETAIL
  6
CONTINUOUS
 62
     5
 10
57.783000000000101
 20
-177.5514
 30
0.0
 40
2.6265
 50
0.0
 51
180.0
  0
ARC
  8
DETAIL
  6
CONTINUOUS
 62
     5
 10
57.783000000000101
 20
-203.81639999999999
 30
0.0
 40
2.6265
 50
180.0
 51
0.0
  0
LINE
  8
DETAIL
  6
CONTINUOUS
 62
     5
 10
55.156500000000108
 20
-177.5514
 30
0.0
 11
55.156500000000108
 21
-203.81639999999999
 31
0.0
  0
LINE
  8
DETAIL
  6
CONTINUOUS
 62
     5
 10
60.409500000000087
 20
-177.5514
 30
0.0
 11
60.409500000000087
 21
-203.81639999999999
 31
0.0
  0
ARC
  8
DETAIL
  6
CONTINUOUS
 62
     5
 10
57.783000000000101
 20
-142.88159999999991
 30
0.0
 40
2.6265
 50
0.0
 51
180.0
  0
ARC
  8
DETAIL
  6
CONTINUOUS
 62
     5
 10
57.783000000000101
 20
-169.14660000000001
 30
0.0
 40
2.6265
 50
180.0
 51
0.0
  0
LINE
  8
DETAIL
  6
CONTINUOUS
 62
     5
 10
55.156500000000108
 20
-142.88159999999991
 30
0.0
 11
55.156500000000108
 21
-169.14660000000001
 31
0.0
  0
LINE
  8
DETAIL
  6
CONTINUOUS
 62
     5
 10
60.409500000000087
 20
-142.88159999999991
 30
0.0
 11
60.409500000000087
 21
-169.14660000000001
 31
0.0
  0
LINE
  8
DETAIL
  6
CONTINUOUS
 62
     5
 10
60.409500000000087
 20
-108.2117999999999
 30
0.0
 11
60.409500000000087
 21
-134.47679999999991
 31
0.0
  0
LINE
  8
DETAIL
  6
CONTINUOUS
 62
     5
 10
55.156500000000108
 20
-108.2117999999999
 30
0.0
 11
55.156500000000108
 21
-134.47679999999991
 31
0.0
  0
ARC
  8
DETAIL
  6
CONTINUOUS
 62
     5
 10
57.783000000000101
 20
-134.47679999999991
 30
0.0
 40
2.6265
 50
180.0
 51
0.0
  0
ARC
  8
DETAIL
  6
CONTINUOUS
 62
     5
 10
57.783000000000101
 20
-108.2117999999999
 30
0.0
 40
2.6265
 50
0.0
 51
180.0
  0
ARC
  8
DETAIL
  6
CONTINUOUS
 62
     5
 10
57.783000000000101
 20
65.137200000000007
 30
0.0
 40
2.6265
 50
0.0
 51
180.0
  0
ARC
  8
DETAIL
  6
CONTINUOUS
 62
     5
 10
57.783000000000101
 20
38.872199999999999
 30
0.0
 40
2.6265
 50
180.0
 51
0.0
  0
LINE
  8
DETAIL
  6
CONTINUOUS
 62
     5
 10
55.156500000000108
 20
65.137200000000007
 30
0.0
 11
55.156500000000108
 21
38.872199999999999
 31
0.0
  0
LINE
  8
DETAIL
  6
CONTINUOUS
 62
     5
 10
60.409500000000087
 20
65.137200000000007
 30
0.0
 11
60.409500000000087
 21
38.872199999999999
 31
0.0
  0
LINE
  8
DETAIL
  6
CONTINUOUS
 62
     5
 10
60.409500000000087
 20
30.467400000000001
 30
0.0
 11
60.409500000000087
 21
4.202399999999999
 31
0.0
  0
LINE
  8
DETAIL
  6
CONTINUOUS
 62
     5
 10
55.156500000000108
 20
30.467400000000001
 30
0.0
 11
55.156500000000108
 21
4.202399999999999
 31
0.0
  0
ARC
  8
DETAIL
  6
CONTINUOUS
 62
     5
 10
57.783000000000101
 20
4.202399999999999
 30
0.0
 40
2.6265
 50
180.0
 51
0.0
  0
ARC
  8
DETAIL
  6
CONTINUOUS
 62
     5
 10
57.783000000000101
 20
30.467400000000001
 30
0.0
 40
2.6265
 50
0.0
 51
180.0
  0
ARC
  8
DETAIL
  6
CONTINUOUS
 62
     5
 10
57.783000000000101
 20
-38.872199999999999
 30
0.0
 40
2.6265
 50
0.0
 51
180.0
  0
ARC
  8
DETAIL
  6
CONTINUOUS
 62
     5
 10
57.783000000000101
 20
-65.137200000000007
 30
0.0
 40
2.6265
 50
180.0
 51
0.0
  0
LINE
  8
DETAIL
  6
CONTINUOUS
 62
     5
 10
55.156500000000108
 20
-38.872199999999999
 30
0.0
 11
55.156500000000108
 21
-65.137200000000007
 31
0.0
  0
LINE
  8
DETAIL
  6
CONTINUOUS
 62
     5
 10
60.409500000000087
 20
-38.872199999999999
 30
0.0
 11
60.409500000000087
 21
-65.137200000000007
 31
0.0
  0
LINE
  8
DETAIL
  6
CONTINUOUS
 62
     5
 10
60.409500000000087
 20
-4.202399999999999
 30
0.0
 11
60.409500000000087
 21
-30.467399999999991
 31
0.0
  0
LINE
  8
DETAIL
  6
CONTINUOUS
 62
     5
 10
55.156500000000108
 20
-4.202399999999999
 30
0.0
 11
55.156500000000108
 21
-30.467399999999991
 31
0.0
  0
ARC
  8
DETAIL
  6
CONTINUOUS
 62
     5
 10
57.783000000000101
 20
-30.467399999999991
 30
0.0
 40
2.6265
 50
180.0
 51
0.0
  0
ARC
  8
DETAIL
  6
CONTINUOUS
 62
     5
 10
57.783000000000101
 20
-4.202399999999999
 30
0.0
 40
2.6265
 50
0.0
 51
180.0
  0
ARC
  8
DETAIL
  6
CONTINUOUS
 62
     5
 10
57.783000000000101
 20
134.47679999999991
 30
0.0
 40
2.6265
 50
0.0
 51
180.0
  0
ARC
  8
DETAIL
  6
CONTINUOUS
 62
     5
 10
57.783000000000101
 20
108.2117999999999
 30
0.0
 40
2.6265
 50
180.0
 51
0.0
  0
LINE
  8
DETAIL
  6
CONTINUOUS
 62
     5
 10
55.156500000000108
 20
134.47679999999991
 30
0.0
 11
55.156500000000108
 21
108.2117999999999
 31
0.0
  0
LINE
  8
DETAIL
  6
CONTINUOUS
 62
     5
 10
60.409500000000087
 20
134.47679999999991
 30
0.0
 11
60.409500000000087
 21
108.2117999999999
 31
0.0
  0
LINE
  8
DETAIL
  6
CONTINUOUS
 62
     5
 10
60.409500000000087
 20
99.807000000000002
 30
0.0
 11
60.409500000000087
 21
73.542000000000002
 31
0.0
  0
LINE
  8
DETAIL
  6
CONTINUOUS
 62
     5
 10
55.156500000000108
 20
99.807000000000002
 30
0.0
 11
55.156500000000108
 21
73.542000000000002
 31
0.0
  0
ARC
  8
DETAIL
  6
CONTINUOUS
 62
     5
 10
57.783000000000101
 20
73.542000000000002
 30
0.0
 40
2.6265
 50
180.0
 51
0.0
  0
ARC
  8
DETAIL
  6
CONTINUOUS
 62
     5
 10
57.783000000000101
 20
99.807000000000002
 30
0.0
 40
2.6265
 50
0.0
 51
180.0
  0
ARC
  8
DETAIL
  6
CONTINUOUS
 62
     5
 10
57.783000000000101
 20
169.14660000000001
 30
0.0
 40
2.6265
 50
0.0
 51
180.0
  0
ARC
  8
DETAIL
  6
CONTINUOUS
 62
     5
 10
57.783000000000101
 20
142.88159999999991
 30
0.0
 40
2.6265
 50
180.0
 51
0.0
  0
LINE
  8
DETAIL
  6
CONTINUOUS
 62
     5
 10
55.156500000000108
 20
169.14660000000001
 30
0.0
 11
55.156500000000108
 21
142.88159999999991
 31
0.0
  0
LINE
  8
DETAIL
  6
CONTINUOUS
 62
     5
 10
60.409500000000087
 20
169.14660000000001
 30
0.0
 11
60.409500000000087
 21
142.88159999999991
 31
0.0
  0
LINE
  8
DETAIL
  6
CONTINUOUS
 62
     5
 10
60.409500000000087
 20
203.81639999999999
 30
0.0
 11
60.409500000000087
 21
177.5514
 31
0.0
  0
LINE
  8
DETAIL
  6
CONTINUOUS
 62
     5
 10
55.156500000000108
 20
203.81639999999999
 30
0.0
 11
55.156500000000108
 21
177.5514
 31
0.0
  0
ARC
  8
DETAIL
  6
CONTINUOUS
 62
     5
 10
57.783000000000101
 20
177.5514
 30
0.0
 40
2.6265
 50
180.0
 51
0.0
  0
ARC
  8
DETAIL
  6
CONTINUOUS
 62
     5
 10
57.783000000000101
 20
203.81639999999999
 30
0.0
 40
2.6265
 50
0.0
 51
180.0
  0
ARC
  8
DETAIL
  6
CONTINUOUS
 62
     5
 10
-26.264999999999841
 20
203.81639999999999
 30
0.0
 40
2.6265
 50
0.0
 51
180.0
  0
ARC
  8
DETAIL
  6
CONTINUOUS
 62
     5
 10
-26.264999999999841
 20
177.5514
 30
0.0
 40
2.6265
 50
180.0
 51
0.0
  0
LINE
  8
DETAIL
  6
CONTINUOUS
 62
     5
 10
-28.891499999999869
 20
203.81639999999999
 30
0.0
 11
-28.891499999999869
 21
177.5514
 31
0.0
  0
LINE
  8
DETAIL
  6
CONTINUOUS
 62
     5
 10
-23.63849999999988
 20
203.81639999999999
 30
0.0
 11
-23.63849999999988
 21
177.5514
 31
0.0
  0
LINE
  8
DETAIL
  6
CONTINUOUS
 62
     5
 10
-23.63849999999988
 20
169.14660000000001
 30
0.0
 11
-23.63849999999988
 21
142.88159999999991
 31
0.0
  0
LINE
  8
DETAIL
  6
CONTINUOUS
 62
     5
 10
-28.891499999999869
 20
169.14660000000001
 30
0.0
 11
-28.891499999999869
 21
142.88159999999991
 31
0.0
  0
ARC
  8
DETAIL
  6
CONTINUOUS
 62
     5
 10
-26.264999999999841
 20
142.88159999999991
 30
0.0
 40
2.6265
 50
180.0
 51
0.0
  0
ARC
  8
DETAIL
  6
CONTINUOUS
 62
     5
 10
-26.264999999999841
 20
169.14660000000001
 30
0.0
 40
2.6265
 50
0.0
 51
180.0
  0
ARC
  8
DETAIL
  6
CONTINUOUS
 62
     5
 10
-26.264999999999841
 20
99.807000000000002
 30
0.0
 40
2.6265
 50
0.0
 51
180.0
  0
ARC
  8
DETAIL
  6
CONTINUOUS
 62
     5
 10
-26.264999999999841
 20
73.542000000000002
 30
0.0
 40
2.6265
 50
180.0
 51
0.0
  0
LINE
  8
DETAIL
  6
CONTINUOUS
 62
     5
 10
-28.891499999999869
 20
99.807000000000002
 30
0.0
 11
-28.891499999999869
 21
73.542000000000002
 31
0.0
  0
LINE
  8
DETAIL
  6
CONTINUOUS
 62
     5
 10
-23.63849999999988
 20
99.807000000000002
 30
0.0
 11
-23.63849999999988
 21
73.542000000000002
 31
0.0
  0
LINE
  8
DETAIL
  6
CONTINUOUS
 62
     5
 10
-23.63849999999988
 20
134.47679999999991
 30
0.0
 11
-23.63849999999988
 21
108.2117999999999
 31
0.0
  0
LINE
  8
DETAIL
  6
CONTINUOUS
 62
     5
 10
-28.891499999999869
 20
134.47679999999991
 30
0.0
 11
-28.891499999999869
 21
108.2117999999999
 31
0.0
  0
ARC
  8
DETAIL
  6
CONTINUOUS
 62
     5
 10
-26.264999999999841
 20
108.2117999999999
 30
0.0
 40
2.6265
 50
180.0
 51
0.0
  0
ARC
  8
DETAIL
  6
CONTINUOUS
 62
     5
 10
-26.264999999999841
 20
134.47679999999991
 30
0.0
 40
2.6265
 50
0.0
 51
180.0
  0
ARC
  8
DETAIL
  6
CONTINUOUS
 62
     5
 10
-26.264999999999841
 20
-4.202399999999999
 30
0.0
 40
2.6265
 50
0.0
 51
180.0
  0
ARC
  8
DETAIL
  6
CONTINUOUS
 62
     5
 10
-26.264999999999841
 20
-30.467399999999991
 30
0.0
 40
2.6265
 50
180.0
 51
0.0
  0
LINE
  8
DETAIL
  6
CONTINUOUS
 62
     5
 10
-28.891499999999869
 20
-4.202399999999999
 30
0.0
 11
-28.891499999999869
 21
-30.467399999999991
 31
0.0
  0
LINE
  8
DETAIL
  6
CONTINUOUS
 62
     5
 10
-23.63849999999988
 20
-4.202399999999999
 30
0.0
 11
-23.63849999999988
 21
-30.467399999999991
 31
0.0
  0
LINE
  8
DETAIL
  6
CONTINUOUS
 62
     5
 10
-23.63849999999988
 20
-38.872199999999999
 30
0.0
 11
-23.63849999999988
 21
-65.137200000000007
 31
0.0
  0
LINE
  8
DETAIL
  6
CONTINUOUS
 62
     5
 10
-28.891499999999869
 20
-38.872199999999999
 30
0.0
 11
-28.891499999999869
 21
-65.137200000000007
 31
0.0
  0
ARC
  8
DETAIL
  6
CONTINUOUS
 62
     5
 10
-26.264999999999841
 20
-65.137200000000007
 30
0.0
 40
2.6265
 50
180.0
 51
0.0
  0
ARC
  8
DETAIL
  6
CONTINUOUS
 62
     5
 10
-26.264999999999841
 20
-38.872199999999999
 30
0.0
 40
2.6265
 50
0.0
 51
180.0
  0
ARC
  8
DETAIL
  6
CONTINUOUS
 62
     5
 10
-26.264999999999841
 20
30.467400000000001
 30
0.0
 40
2.6265
 50
0.0
 51
180.0
  0
ARC
  8
DETAIL
  6
CONTINUOUS
 62
     5
 10
-26.264999999999841
 20
4.202399999999999
 30
0.0
 40
2.6265
 50
180.0
 51
0.0
  0
LINE
  8
DETAIL
  6
CONTINUOUS
 62
     5
 10
-28.891499999999869
 20
30.467400000000001
 30
0.0
 11
-28.891499999999869
 21
4.202399999999999
 31
0.0
  0
LINE
  8
DETAIL
  6
CONTINUOUS
 62
     5
 10
-23.63849999999988
 20
30.467400000000001
 30
0.0
 11
-23.63849999999988
 21
4.202399999999999
 31
0.0
  0
LINE
  8
DETAIL
  6
CONTINUOUS
 62
     5
 10
-23.63849999999988
 20
65.137200000000007
 30
0.0
 11
-23.63849999999988
 21
38.872199999999999
 31
0.0
  0
LINE
  8
DETAIL
  6
CONTINUOUS
 62
     5
 10
-28.891499999999869
 20
65.137200000000007
 30
0.0
 11
-28.891499999999869
 21
38.872199999999999
 31
0.0
  0
ARC
  8
DETAIL
  6
CONTINUOUS
 62
     5
 10
-26.264999999999841
 20
38.872199999999999
 30
0.0
 40
2.6265
 50
180.0
 51
0.0
  0
ARC
  8
DETAIL
  6
CONTINUOUS
 62
     5
 10
-26.264999999999841
 20
65.137200000000007
 30
0.0
 40
2.6265
 50
0.0
 51
180.0
  0
ARC
  8
DETAIL
  6
CONTINUOUS
 62
     5
 10
-26.264999999999841
 20
-108.2117999999999
 30
0.0
 40
2.6265
 50
0.0
 51
180.0
  0
ARC
  8
DETAIL
  6
CONTINUOUS
 62
     5
 10
-26.264999999999841
 20
-134.47679999999991
 30
0.0
 40
2.6265
 50
180.0
 51
0.0
  0
LINE
  8
DETAIL
  6
CONTINUOUS
 62
     5
 10
-28.891499999999869
 20
-108.2117999999999
 30
0.0
 11
-28.891499999999869
 21
-134.47679999999991
 31
0.0
  0
LINE
  8
DETAIL
  6
CONTINUOUS
 62
     5
 10
-23.63849999999988
 20
-108.2117999999999
 30
0.0
 11
-23.63849999999988
 21
-134.47679999999991
 31
0.0
  0
LINE
  8
DETAIL
  6
CONTINUOUS
 62
     5
 10
-23.63849999999988
 20
-142.88159999999991
 30
0.0
 11
-23.63849999999988
 21
-169.14660000000001
 31
0.0
  0
LINE
  8
DETAIL
  6
CONTINUOUS
 62
     5
 10
-28.891499999999869
 20
-142.88159999999991
 30
0.0
 11
-28.891499999999869
 21
-169.14660000000001
 31
0.0
  0
ARC
  8
DETAIL
  6
CONTINUOUS
 62
     5
 10
-26.264999999999841
 20
-169.14660000000001
 30
0.0
 40
2.6265
 50
180.0
 51
0.0
  0
ARC
  8
DETAIL
  6
CONTINUOUS
 62
     5
 10
-26.264999999999841
 20
-142.88159999999991
 30
0.0
 40
2.6265
 50
0.0
 51
180.0
  0
LINE
  8
DETAIL
  6
CONTINUOUS
 62
     5
 10
-23.63849999999988
 20
-177.5514
 30
0.0
 11
-23.63849999999988
 21
-203.81639999999999
 31
0.0
  0
LINE
  8
DETAIL
  6
CONTINUOUS
 62
     5
 10
-28.891499999999869
 20
-177.5514
 30
0.0
 11
-28.891499999999869
 21
-203.81639999999999
 31
0.0
  0
ARC
  8
DETAIL
  6
CONTINUOUS
 62
     5
 10
-26.264999999999841
 20
-203.81639999999999
 30
0.0
 40
2.6265
 50
180.0
 51
0.0
  0
ARC
  8
DETAIL
  6
CONTINUOUS
 62
     5
 10
-26.264999999999841
 20
-177.5514
 30
0.0
 40
2.6265
 50
0.0
 51
180.0
  0
LINE
  8
DETAIL
  6
CONTINUOUS
 62
     5
 10
-23.63849999999988
 20
-73.542000000000002
 30
0.0
 11
-23.63849999999988
 21
-99.807000000000002
 31
0.0
  0
LINE
  8
DETAIL
  6
CONTINUOUS
 62
     5
 10
-28.891499999999869
 20
-73.542000000000002
 30
0.0
 11
-28.891499999999869
 21
-99.807000000000002
 31
0.0
  0
ARC
  8
DETAIL
  6
CONTINUOUS
 62
     5
 10
-26.264999999999841
 20
-99.807000000000002
 30
0.0
 40
2.6265
 50
180.0
 51
0.0
  0
ARC
  8
DETAIL
  6
CONTINUOUS
 62
     5
 10
-26.264999999999841
 20
-73.542000000000002
 30
0.0
 40
2.6265
 50
0.0
 51
180.0
  0
ARC
  8
DETAIL
  6
CONTINUOUS
 62
     5
 10
-15.75899999999989
 20
-73.542000000000002
 30
0.0
 40
2.6265
 50
0.0
 51
180.0
  0
ARC
  8
DETAIL
  6
CONTINUOUS
 62
     5
 10
-15.75899999999989
 20
-99.807000000000002
 30
0.0
 40
2.6265
 50
180.0
 51
0.0
  0
LINE
  8
DETAIL
  6
CONTINUOUS
 62
     5
 10
-18.385499999999819
 20
-73.542000000000002
 30
0.0
 11
-18.385499999999819
 21
-99.807000000000002
 31
0.0
  0
LINE
  8
DETAIL
  6
CONTINUOUS
 62
     5
 10
-13.132499999999849
 20
-73.542000000000002
 30
0.0
 11
-13.132499999999849
 21
-99.807000000000002
 31
0.0
  0
ARC
  8
DETAIL
  6
CONTINUOUS
 62
     5
 10
-15.75899999999989
 20
-177.5514
 30
0.0
 40
2.6265
 50
0.0
 51
180.0
  0
ARC
  8
DETAIL
  6
CONTINUOUS
 62
     5
 10
-15.75899999999989
 20
-203.81639999999999
 30
0.0
 40
2.6265
 50
180.0
 51
0.0
  0
LINE
  8
DETAIL
  6
CONTINUOUS
 62
     5
 10
-18.385499999999819
 20
-177.5514
 30
0.0
 11
-18.385499999999819
 21
-203.81639999999999
 31
0.0
  0
LINE
  8
DETAIL
  6
CONTINUOUS
 62
     5
 10
-13.132499999999849
 20
-177.5514
 30
0.0
 11
-13.132499999999849
 21
-203.81639999999999
 31
0.0
  0
ARC
  8
DETAIL
  6
CONTINUOUS
 62
     5
 10
-15.75899999999989
 20
-142.88159999999991
 30
0.0
 40
2.6265
 50
0.0
 51
180.0
  0
ARC
  8
DETAIL
  6
CONTINUOUS
 62
     5
 10
-15.75899999999989
 20
-169.14660000000001
 30
0.0
 40
2.6265
 50
180.0
 51
0.0
  0
LINE
  8
DETAIL
  6
CONTINUOUS
 62
     5
 10
-18.385499999999819
 20
-142.88159999999991
 30
0.0
 11
-18.385499999999819
 21
-169.14660000000001
 31
0.0
  0
LINE
  8
DETAIL
  6
CONTINUOUS
 62
     5
 10
-13.132499999999849
 20
-142.88159999999991
 30
0.0
 11
-13.132499999999849
 21
-169.14660000000001
 31
0.0
  0
LINE
  8
DETAIL
  6
CONTINUOUS
 62
     5
 10
-13.132499999999849
 20
-108.2117999999999
 30
0.0
 11
-13.132499999999849
 21
-134.47679999999991
 31
0.0
  0
LINE
  8
DETAIL
  6
CONTINUOUS
 62
     5
 10
-18.385499999999819
 20
-108.2117999999999
 30
0.0
 11
-18.385499999999819
 21
-134.47679999999991
 31
0.0
  0
ARC
  8
DETAIL
  6
CONTINUOUS
 62
     5
 10
-15.75899999999989
 20
-134.47679999999991
 30
0.0
 40
2.6265
 50
180.0
 51
0.0
  0
ARC
  8
DETAIL
  6
CONTINUOUS
 62
     5
 10
-15.75899999999989
 20
-108.2117999999999
 30
0.0
 40
2.6265
 50
0.0
 51
180.0
  0
ARC
  8
DETAIL
  6
CONTINUOUS
 62
     5
 10
-15.75899999999989
 20
65.137200000000007
 30
0.0
 40
2.6265
 50
0.0
 51
180.0
  0
ARC
  8
DETAIL
  6
CONTINUOUS
 62
     5
 10
-15.75899999999989
 20
38.872199999999999
 30
0.0
 40
2.6265
 50
180.0
 51
0.0
  0
LINE
  8
DETAIL
  6
CONTINUOUS
 62
     5
 10
-18.385499999999819
 20
65.137200000000007
 30
0.0
 11
-18.385499999999819
 21
38.872199999999999
 31
0.0
  0
LINE
  8
DETAIL
  6
CONTINUOUS
 62
     5
 10
-13.132499999999849
 20
65.137200000000007
 30
0.0
 11
-13.132499999999849
 21
38.872199999999999
 31
0.0
  0
LINE
  8
DETAIL
  6
CONTINUOUS
 62
     5
 10
-13.132499999999849
 20
30.467400000000001
 30
0.0
 11
-13.132499999999849
 21
4.202399999999999
 31
0.0
  0
LINE
  8
DETAIL
  6
CONTINUOUS
 62
     5
 10
-18.385499999999819
 20
30.467400000000001
 30
0.0
 11
-18.385499999999819
 21
4.202399999999999
 31
0.0
  0
ARC
  8
DETAIL
  6
CONTINUOUS
 62
     5
 10
-15.75899999999989
 20
4.202399999999999
 30
0.0
 40
2.6265
 50
180.0
 51
0.0
  0
ARC
  8
DETAIL
  6
CONTINUOUS
 62
     5
 10
-15.75899999999989
 20
30.467400000000001
 30
0.0
 40
2.6265
 50
0.0
 51
180.0
  0
ARC
  8
DETAIL
  6
CONTINUOUS
 62
     5
 10
-15.75899999999989
 20
-38.872199999999999
 30
0.0
 40
2.6265
 50
0.0
 51
180.0
  0
ARC
  8
DETAIL
  6
CONTINUOUS
 62
     5
 10
-15.75899999999989
 20
-65.137200000000007
 30
0.0
 40
2.6265
 50
180.0
 51
0.0
  0
LINE
  8
DETAIL
  6
CONTINUOUS
 62
     5
 10
-18.385499999999819
 20
-38.872199999999999
 30
0.0
 11
-18.385499999999819
 21
-65.137200000000007
 31
0.0
  0
LINE
  8
DETAIL
  6
CONTINUOUS
 62
     5
 10
-13.132499999999849
 20
-38.872199999999999
 30
0.0
 11
-13.132499999999849
 21
-65.137200000000007
 31
0.0
  0
LINE
  8
DETAIL
  6
CONTINUOUS
 62
     5
 10
-13.132499999999849
 20
-4.202399999999999
 30
0.0
 11
-13.132499999999849
 21
-30.467399999999991
 31
0.0
  0
LINE
  8
DETAIL
  6
CONTINUOUS
 62
     5
 10
-18.385499999999819
 20
-4.202399999999999
 30
0.0
 11
-18.385499999999819
 21
-30.467399999999991
 31
0.0
  0
ARC
  8
DETAIL
  6
CONTINUOUS
 62
     5
 10
-15.75899999999989
 20
-30.467399999999991
 30
0.0
 40
2.6265
 50
180.0
 51
0.0
  0
ARC
  8
DETAIL
  6
CONTINUOUS
 62
     5
 10
-15.75899999999989
 20
-4.202399999999999
 30
0.0
 40
2.6265
 50
0.0
 51
180.0
  0
ARC
  8
DETAIL
  6
CONTINUOUS
 62
     5
 10
-15.75899999999989
 20
134.47679999999991
 30
0.0
 40
2.6265
 50
0.0
 51
180.0
  0
ARC
  8
DETAIL
  6
CONTINUOUS
 62
     5
 10
-15.75899999999989
 20
108.2117999999999
 30
0.0
 40
2.6265
 50
180.0
 51
0.0
  0
LINE
  8
DETAIL
  6
CONTINUOUS
 62
     5
 10
-18.385499999999819
 20
134.47679999999991
 30
0.0
 11
-18.385499999999819
 21
108.2117999999999
 31
0.0
  0
LINE
  8
DETAIL
  6
CONTINUOUS
 62
     5
 10
-13.132499999999849
 20
134.47679999999991
 30
0.0
 11
-13.132499999999849
 21
108.2117999999999
 31
0.0
  0
LINE
  8
DETAIL
  6
CONTINUOUS
 62
     5
 10
-13.132499999999849
 20
99.807000000000002
 30
0.0
 11
-13.132499999999849
 21
73.542000000000002
 31
0.0
  0
LINE
  8
DETAIL
  6
CONTINUOUS
 62
     5
 10
-18.385499999999819
 20
99.807000000000002
 30
0.0
 11
-18.385499999999819
 21
73.542000000000002
 31
0.0
  0
ARC
  8
DETAIL
  6
CONTINUOUS
 62
     5
 10
-15.75899999999989
 20
73.542000000000002
 30
0.0
 40
2.6265
 50
180.0
 51
0.0
  0
ARC
  8
DETAIL
  6
CONTINUOUS
 62
     5
 10
-15.75899999999989
 20
99.807000000000002
 30
0.0
 40
2.6265
 50
0.0
 51
180.0
  0
ARC
  8
DETAIL
  6
CONTINUOUS
 62
     5
 10
-15.75899999999989
 20
169.14660000000001
 30
0.0
 40
2.6265
 50
0.0
 51
180.0
  0
ARC
  8
DETAIL
  6
CONTINUOUS
 62
     5
 10
-15.75899999999989
 20
142.88159999999991
 30
0.0
 40
2.6265
 50
180.0
 51
0.0
  0
LINE
  8
DETAIL
  6
CONTINUOUS
 62
     5
 10
-18.385499999999819
 20
169.14660000000001
 30
0.0
 11
-18.385499999999819
 21
142.88159999999991
 31
0.0
  0
LINE
  8
DETAIL
  6
CONTINUOUS
 62
     5
 10
-13.132499999999849
 20
169.14660000000001
 30
0.0
 11
-13.132499999999849
 21
142.88159999999991
 31
0.0
  0
LINE
  8
DETAIL
  6
CONTINUOUS
 62
     5
 10
-13.132499999999849
 20
203.81639999999999
 30
0.0
 11
-13.132499999999849
 21
177.5514
 31
0.0
  0
LINE
  8
DETAIL
  6
CONTINUOUS
 62
     5
 10
-18.385499999999819
 20
203.81639999999999
 30
0.0
 11
-18.385499999999819
 21
177.5514
 31
0.0
  0
ARC
  8
DETAIL
  6
CONTINUOUS
 62
     5
 10
-15.75899999999989
 20
177.5514
 30
0.0
 40
2.6265
 50
180.0
 51
0.0
  0
ARC
  8
DETAIL
  6
CONTINUOUS
 62
     5
 10
-15.75899999999989
 20
203.81639999999999
 30
0.0
 40
2.6265
 50
0.0
 51
180.0
  0
ARC
  8
DETAIL
  6
CONTINUOUS
 62
     5
 10
5.253
 20
203.81639999999999
 30
0.0
 40
2.6265
 50
0.0
 51
180.0
  0
ARC
  8
DETAIL
  6
CONTINUOUS
 62
     5
 10
5.253
 20
177.5514
 30
0.0
 40
2.6265
 50
180.0
 51
0.0
  0
LINE
  8
DETAIL
  6
CONTINUOUS
 62
     5
 10
2.626500000000007
 20
203.81639999999999
 30
0.0
 11
2.626500000000007
 21
177.5514
 31
0.0
  0
LINE
  8
DETAIL
  6
CONTINUOUS
 62
     5
 10
7.879500000000007
 20
203.81639999999999
 30
0.0
 11
7.879500000000007
 21
177.5514
 31
0.0
  0
LINE
  8
DETAIL
  6
CONTINUOUS
 62
     5
 10
7.879500000000007
 20
169.14660000000001
 30
0.0
 11
7.879500000000007
 21
142.88159999999991
 31
0.0
  0
LINE
  8
DETAIL
  6
CONTINUOUS
 62
     5
 10
2.626500000000007
 20
169.14660000000001
 30
0.0
 11
2.626500000000007
 21
142.88159999999991
 31
0.0
  0
ARC
  8
DETAIL
  6
CONTINUOUS
 62
     5
 10
5.253
 20
142.88159999999991
 30
0.0
 40
2.6265
 50
180.0
 51
0.0
  0
ARC
  8
DETAIL
  6
CONTINUOUS
 62
     5
 10
5.253
 20
169.14660000000001
 30
0.0
 40
2.6265
 50
0.0
 51
180.0
  0
ARC
  8
DETAIL
  6
CONTINUOUS
 62
     5
 10
5.253
 20
99.807000000000002
 30
0.0
 40
2.6265
 50
0.0
 51
180.0
  0
ARC
  8
DETAIL
  6
CONTINUOUS
 62
     5
 10
5.253
 20
73.542000000000002
 30
0.0
 40
2.6265
 50
180.0
 51
0.0
  0
LINE
  8
DETAIL
  6
CONTINUOUS
 62
     5
 10
2.626500000000007
 20
99.807000000000002
 30
0.0
 11
2.626500000000007
 21
73.542000000000002
 31
0.0
  0
LINE
  8
DETAIL
  6
CONTINUOUS
 62
     5
 10
7.879500000000007
 20
99.807000000000002
 30
0.0
 11
7.879500000000007
 21
73.542000000000002
 31
0.0
  0
LINE
  8
DETAIL
  6
CONTINUOUS
 62
     5
 10
7.879500000000007
 20
134.47679999999991
 30
0.0
 11
7.879500000000007
 21
108.2117999999999
 31
0.0
  0
LINE
  8
DETAIL
  6
CONTINUOUS
 62
     5
 10
2.626500000000007
 20
134.47679999999991
 30
0.0
 11
2.626500000000007
 21
108.2117999999999
 31
0.0
  0
ARC
  8
DETAIL
  6
CONTINUOUS
 62
     5
 10
5.253
 20
108.2117999999999
 30
0.0
 40
2.6265
 50
180.0
 51
0.0
  0
ARC
  8
DETAIL
  6
CONTINUOUS
 62
     5
 10
5.253
 20
134.47679999999991
 30
0.0
 40
2.6265
 50
0.0
 51
180.0
  0
ARC
  8
DETAIL
  6
CONTINUOUS
 62
     5
 10
5.253
 20
-4.202399999999999
 30
0.0
 40
2.6265
 50
0.0
 51
180.0
  0
ARC
  8
DETAIL
  6
CONTINUOUS
 62
     5
 10
5.253
 20
-30.467399999999991
 30
0.0
 40
2.6265
 50
180.0
 51
0.0
  0
LINE
  8
DETAIL
  6
CONTINUOUS
 62
     5
 10
2.626500000000007
 20
-4.202399999999999
 30
0.0
 11
2.626500000000007
 21
-30.467399999999991
 31
0.0
  0
LINE
  8
DETAIL
  6
CONTINUOUS
 62
     5
 10
7.879500000000007
 20
-4.202399999999999
 30
0.0
 11
7.879500000000007
 21
-30.467399999999991
 31
0.0
  0
LINE
  8
DETAIL
  6
CONTINUOUS
 62
     5
 10
7.879500000000007
 20
-38.872199999999999
 30
0.0
 11
7.879500000000007
 21
-65.137200000000007
 31
0.0
  0
LINE
  8
DETAIL
  6
CONTINUOUS
 62
     5
 10
2.626500000000007
 20
-38.872199999999999
 30
0.0
 11
2.626500000000007
 21
-65.137200000000007
 31
0.0
  0
ARC
  8
DETAIL
  6
CONTINUOUS
 62
     5
 10
5.253
 20
-65.137200000000007
 30
0.0
 40
2.6265
 50
180.0
 51
0.0
  0
ARC
  8
DETAIL
  6
CONTINUOUS
 62
     5
 10
5.253
 20
-38.872199999999999
 30
0.0
 40
2.6265
 50
0.0
 51
180.0
  0
ARC
  8
DETAIL
  6
CONTINUOUS
 62
     5
 10
5.253
 20
30.467400000000001
 30
0.0
 40
2.6265
 50
0.0
 51
180.0
  0
ARC
  8
DETAIL
  6
CONTINUOUS
 62
     5
 10
5.253
 20
4.202399999999999
 30
0.0
 40
2.6265
 50
180.0
 51
0.0
  0
LINE
  8
DETAIL
  6
CONTINUOUS
 62
     5
 10
2.626500000000007
 20
30.467400000000001
 30
0.0
 11
2.626500000000007
 21
4.202399999999999
 31
0.0
  0
LINE
  8
DETAIL
  6
CONTINUOUS
 62
     5
 10
7.879500000000007
 20
30.467400000000001
 30
0.0
 11
7.879500000000007
 21
4.202399999999999
 31
0.0
  0
LINE
  8
DETAIL
  6
CONTINUOUS
 62
     5
 10
7.879500000000007
 20
65.137200000000007
 30
0.0
 11
7.879500000000007
 21
38.872199999999999
 31
0.0
  0
LINE
  8
DETAIL
  6
CONTINUOUS
 62
     5
 10
2.626500000000007
 20
65.137200000000007
 30
0.0
 11
2.626500000000007
 21
38.872199999999999
 31
0.0
  0
ARC
  8
DETAIL
  6
CONTINUOUS
 62
     5
 10
5.253
 20
38.872199999999999
 30
0.0
 40
2.6265
 50
180.0
 51
0.0
  0
ARC
  8
DETAIL
  6
CONTINUOUS
 62
     5
 10
5.253
 20
65.137200000000007
 30
0.0
 40
2.6265
 50
0.0
 51
180.0
  0
ARC
  8
DETAIL
  6
CONTINUOUS
 62
     5
 10
5.253
 20
-108.2117999999999
 30
0.0
 40
2.6265
 50
0.0
 51
180.0
  0
ARC
  8
DETAIL
  6
CONTINUOUS
 62
     5
 10
5.253
 20
-134.47679999999991
 30
0.0
 40
2.6265
 50
180.0
 51
0.0
  0
LINE
  8
DETAIL
  6
CONTINUOUS
 62
     5
 10
2.626500000000007
 20
-108.2117999999999
 30
0.0
 11
2.626500000000007
 21
-134.47679999999991
 31
0.0
  0
LINE
  8
DETAIL
  6
CONTINUOUS
 62
     5
 10
7.879500000000007
 20
-108.2117999999999
 30
0.0
 11
7.879500000000007
 21
-134.47679999999991
 31
0.0
  0
LINE
  8
DETAIL
  6
CONTINUOUS
 62
     5
 10
7.879500000000007
 20
-142.88159999999991
 30
0.0
 11
7.879500000000007
 21
-169.14660000000001
 31
0.0
  0
LINE
  8
DETAIL
  6
CONTINUOUS
 62
     5
 10
2.626500000000007
 20
-142.88159999999991
 30
0.0
 11
2.626500000000007
 21
-169.14660000000001
 31
0.0
  0
ARC
  8
DETAIL
  6
CONTINUOUS
 62
     5
 10
5.253
 20
-169.14660000000001
 30
0.0
 40
2.6265
 50
180.0
 51
0.0
  0
ARC
  8
DETAIL
  6
CONTINUOUS
 62
     5
 10
5.253
 20
-142.88159999999991
 30
0.0
 40
2.6265
 50
0.0
 51
180.0
  0
LINE
  8
DETAIL
  6
CONTINUOUS
 62
     5
 10
7.879500000000007
 20
-177.5514
 30
0.0
 11
7.879500000000007
 21
-203.81639999999999
 31
0.0
  0
LINE
  8
DETAIL
  6
CONTINUOUS
 62
     5
 10
2.626500000000007
 20
-177.5514
 30
0.0
 11
2.626500000000007
 21
-203.81639999999999
 31
0.0
  0
ARC
  8
DETAIL
  6
CONTINUOUS
 62
     5
 10
5.253
 20
-203.81639999999999
 30
0.0
 40
2.6265
 50
180.0
 51
0.0
  0
ARC
  8
DETAIL
  6
CONTINUOUS
 62
     5
 10
5.253
 20
-177.5514
 30
0.0
 40
2.6265
 50
0.0
 51
180.0
  0
LINE
  8
DETAIL
  6
CONTINUOUS
 62
     5
 10
7.879500000000007
 20
-73.542000000000002
 30
0.0
 11
7.879500000000007
 21
-99.807000000000002
 31
0.0
  0
LINE
  8
DETAIL
  6
CONTINUOUS
 62
     5
 10
2.626500000000007
 20
-73.542000000000002
 30
0.0
 11
2.626500000000007
 21
-99.807000000000002
 31
0.0
  0
ARC
  8
DETAIL
  6
CONTINUOUS
 62
     5
 10
5.253
 20
-99.807000000000002
 30
0.0
 40
2.6265
 50
180.0
 51
0.0
  0
ARC
  8
DETAIL
  6
CONTINUOUS
 62
     5
 10
5.253
 20
-73.542000000000002
 30
0.0
 40
2.6265
 50
0.0
 51
180.0
  0
ARC
  8
DETAIL
  6
CONTINUOUS
 62
     5
 10
-5.252999999999901
 20
-73.542000000000002
 30
0.0
 40
2.6265
 50
0.0
 51
180.0
  0
ARC
  8
DETAIL
  6
CONTINUOUS
 62
     5
 10
-5.252999999999901
 20
-99.807000000000002
 30
0.0
 40
2.6265
 50
180.0
 51
0.0
  0
LINE
  8
DETAIL
  6
CONTINUOUS
 62
     5
 10
-7.879499999999851
 20
-73.542000000000002
 30
0.0
 11
-7.879499999999851
 21
-99.807000000000002
 31
0.0
  0
LINE
  8
DETAIL
  6
CONTINUOUS
 62
     5
 10
-2.626499999999908
 20
-73.542000000000002
 30
0.0
 11
-2.626499999999908
 21
-99.807000000000002
 31
0.0
  0
ARC
  8
DETAIL
  6
CONTINUOUS
 62
     5
 10
-5.252999999999901
 20
-177.5514
 30
0.0
 40
2.6265
 50
0.0
 51
180.0
  0
ARC
  8
DETAIL
  6
CONTINUOUS
 62
     5
 10
-5.252999999999901
 20
-203.81639999999999
 30
0.0
 40
2.6265
 50
180.0
 51
0.0
  0
LINE
  8
DETAIL
  6
CONTINUOUS
 62
     5
 10
-7.879499999999851
 20
-177.5514
 30
0.0
 11
-7.879499999999851
 21
-203.81639999999999
 31
0.0
  0
LINE
  8
DETAIL
  6
CONTINUOUS
 62
     5
 10
-2.626499999999908
 20
-177.5514
 30
0.0
 11
-2.626499999999908
 21
-203.81639999999999
 31
0.0
  0
ARC
  8
DETAIL
  6
CONTINUOUS
 62
     5
 10
-5.252999999999901
 20
-142.88159999999991
 30
0.0
 40
2.6265
 50
0.0
 51
180.0
  0
ARC
  8
DETAIL
  6
CONTINUOUS
 62
     5
 10
-5.252999999999901
 20
-169.14660000000001
 30
0.0
 40
2.6265
 50
180.0
 51
0.0
  0
LINE
  8
DETAIL
  6
CONTINUOUS
 62
     5
 10
-7.879499999999851
 20
-142.88159999999991
 30
0.0
 11
-7.879499999999851
 21
-169.14660000000001
 31
0.0
  0
LINE
  8
DETAIL
  6
CONTINUOUS
 62
     5
 10
-2.626499999999908
 20
-142.88159999999991
 30
0.0
 11
-2.626499999999908
 21
-169.14660000000001
 31
0.0
  0
LINE
  8
DETAIL
  6
CONTINUOUS
 62
     5
 10
-2.626499999999908
 20
-108.2117999999999
 30
0.0
 11
-2.626499999999908
 21
-134.47679999999991
 31
0.0
  0
LINE
  8
DETAIL
  6
CONTINUOUS
 62
     5
 10
-7.879499999999851
 20
-108.2117999999999
 30
0.0
 11
-7.879499999999851
 21
-134.47679999999991
 31
0.0
  0
ARC
  8
DETAIL
  6
CONTINUOUS
 62
     5
 10
-5.252999999999901
 20
-134.47679999999991
 30
0.0
 40
2.6265
 50
180.0
 51
0.0
  0
ARC
  8
DETAIL
  6
CONTINUOUS
 62
     5
 10
-5.252999999999901
 20
-108.2117999999999
 30
0.0
 40
2.6265
 50
0.0
 51
180.0
  0
ARC
  8
DETAIL
  6
CONTINUOUS
 62
     5
 10
-5.252999999999901
 20
65.137200000000007
 30
0.0
 40
2.6265
 50
0.0
 51
180.0
  0
ARC
  8
DETAIL
  6
CONTINUOUS
 62
     5
 10
-5.252999999999901
 20
38.872199999999999
 30
0.0
 40
2.6265
 50
180.0
 51
0.0
  0
LINE
  8
DETAIL
  6
CONTINUOUS
 62
     5
 10
-7.879499999999851
 20
65.137200000000007
 30
0.0
 11
-7.879499999999851
 21
38.872199999999999
 31
0.0
  0
LINE
  8
DETAIL
  6
CONTINUOUS
 62
     5
 10
-2.626499999999908
 20
65.137200000000007
 30
0.0
 11
-2.626499999999908
 21
38.872199999999999
 31
0.0
  0
LINE
  8
DETAIL
  6
CONTINUOUS
 62
     5
 10
-2.626499999999908
 20
30.467400000000001
 30
0.0
 11
-2.626499999999908
 21
4.202399999999999
 31
0.0
  0
LINE
  8
DETAIL
  6
CONTINUOUS
 62
     5
 10
-7.879499999999851
 20
30.467400000000001
 30
0.0
 11
-7.879499999999851
 21
4.202399999999999
 31
0.0
  0
ARC
  8
DETAIL
  6
CONTINUOUS
 62
     5
 10
-5.252999999999901
 20
4.202399999999999
 30
0.0
 40
2.6265
 50
180.0
 51
0.0
  0
ARC
  8
DETAIL
  6
CONTINUOUS
 62
     5
 10
-5.252999999999901
 20
30.467400000000001
 30
0.0
 40
2.6265
 50
0.0
 51
180.0
  0
ARC
  8
DETAIL
  6
CONTINUOUS
 62
     5
 10
-5.252999999999901
 20
-38.872199999999999
 30
0.0
 40
2.6265
 50
0.0
 51
180.0
  0
ARC
  8
DETAIL
  6
CONTINUOUS
 62
     5
 10
-5.252999999999901
 20
-65.137200000000007
 30
0.0
 40
2.6265
 50
180.0
 51
0.0
  0
LINE
  8
DETAIL
  6
CONTINUOUS
 62
     5
 10
-7.879499999999851
 20
-38.872199999999999
 30
0.0
 11
-7.879499999999851
 21
-65.137200000000007
 31
0.0
  0
LINE
  8
DETAIL
  6
CONTINUOUS
 62
     5
 10
-2.626499999999908
 20
-38.872199999999999
 30
0.0
 11
-2.626499999999908
 21
-65.137200000000007
 31
0.0
  0
LINE
  8
DETAIL
  6
CONTINUOUS
 62
     5
 10
-2.626499999999908
 20
-4.202399999999999
 30
0.0
 11
-2.626499999999908
 21
-30.467399999999991
 31
0.0
  0
LINE
  8
DETAIL
  6
CONTINUOUS
 62
     5
 10
-7.879499999999851
 20
-4.202399999999999
 30
0.0
 11
-7.879499999999851
 21
-30.467399999999991
 31
0.0
  0
ARC
  8
DETAIL
  6
CONTINUOUS
 62
     5
 10
-5.252999999999901
 20
-30.467399999999991
 30
0.0
 40
2.6265
 50
180.0
 51
0.0
  0
ARC
  8
DETAIL
  6
CONTINUOUS
 62
     5
 10
-5.252999999999901
 20
-4.202399999999999
 30
0.0
 40
2.6265
 50
0.0
 51
180.0
  0
ARC
  8
DETAIL
  6
CONTINUOUS
 62
     5
 10
-5.252999999999901
 20
134.47679999999991
 30
0.0
 40
2.6265
 50
0.0
 51
180.0
  0
ARC
  8
DETAIL
  6
CONTINUOUS
 62
     5
 10
-5.252999999999901
 20
108.2117999999999
 30
0.0
 40
2.6265
 50
180.0
 51
0.0
  0
LINE
  8
DETAIL
  6
CONTINUOUS
 62
     5
 10
-7.879499999999851
 20
134.47679999999991
 30
0.0
 11
-7.879499999999851
 21
108.2117999999999
 31
0.0
  0
LINE
  8
DETAIL
  6
CONTINUOUS
 62
     5
 10
-2.626499999999908
 20
134.47679999999991
 30
0.0
 11
-2.626499999999908
 21
108.2117999999999
 31
0.0
  0
LINE
  8
DETAIL
  6
CONTINUOUS
 62
     5
 10
-2.626499999999908
 20
99.807000000000002
 30
0.0
 11
-2.626499999999908
 21
73.542000000000002
 31
0.0
  0
LINE
  8
DETAIL
  6
CONTINUOUS
 62
     5
 10
-7.879499999999851
 20
99.807000000000002
 30
0.0
 11
-7.879499999999851
 21
73.542000000000002
 31
0.0
  0
ARC
  8
DETAIL
  6
CONTINUOUS
 62
     5
 10
-5.252999999999901
 20
73.542000000000002
 30
0.0
 40
2.6265
 50
180.0
 51
0.0
  0
ARC
  8
DETAIL
  6
CONTINUOUS
 62
     5
 10
-5.252999999999901
 20
99.807000000000002
 30
0.0
 40
2.6265
 50
0.0
 51
180.0
  0
ARC
  8
DETAIL
  6
CONTINUOUS
 62
     5
 10
-5.252999999999901
 20
169.14660000000001
 30
0.0
 40
2.6265
 50
0.0
 51
180.0
  0
ARC
  8
DETAIL
  6
CONTINUOUS
 62
     5
 10
-5.252999999999901
 20
142.88159999999991
 30
0.0
 40
2.6265
 50
180.0
 51
0.0
  0
LINE
  8
DETAIL
  6
CONTINUOUS
 62
     5
 10
-7.879499999999851
 20
169.14660000000001
 30
0.0
 11
-7.879499999999851
 21
142.88159999999991
 31
0.0
  0
LINE
  8
DETAIL
  6
CONTINUOUS
 62
     5
 10
-2.626499999999908
 20
169.14660000000001
 30
0.0
 11
-2.626499999999908
 21
142.88159999999991
 31
0.0
  0
LINE
  8
DETAIL
  6
CONTINUOUS
 62
     5
 10
-2.626499999999908
 20
203.81639999999999
 30
0.0
 11
-2.626499999999908
 21
177.5514
 31
0.0
  0
LINE
  8
DETAIL
  6
CONTINUOUS
 62
     5
 10
-7.879499999999851
 20
203.81639999999999
 30
0.0
 11
-7.879499999999851
 21
177.5514
 31
0.0
  0
ARC
  8
DETAIL
  6
CONTINUOUS
 62
     5
 10
-5.252999999999901
 20
177.5514
 30
0.0
 40
2.6265
 50
180.0
 51
0.0
  0
ARC
  8
DETAIL
  6
CONTINUOUS
 62
     5
 10
-5.252999999999901
 20
203.81639999999999
 30
0.0
 40
2.6265
 50
0.0
 51
180.0
  0
ARC
  8
DETAIL
  6
CONTINUOUS
 62
     5
 10
-47.276999999999838
 20
203.81639999999999
 30
0.0
 40
2.6265
 50
0.0
 51
180.0
  0
ARC
  8
DETAIL
  6
CONTINUOUS
 62
     5
 10
-47.276999999999838
 20
177.5514
 30
0.0
 40
2.6265
 50
180.0
 51
0.0
  0
LINE
  8
DETAIL
  6
CONTINUOUS
 62
     5
 10
-49.903499999999873
 20
203.81639999999999
 30
0.0
 11
-49.903499999999873
 21
177.5514
 31
0.0
  0
LINE
  8
DETAIL
  6
CONTINUOUS
 62
     5
 10
-44.650499999999873
 20
203.81639999999999
 30
0.0
 11
-44.650499999999873
 21
177.5514
 31
0.0
  0
LINE
  8
DETAIL
  6
CONTINUOUS
 62
     5
 10
-44.650499999999873
 20
169.14660000000001
 30
0.0
 11
-44.650499999999873
 21
142.88159999999991
 31
0.0
  0
LINE
  8
DETAIL
  6
CONTINUOUS
 62
     5
 10
-49.903499999999873
 20
169.14660000000001
 30
0.0
 11
-49.903499999999873
 21
142.88159999999991
 31
0.0
  0
ARC
  8
DETAIL
  6
CONTINUOUS
 62
     5
 10
-47.276999999999838
 20
142.88159999999991
 30
0.0
 40
2.6265
 50
180.0
 51
0.0
  0
ARC
  8
DETAIL
  6
CONTINUOUS
 62
     5
 10
-47.276999999999838
 20
169.14660000000001
 30
0.0
 40
2.6265
 50
0.0
 51
180.0
  0
ARC
  8
DETAIL
  6
CONTINUOUS
 62
     5
 10
-47.276999999999838
 20
99.807000000000002
 30
0.0
 40
2.6265
 50
0.0
 51
180.0
  0
ARC
  8
DETAIL
  6
CONTINUOUS
 62
     5
 10
-47.276999999999838
 20
73.542000000000002
 30
0.0
 40
2.6265
 50
180.0
 51
0.0
  0
LINE
  8
DETAIL
  6
CONTINUOUS
 62
     5
 10
-49.903499999999873
 20
99.807000000000002
 30
0.0
 11
-49.903499999999873
 21
73.542000000000002
 31
0.0
  0
LINE
  8
DETAIL
  6
CONTINUOUS
 62
     5
 10
-44.650499999999873
 20
99.807000000000002
 30
0.0
 11
-44.650499999999873
 21
73.542000000000002
 31
0.0
  0
LINE
  8
DETAIL
  6
CONTINUOUS
 62
     5
 10
-44.650499999999873
 20
134.47679999999991
 30
0.0
 11
-44.650499999999873
 21
108.2117999999999
 31
0.0
  0
LINE
  8
DETAIL
  6
CONTINUOUS
 62
     5
 10
-49.903499999999873
 20
134.47679999999991
 30
0.0
 11
-49.903499999999873
 21
108.2117999999999
 31
0.0
  0
ARC
  8
DETAIL
  6
CONTINUOUS
 62
     5
 10
-47.276999999999838
 20
108.2117999999999
 30
0.0
 40
2.6265
 50
180.0
 51
0.0
  0
ARC
  8
DETAIL
  6
CONTINUOUS
 62
     5
 10
-47.276999999999838
 20
134.47679999999991
 30
0.0
 40
2.6265
 50
0.0
 51
180.0
  0
ARC
  8
DETAIL
  6
CONTINUOUS
 62
     5
 10
-47.276999999999838
 20
-4.202399999999999
 30
0.0
 40
2.6265
 50
0.0
 51
180.0
  0
ARC
  8
DETAIL
  6
CONTINUOUS
 62
     5
 10
-47.276999999999838
 20
-30.467399999999991
 30
0.0
 40
2.6265
 50
180.0
 51
0.0
  0
LINE
  8
DETAIL
  6
CONTINUOUS
 62
     5
 10
-49.903499999999873
 20
-4.202399999999999
 30
0.0
 11
-49.903499999999873
 21
-30.467399999999991
 31
0.0
  0
LINE
  8
DETAIL
  6
CONTINUOUS
 62
     5
 10
-44.650499999999873
 20
-4.202399999999999
 30
0.0
 11
-44.650499999999873
 21
-30.467399999999991
 31
0.0
  0
LINE
  8
DETAIL
  6
CONTINUOUS
 62
     5
 10
-44.650499999999873
 20
-38.872199999999999
 30
0.0
 11
-44.650499999999873
 21
-65.137200000000007
 31
0.0
  0
LINE
  8
DETAIL
  6
CONTINUOUS
 62
     5
 10
-49.903499999999873
 20
-38.872199999999999
 30
0.0
 11
-49.903499999999873
 21
-65.137200000000007
 31
0.0
  0
ARC
  8
DETAIL
  6
CONTINUOUS
 62
     5
 10
-47.276999999999838
 20
-65.137200000000007
 30
0.0
 40
2.6265
 50
180.0
 51
0.0
  0
ARC
  8
DETAIL
  6
CONTINUOUS
 62
     5
 10
-47.276999999999838
 20
-38.872199999999999
 30
0.0
 40
2.6265
 50
0.0
 51
180.0
  0
ARC
  8
DETAIL
  6
CONTINUOUS
 62
     5
 10
-47.276999999999838
 20
30.467400000000001
 30
0.0
 40
2.6265
 50
0.0
 51
180.0
  0
ARC
  8
DETAIL
  6
CONTINUOUS
 62
     5
 10
-47.276999999999838
 20
4.202399999999999
 30
0.0
 40
2.6265
 50
180.0
 51
0.0
  0
LINE
  8
DETAIL
  6
CONTINUOUS
 62
     5
 10
-49.903499999999873
 20
30.467400000000001
 30
0.0
 11
-49.903499999999873
 21
4.202399999999999
 31
0.0
  0
LINE
  8
DETAIL
  6
CONTINUOUS
 62
     5
 10
-44.650499999999873
 20
30.467400000000001
 30
0.0
 11
-44.650499999999873
 21
4.202399999999999
 31
0.0
  0
LINE
  8
DETAIL
  6
CONTINUOUS
 62
     5
 10
-44.650499999999873
 20
65.137200000000007
 30
0.0
 11
-44.650499999999873
 21
38.872199999999999
 31
0.0
  0
LINE
  8
DETAIL
  6
CONTINUOUS
 62
     5
 10
-49.903499999999873
 20
65.137200000000007
 30
0.0
 11
-49.903499999999873
 21
38.872199999999999
 31
0.0
  0
ARC
  8
DETAIL
  6
CONTINUOUS
 62
     5
 10
-47.276999999999838
 20
38.872199999999999
 30
0.0
 40
2.6265
 50
180.0
 51
0.0
  0
ARC
  8
DETAIL
  6
CONTINUOUS
 62
     5
 10
-47.276999999999838
 20
65.137200000000007
 30
0.0
 40
2.6265
 50
0.0
 51
180.0
  0
ARC
  8
DETAIL
  6
CONTINUOUS
 62
     5
 10
-47.276999999999838
 20
-108.2117999999999
 30
0.0
 40
2.6265
 50
0.0
 51
180.0
  0
ARC
  8
DETAIL
  6
CONTINUOUS
 62
     5
 10
-47.276999999999838
 20
-134.47679999999991
 30
0.0
 40
2.6265
 50
180.0
 51
0.0
  0
LINE
  8
DETAIL
  6
CONTINUOUS
 62
     5
 10
-49.903499999999873
 20
-108.2117999999999
 30
0.0
 11
-49.903499999999873
 21
-134.47679999999991
 31
0.0
  0
LINE
  8
DETAIL
  6
CONTINUOUS
 62
     5
 10
-44.650499999999873
 20
-108.2117999999999
 30
0.0
 11
-44.650499999999873
 21
-134.47679999999991
 31
0.0
  0
LINE
  8
DETAIL
  6
CONTINUOUS
 62
     5
 10
-44.650499999999873
 20
-142.88159999999991
 30
0.0
 11
-44.650499999999873
 21
-169.14660000000001
 31
0.0
  0
LINE
  8
DETAIL
  6
CONTINUOUS
 62
     5
 10
-49.903499999999873
 20
-142.88159999999991
 30
0.0
 11
-49.903499999999873
 21
-169.14660000000001
 31
0.0
  0
ARC
  8
DETAIL
  6
CONTINUOUS
 62
     5
 10
-47.276999999999838
 20
-169.14660000000001
 30
0.0
 40
2.6265
 50
180.0
 51
0.0
  0
ARC
  8
DETAIL
  6
CONTINUOUS
 62
     5
 10
-47.276999999999838
 20
-142.88159999999991
 30
0.0
 40
2.6265
 50
0.0
 51
180.0
  0
LINE
  8
DETAIL
  6
CONTINUOUS
 62
     5
 10
-44.650499999999873
 20
-177.5514
 30
0.0
 11
-44.650499999999873
 21
-203.81639999999999
 31
0.0
  0
LINE
  8
DETAIL
  6
CONTINUOUS
 62
     5
 10
-49.903499999999873
 20
-177.5514
 30
0.0
 11
-49.903499999999873
 21
-203.81639999999999
 31
0.0
  0
ARC
  8
DETAIL
  6
CONTINUOUS
 62
     5
 10
-47.276999999999838
 20
-203.81639999999999
 30
0.0
 40
2.6265
 50
180.0
 51
0.0
  0
ARC
  8
DETAIL
  6
CONTINUOUS
 62
     5
 10
-47.276999999999838
 20
-177.5514
 30
0.0
 40
2.6265
 50
0.0
 51
180.0
  0
LINE
  8
DETAIL
  6
CONTINUOUS
 62
     5
 10
-44.650499999999873
 20
-73.542000000000002
 30
0.0
 11
-44.650499999999873
 21
-99.807000000000002
 31
0.0
  0
LINE
  8
DETAIL
  6
CONTINUOUS
 62
     5
 10
-49.903499999999873
 20
-73.542000000000002
 30
0.0
 11
-49.903499999999873
 21
-99.807000000000002
 31
0.0
  0
ARC
  8
DETAIL
  6
CONTINUOUS
 62
     5
 10
-47.276999999999838
 20
-99.807000000000002
 30
0.0
 40
2.6265
 50
180.0
 51
0.0
  0
ARC
  8
DETAIL
  6
CONTINUOUS
 62
     5
 10
-47.276999999999838
 20
-73.542000000000002
 30
0.0
 40
2.6265
 50
0.0
 51
180.0
  0
ARC
  8
DETAIL
  6
CONTINUOUS
 62
     5
 10
-36.770999999999873
 20
-73.542000000000002
 30
0.0
 40
2.6265
 50
0.0
 51
180.0
  0
ARC
  8
DETAIL
  6
CONTINUOUS
 62
     5
 10
-36.770999999999873
 20
-99.807000000000002
 30
0.0
 40
2.6265
 50
180.0
 51
0.0
  0
LINE
  8
DETAIL
  6
CONTINUOUS
 62
     5
 10
-39.397499999999887
 20
-73.542000000000002
 30
0.0
 11
-39.397499999999887
 21
-99.807000000000002
 31
0.0
  0
LINE
  8
DETAIL
  6
CONTINUOUS
 62
     5
 10
-34.144499999999852
 20
-73.542000000000002
 30
0.0
 11
-34.144499999999852
 21
-99.807000000000002
 31
0.0
  0
ARC
  8
DETAIL
  6
CONTINUOUS
 62
     5
 10
-36.770999999999873
 20
-177.5514
 30
0.0
 40
2.6265
 50
0.0
 51
180.0
  0
ARC
  8
DETAIL
  6
CONTINUOUS
 62
     5
 10
-36.770999999999873
 20
-203.81639999999999
 30
0.0
 40
2.6265
 50
180.0
 51
0.0
  0
LINE
  8
DETAIL
  6
CONTINUOUS
 62
     5
 10
-39.397499999999887
 20
-177.5514
 30
0.0
 11
-39.397499999999887
 21
-203.81639999999999
 31
0.0
  0
LINE
  8
DETAIL
  6
CONTINUOUS
 62
     5
 10
-34.144499999999852
 20
-177.5514
 30
0.0
 11
-34.144499999999852
 21
-203.81639999999999
 31
0.0
  0
ARC
  8
DETAIL
  6
CONTINUOUS
 62
     5
 10
-36.770999999999873
 20
-142.88159999999991
 30
0.0
 40
2.6265
 50
0.0
 51
180.0
  0
ARC
  8
DETAIL
  6
CONTINUOUS
 62
     5
 10
-36.770999999999873
 20
-169.14660000000001
 30
0.0
 40
2.6265
 50
180.0
 51
0.0
  0
LINE
  8
DETAIL
  6
CONTINUOUS
 62
     5
 10
-39.397499999999887
 20
-142.88159999999991
 30
0.0
 11
-39.397499999999887
 21
-169.14660000000001
 31
0.0
  0
LINE
  8
DETAIL
  6
CONTINUOUS
 62
     5
 10
-34.144499999999852
 20
-142.88159999999991
 30
0.0
 11
-34.144499999999852
 21
-169.14660000000001
 31
0.0
  0
LINE
  8
DETAIL
  6
CONTINUOUS
 62
     5
 10
-34.144499999999852
 20
-108.2117999999999
 30
0.0
 11
-34.144499999999852
 21
-134.47679999999991
 31
0.0
  0
LINE
  8
DETAIL
  6
CONTINUOUS
 62
     5
 10
-39.397499999999887
 20
-108.2117999999999
 30
0.0
 11
-39.397499999999887
 21
-134.47679999999991
 31
0.0
  0
ARC
  8
DETAIL
  6
CONTINUOUS
 62
     5
 10
-36.770999999999873
 20
-134.47679999999991
 30
0.0
 40
2.6265
 50
180.0
 51
0.0
  0
ARC
  8
DETAIL
  6
CONTINUOUS
 62
     5
 10
-36.770999999999873
 20
-108.2117999999999
 30
0.0
 40
2.6265
 50
0.0
 51
180.0
  0
ARC
  8
DETAIL
  6
CONTINUOUS
 62
     5
 10
-36.770999999999873
 20
65.137200000000007
 30
0.0
 40
2.6265
 50
0.0
 51
180.0
  0
ARC
  8
DETAIL
  6
CONTINUOUS
 62
     5
 10
-36.770999999999873
 20
38.872199999999999
 30
0.0
 40
2.6265
 50
180.0
 51
0.0
  0
LINE
  8
DETAIL
  6
CONTINUOUS
 62
     5
 10
-39.397499999999887
 20
65.137200000000007
 30
0.0
 11
-39.397499999999887
 21
38.872199999999999
 31
0.0
  0
LINE
  8
DETAIL
  6
CONTINUOUS
 62
     5
 10
-34.144499999999852
 20
65.137200000000007
 30
0.0
 11
-34.144499999999852
 21
38.872199999999999
 31
0.0
  0
LINE
  8
DETAIL
  6
CONTINUOUS
 62
     5
 10
-34.144499999999852
 20
30.467400000000001
 30
0.0
 11
-34.144499999999852
 21
4.202399999999999
 31
0.0
  0
LINE
  8
DETAIL
  6
CONTINUOUS
 62
     5
 10
-39.397499999999887
 20
30.467400000000001
 30
0.0
 11
-39.397499999999887
 21
4.202399999999999
 31
0.0
  0
ARC
  8
DETAIL
  6
CONTINUOUS
 62
     5
 10
-36.770999999999873
 20
4.202399999999999
 30
0.0
 40
2.6265
 50
180.0
 51
0.0
  0
ARC
  8
DETAIL
  6
CONTINUOUS
 62
     5
 10
-36.770999999999873
 20
30.467400000000001
 30
0.0
 40
2.6265
 50
0.0
 51
180.0
  0
ARC
  8
DETAIL
  6
CONTINUOUS
 62
     5
 10
-36.770999999999873
 20
-38.872199999999999
 30
0.0
 40
2.6265
 50
0.0
 51
180.0
  0
ARC
  8
DETAIL
  6
CONTINUOUS
 62
     5
 10
-36.770999999999873
 20
-65.137200000000007
 30
0.0
 40
2.6265
 50
180.0
 51
0.0
  0
LINE
  8
DETAIL
  6
CONTINUOUS
 62
     5
 10
-39.397499999999887
 20
-38.872199999999999
 30
0.0
 11
-39.397499999999887
 21
-65.137200000000007
 31
0.0
  0
LINE
  8
DETAIL
  6
CONTINUOUS
 62
     5
 10
-34.144499999999852
 20
-38.872199999999999
 30
0.0
 11
-34.144499999999852
 21
-65.137200000000007
 31
0.0
  0
LINE
  8
DETAIL
  6
CONTINUOUS
 62
     5
 10
-34.144499999999852
 20
-4.202399999999999
 30
0.0
 11
-34.144499999999852
 21
-30.467399999999991
 31
0.0
  0
LINE
  8
DETAIL
  6
CONTINUOUS
 62
     5
 10
-39.397499999999887
 20
-4.202399999999999
 30
0.0
 11
-39.397499999999887
 21
-30.467399999999991
 31
0.0
  0
ARC
  8
DETAIL
  6
CONTINUOUS
 62
     5
 10
-36.770999999999873
 20
-30.467399999999991
 30
0.0
 40
2.6265
 50
180.0
 51
0.0
  0
ARC
  8
DETAIL
  6
CONTINUOUS
 62
     5
 10
-36.770999999999873
 20
-4.202399999999999
 30
0.0
 40
2.6265
 50
0.0
 51
180.0
  0
ARC
  8
DETAIL
  6
CONTINUOUS
 62
     5
 10
-36.770999999999873
 20
134.47679999999991
 30
0.0
 40
2.6265
 50
0.0
 51
180.0
  0
ARC
  8
DETAIL
  6
CONTINUOUS
 62
     5
 10
-36.770999999999873
 20
108.2117999999999
 30
0.0
 40
2.6265
 50
180.0
 51
0.0
  0
LINE
  8
DETAIL
  6
CONTINUOUS
 62
     5
 10
-39.397499999999887
 20
134.47679999999991
 30
0.0
 11
-39.397499999999887
 21
108.2117999999999
 31
0.0
  0
LINE
  8
DETAIL
  6
CONTINUOUS
 62
     5
 10
-34.144499999999852
 20
134.47679999999991
 30
0.0
 11
-34.144499999999852
 21
108.2117999999999
 31
0.0
  0
LINE
  8
DETAIL
  6
CONTINUOUS
 62
     5
 10
-34.144499999999852
 20
99.807000000000002
 30
0.0
 11
-34.144499999999852
 21
73.542000000000002
 31
0.0
  0
LINE
  8
DETAIL
  6
CONTINUOUS
 62
     5
 10
-39.397499999999887
 20
99.807000000000002
 30
0.0
 11
-39.397499999999887
 21
73.542000000000002
 31
0.0
  0
ARC
  8
DETAIL
  6
CONTINUOUS
 62
     5
 10
-36.770999999999873
 20
73.542000000000002
 30
0.0
 40
2.6265
 50
180.0
 51
0.0
  0
ARC
  8
DETAIL
  6
CONTINUOUS
 62
     5
 10
-36.770999999999873
 20
99.807000000000002
 30
0.0
 40
2.6265
 50
0.0
 51
180.0
  0
ARC
  8
DETAIL
  6
CONTINUOUS
 62
     5
 10
-36.770999999999873
 20
169.14660000000001
 30
0.0
 40
2.6265
 50
0.0
 51
180.0
  0
ARC
  8
DETAIL
  6
CONTINUOUS
 62
     5
 10
-36.770999999999873
 20
142.88159999999991
 30
0.0
 40
2.6265
 50
180.0
 51
0.0
  0
LINE
  8
DETAIL
  6
CONTINUOUS
 62
     5
 10
-39.397499999999887
 20
169.14660000000001
 30
0.0
 11
-39.397499999999887
 21
142.88159999999991
 31
0.0
  0
LINE
  8
DETAIL
  6
CONTINUOUS
 62
     5
 10
-34.144499999999852
 20
169.14660000000001
 30
0.0
 11
-34.144499999999852
 21
142.88159999999991
 31
0.0
  0
LINE
  8
DETAIL
  6
CONTINUOUS
 62
     5
 10
-34.144499999999852
 20
203.81639999999999
 30
0.0
 11
-34.144499999999852
 21
177.5514
 31
0.0
  0
LINE
  8
DETAIL
  6
CONTINUOUS
 62
     5
 10
-39.397499999999887
 20
203.81639999999999
 30
0.0
 11
-39.397499999999887
 21
177.5514
 31
0.0
  0
ARC
  8
DETAIL
  6
CONTINUOUS
 62
     5
 10
-36.770999999999873
 20
177.5514
 30
0.0
 40
2.6265
 50
180.0
 51
0.0
  0
ARC
  8
DETAIL
  6
CONTINUOUS
 62
     5
 10
-36.770999999999873
 20
203.81639999999999
 30
0.0
 40
2.6265
 50
0.0
 51
180.0
  0
ARC
  8
DETAIL
  6
CONTINUOUS
 62
     5
 10
-57.782999999999873
 20
203.81639999999999
 30
0.0
 40
2.6265
 50
0.0
 51
180.0
  0
ARC
  8
DETAIL
  6
CONTINUOUS
 62
     5
 10
-57.782999999999873
 20
177.5514
 30
0.0
 40
2.6265
 50
180.0
 51
0.0
  0
LINE
  8
DETAIL
  6
CONTINUOUS
 62
     5
 10
-60.409499999999838
 20
203.81639999999999
 30
0.0
 11
-60.409499999999838
 21
177.5514
 31
0.0
  0
LINE
  8
DETAIL
  6
CONTINUOUS
 62
     5
 10
-55.156499999999873
 20
203.81639999999999
 30
0.0
 11
-55.156499999999873
 21
177.5514
 31
0.0
  0
LINE
  8
DETAIL
  6
CONTINUOUS
 62
     5
 10
-55.156499999999873
 20
169.14660000000001
 30
0.0
 11
-55.156499999999873
 21
142.88159999999991
 31
0.0
  0
LINE
  8
DETAIL
  6
CONTINUOUS
 62
     5
 10
-60.409499999999838
 20
169.14660000000001
 30
0.0
 11
-60.409499999999838
 21
142.88159999999991
 31
0.0
  0
ARC
  8
DETAIL
  6
CONTINUOUS
 62
     5
 10
-57.782999999999873
 20
142.88159999999991
 30
0.0
 40
2.6265
 50
180.0
 51
0.0
  0
ARC
  8
DETAIL
  6
CONTINUOUS
 62
     5
 10
-57.782999999999873
 20
169.14660000000001
 30
0.0
 40
2.6265
 50
0.0
 51
180.0
  0
ARC
  8
DETAIL
  6
CONTINUOUS
 62
     5
 10
-57.782999999999873
 20
99.807000000000002
 30
0.0
 40
2.6265
 50
0.0
 51
180.0
  0
ARC
  8
DETAIL
  6
CONTINUOUS
 62
     5
 10
-57.782999999999873
 20
73.542000000000002
 30
0.0
 40
2.6265
 50
180.0
 51
0.0
  0
LINE
  8
DETAIL
  6
CONTINUOUS
 62
     5
 10
-60.409499999999838
 20
99.807000000000002
 30
0.0
 11
-60.409499999999838
 21
73.542000000000002
 31
0.0
  0
LINE
  8
DETAIL
  6
CONTINUOUS
 62
     5
 10
-55.156499999999873
 20
99.807000000000002
 30
0.0
 11
-55.156499999999873
 21
73.542000000000002
 31
0.0
  0
LINE
  8
DETAIL
  6
CONTINUOUS
 62
     5
 10
-55.156499999999873
 20
134.47679999999991
 30
0.0
 11
-55.156499999999873
 21
108.2117999999999
 31
0.0
  0
LINE
  8
DETAIL
  6
CONTINUOUS
 62
     5
 10
-60.409499999999838
 20
134.47679999999991
 30
0.0
 11
-60.409499999999838
 21
108.2117999999999
 31
0.0
  0
ARC
  8
DETAIL
  6
CONTINUOUS
 62
     5
 10
-57.782999999999873
 20
108.2117999999999
 30
0.0
 40
2.6265
 50
180.0
 51
0.0
  0
ARC
  8
DETAIL
  6
CONTINUOUS
 62
     5
 10
-57.782999999999873
 20
134.47679999999991
 30
0.0
 40
2.6265
 50
0.0
 51
180.0
  0
ARC
  8
DETAIL
  6
CONTINUOUS
 62
     5
 10
-57.782999999999873
 20
-4.202399999999999
 30
0.0
 40
2.6265
 50
0.0
 51
180.0
  0
ARC
  8
DETAIL
  6
CONTINUOUS
 62
     5
 10
-57.782999999999873
 20
-30.467399999999991
 30
0.0
 40
2.6265
 50
180.0
 51
0.0
  0
LINE
  8
DETAIL
  6
CONTINUOUS
 62
     5
 10
-60.409499999999838
 20
-4.202399999999999
 30
0.0
 11
-60.409499999999838
 21
-30.467399999999991
 31
0.0
  0
LINE
  8
DETAIL
  6
CONTINUOUS
 62
     5
 10
-55.156499999999873
 20
-4.202399999999999
 30
0.0
 11
-55.156499999999873
 21
-30.467399999999991
 31
0.0
  0
LINE
  8
DETAIL
  6
CONTINUOUS
 62
     5
 10
-55.156499999999873
 20
-38.872199999999999
 30
0.0
 11
-55.156499999999873
 21
-65.137200000000007
 31
0.0
  0
LINE
  8
DETAIL
  6
CONTINUOUS
 62
     5
 10
-60.409499999999838
 20
-38.872199999999999
 30
0.0
 11
-60.409499999999838
 21
-65.137200000000007
 31
0.0
  0
ARC
  8
DETAIL
  6
CONTINUOUS
 62
     5
 10
-57.782999999999873
 20
-65.137200000000007
 30
0.0
 40
2.6265
 50
180.0
 51
0.0
  0
ARC
  8
DETAIL
  6
CONTINUOUS
 62
     5
 10
-57.782999999999873
 20
-38.872199999999999
 30
0.0
 40
2.6265
 50
0.0
 51
180.0
  0
ARC
  8
DETAIL
  6
CONTINUOUS
 62
     5
 10
-57.782999999999873
 20
30.467400000000001
 30
0.0
 40
2.6265
 50
0.0
 51
180.0
  0
ARC
  8
DETAIL
  6
CONTINUOUS
 62
     5
 10
-57.782999999999873
 20
4.202399999999999
 30
0.0
 40
2.6265
 50
180.0
 51
0.0
  0
LINE
  8
DETAIL
  6
CONTINUOUS
 62
     5
 10
-60.409499999999838
 20
30.467400000000001
 30
0.0
 11
-60.409499999999838
 21
4.202399999999999
 31
0.0
  0
LINE
  8
DETAIL
  6
CONTINUOUS
 62
     5
 10
-55.156499999999873
 20
30.467400000000001
 30
0.0
 11
-55.156499999999873
 21
4.202399999999999
 31
0.0
  0
LINE
  8
DETAIL
  6
CONTINUOUS
 62
     5
 10
-55.156499999999873
 20
65.137200000000007
 30
0.0
 11
-55.156499999999873
 21
38.872199999999999
 31
0.0
  0
LINE
  8
DETAIL
  6
CONTINUOUS
 62
     5
 10
-60.409499999999838
 20
65.137200000000007
 30
0.0
 11
-60.409499999999838
 21
38.872199999999999
 31
0.0
  0
ARC
  8
DETAIL
  6
CONTINUOUS
 62
     5
 10
-57.782999999999873
 20
38.872199999999999
 30
0.0
 40
2.6265
 50
180.0
 51
0.0
  0
ARC
  8
DETAIL
  6
CONTINUOUS
 62
     5
 10
-57.782999999999873
 20
65.137200000000007
 30
0.0
 40
2.6265
 50
0.0
 51
180.0
  0
ARC
  8
DETAIL
  6
CONTINUOUS
 62
     5
 10
-57.782999999999873
 20
-108.2117999999999
 30
0.0
 40
2.6265
 50
0.0
 51
180.0
  0
ARC
  8
DETAIL
  6
CONTINUOUS
 62
     5
 10
-57.782999999999873
 20
-134.47679999999991
 30
0.0
 40
2.6265
 50
180.0
 51
0.0
  0
LINE
  8
DETAIL
  6
CONTINUOUS
 62
     5
 10
-60.409499999999838
 20
-108.2117999999999
 30
0.0
 11
-60.409499999999838
 21
-134.47679999999991
 31
0.0
  0
LINE
  8
DETAIL
  6
CONTINUOUS
 62
     5
 10
-55.156499999999873
 20
-108.2117999999999
 30
0.0
 11
-55.156499999999873
 21
-134.47679999999991
 31
0.0
  0
LINE
  8
DETAIL
  6
CONTINUOUS
 62
     5
 10
-55.156499999999873
 20
-142.88159999999991
 30
0.0
 11
-55.156499999999873
 21
-169.14660000000001
 31
0.0
  0
LINE
  8
DETAIL
  6
CONTINUOUS
 62
     5
 10
-60.409499999999838
 20
-142.88159999999991
 30
0.0
 11
-60.409499999999838
 21
-169.14660000000001
 31
0.0
  0
ARC
  8
DETAIL
  6
CONTINUOUS
 62
     5
 10
-57.782999999999873
 20
-169.14660000000001
 30
0.0
 40
2.6265
 50
180.0
 51
0.0
  0
ARC
  8
DETAIL
  6
CONTINUOUS
 62
     5
 10
-57.782999999999873
 20
-142.88159999999991
 30
0.0
 40
2.6265
 50
0.0
 51
180.0
  0
LINE
  8
DETAIL
  6
CONTINUOUS
 62
     5
 10
-55.156499999999873
 20
-177.5514
 30
0.0
 11
-55.156499999999873
 21
-203.81639999999999
 31
0.0
  0
LINE
  8
DETAIL
  6
CONTINUOUS
 62
     5
 10
-60.409499999999838
 20
-177.5514
 30
0.0
 11
-60.409499999999838
 21
-203.81639999999999
 31
0.0
  0
ARC
  8
DETAIL
  6
CONTINUOUS
 62
     5
 10
-57.782999999999873
 20
-203.81639999999999
 30
0.0
 40
2.6265
 50
180.0
 51
0.0
  0
ARC
  8
DETAIL
  6
CONTINUOUS
 62
     5
 10
-57.782999999999873
 20
-177.5514
 30
0.0
 40
2.6265
 50
0.0
 51
180.0
  0
LINE
  8
DETAIL
  6
CONTINUOUS
 62
     5
 10
-55.156499999999873
 20
-73.542000000000002
 30
0.0
 11
-55.156499999999873
 21
-99.807000000000002
 31
0.0
  0
LINE
  8
DETAIL
  6
CONTINUOUS
 62
     5
 10
-60.409499999999838
 20
-73.542000000000002
 30
0.0
 11
-60.409499999999838
 21
-99.807000000000002
 31
0.0
  0
ARC
  8
DETAIL
  6
CONTINUOUS
 62
     5
 10
-57.782999999999873
 20
-99.807000000000002
 30
0.0
 40
2.6265
 50
180.0
 51
0.0
  0
ARC
  8
DETAIL
  6
CONTINUOUS
 62
     5
 10
-57.782999999999873
 20
-73.542000000000002
 30
0.0
 40
2.6265
 50
0.0
 51
180.0
  0
ARC
  8
DETAIL
  6
CONTINUOUS
 62
     5
 10
-68.288999999999859
 20
-73.542000000000002
 30
0.0
 40
2.6265
 50
0.0
 51
180.0
  0
ARC
  8
DETAIL
  6
CONTINUOUS
 62
     5
 10
-68.288999999999859
 20
-99.807000000000002
 30
0.0
 40
2.6265
 50
180.0
 51
0.0
  0
LINE
  8
DETAIL
  6
CONTINUOUS
 62
     5
 10
-70.915499999999867
 20
-73.542000000000002
 30
0.0
 11
-70.915499999999867
 21
-99.807000000000002
 31
0.0
  0
LINE
  8
DETAIL
  6
CONTINUOUS
 62
     5
 10
-65.662499999999881
 20
-73.542000000000002
 30
0.0
 11
-65.662499999999881
 21
-99.807000000000002
 31
0.0
  0
ARC
  8
DETAIL
  6
CONTINUOUS
 62
     5
 10
-68.288999999999859
 20
-177.5514
 30
0.0
 40
2.6265
 50
0.0
 51
180.0
  0
ARC
  8
DETAIL
  6
CONTINUOUS
 62
     5
 10
-68.288999999999859
 20
-203.81639999999999
 30
0.0
 40
2.6265
 50
180.0
 51
0.0
  0
LINE
  8
DETAIL
  6
CONTINUOUS
 62
     5
 10
-70.915499999999867
 20
-177.5514
 30
0.0
 11
-70.915499999999867
 21
-203.81639999999999
 31
0.0
  0
LINE
  8
DETAIL
  6
CONTINUOUS
 62
     5
 10
-65.662499999999881
 20
-177.5514
 30
0.0
 11
-65.662499999999881
 21
-203.81639999999999
 31
0.0
  0
ARC
  8
DETAIL
  6
CONTINUOUS
 62
     5
 10
-68.288999999999859
 20
-142.88159999999991
 30
0.0
 40
2.6265
 50
0.0
 51
180.0
  0
ARC
  8
DETAIL
  6
CONTINUOUS
 62
     5
 10
-68.288999999999859
 20
-169.14660000000001
 30
0.0
 40
2.6265
 50
180.0
 51
0.0
  0
LINE
  8
DETAIL
  6
CONTINUOUS
 62
     5
 10
-70.915499999999867
 20
-142.88159999999991
 30
0.0
 11
-70.915499999999867
 21
-169.14660000000001
 31
0.0
  0
LINE
  8
DETAIL
  6
CONTINUOUS
 62
     5
 10
-65.662499999999881
 20
-142.88159999999991
 30
0.0
 11
-65.662499999999881
 21
-169.14660000000001
 31
0.0
  0
LINE
  8
DETAIL
  6
CONTINUOUS
 62
     5
 10
-65.662499999999881
 20
-108.2117999999999
 30
0.0
 11
-65.662499999999881
 21
-134.47679999999991
 31
0.0
  0
LINE
  8
DETAIL
  6
CONTINUOUS
 62
     5
 10
-70.915499999999867
 20
-108.2117999999999
 30
0.0
 11
-70.915499999999867
 21
-134.47679999999991
 31
0.0
  0
ARC
  8
DETAIL
  6
CONTINUOUS
 62
     5
 10
-68.288999999999859
 20
-134.47679999999991
 30
0.0
 40
2.6265
 50
180.0
 51
0.0
  0
ARC
  8
DETAIL
  6
CONTINUOUS
 62
     5
 10
-68.288999999999859
 20
-108.2117999999999
 30
0.0
 40
2.6265
 50
0.0
 51
180.0
  0
ARC
  8
DETAIL
  6
CONTINUOUS
 62
     5
 10
-68.288999999999859
 20
65.137200000000007
 30
0.0
 40
2.6265
 50
0.0
 51
180.0
  0
ARC
  8
DETAIL
  6
CONTINUOUS
 62
     5
 10
-68.288999999999859
 20
38.872199999999999
 30
0.0
 40
2.6265
 50
180.0
 51
0.0
  0
LINE
  8
DETAIL
  6
CONTINUOUS
 62
     5
 10
-70.915499999999867
 20
65.137200000000007
 30
0.0
 11
-70.915499999999867
 21
38.872199999999999
 31
0.0
  0
LINE
  8
DETAIL
  6
CONTINUOUS
 62
     5
 10
-65.662499999999881
 20
65.137200000000007
 30
0.0
 11
-65.662499999999881
 21
38.872199999999999
 31
0.0
  0
LINE
  8
DETAIL
  6
CONTINUOUS
 62
     5
 10
-65.662499999999881
 20
30.467400000000001
 30
0.0
 11
-65.662499999999881
 21
4.202399999999999
 31
0.0
  0
LINE
  8
DETAIL
  6
CONTINUOUS
 62
     5
 10
-70.915499999999867
 20
30.467400000000001
 30
0.0
 11
-70.915499999999867
 21
4.202399999999999
 31
0.0
  0
ARC
  8
DETAIL
  6
CONTINUOUS
 62
     5
 10
-68.288999999999859
 20
4.202399999999999
 30
0.0
 40
2.6265
 50
180.0
 51
0.0
  0
ARC
  8
DETAIL
  6
CONTINUOUS
 62
     5
 10
-68.288999999999859
 20
30.467400000000001
 30
0.0
 40
2.6265
 50
0.0
 51
180.0
  0
ARC
  8
DETAIL
  6
CONTINUOUS
 62
     5
 10
-68.288999999999859
 20
-38.872199999999999
 30
0.0
 40
2.6265
 50
0.0
 51
180.0
  0
ARC
  8
DETAIL
  6
CONTINUOUS
 62
     5
 10
-68.288999999999859
 20
-65.137200000000007
 30
0.0
 40
2.6265
 50
180.0
 51
0.0
  0
LINE
  8
DETAIL
  6
CONTINUOUS
 62
     5
 10
-70.915499999999867
 20
-38.872199999999999
 30
0.0
 11
-70.915499999999867
 21
-65.137200000000007
 31
0.0
  0
LINE
  8
DETAIL
  6
CONTINUOUS
 62
     5
 10
-65.662499999999881
 20
-38.872199999999999
 30
0.0
 11
-65.662499999999881
 21
-65.137200000000007
 31
0.0
  0
LINE
  8
DETAIL
  6
CONTINUOUS
 62
     5
 10
-65.662499999999881
 20
-4.202399999999999
 30
0.0
 11
-65.662499999999881
 21
-30.467399999999991
 31
0.0
  0
LINE
  8
DETAIL
  6
CONTINUOUS
 62
     5
 10
-70.915499999999867
 20
-4.202399999999999
 30
0.0
 11
-70.915499999999867
 21
-30.467399999999991
 31
0.0
  0
ARC
  8
DETAIL
  6
CONTINUOUS
 62
     5
 10
-68.288999999999859
 20
-30.467399999999991
 30
0.0
 40
2.6265
 50
180.0
 51
0.0
  0
ARC
  8
DETAIL
  6
CONTINUOUS
 62
     5
 10
-68.288999999999859
 20
-4.202399999999999
 30
0.0
 40
2.6265
 50
0.0
 51
180.0
  0
ARC
  8
DETAIL
  6
CONTINUOUS
 62
     5
 10
-68.288999999999859
 20
134.47679999999991
 30
0.0
 40
2.6265
 50
0.0
 51
180.0
  0
ARC
  8
DETAIL
  6
CONTINUOUS
 62
     5
 10
-68.288999999999859
 20
108.2117999999999
 30
0.0
 40
2.6265
 50
180.0
 51
0.0
  0
LINE
  8
DETAIL
  6
CONTINUOUS
 62
     5
 10
-70.915499999999867
 20
134.47679999999991
 30
0.0
 11
-70.915499999999867
 21
108.2117999999999
 31
0.0
  0
LINE
  8
DETAIL
  6
CONTINUOUS
 62
     5
 10
-65.662499999999881
 20
134.47679999999991
 30
0.0
 11
-65.662499999999881
 21
108.2117999999999
 31
0.0
  0
LINE
  8
DETAIL
  6
CONTINUOUS
 62
     5
 10
-65.662499999999881
 20
99.807000000000002
 30
0.0
 11
-65.662499999999881
 21
73.542000000000002
 31
0.0
  0
LINE
  8
DETAIL
  6
CONTINUOUS
 62
     5
 10
-70.915499999999867
 20
99.807000000000002
 30
0.0
 11
-70.915499999999867
 21
73.542000000000002
 31
0.0
  0
ARC
  8
DETAIL
  6
CONTINUOUS
 62
     5
 10
-68.288999999999859
 20
73.542000000000002
 30
0.0
 40
2.6265
 50
180.0
 51
0.0
  0
ARC
  8
DETAIL
  6
CONTINUOUS
 62
     5
 10
-68.288999999999859
 20
99.807000000000002
 30
0.0
 40
2.6265
 50
0.0
 51
180.0
  0
ARC
  8
DETAIL
  6
CONTINUOUS
 62
     5
 10
-68.288999999999859
 20
169.14660000000001
 30
0.0
 40
2.6265
 50
0.0
 51
180.0
  0
ARC
  8
DETAIL
  6
CONTINUOUS
 62
     5
 10
-68.288999999999859
 20
142.88159999999991
 30
0.0
 40
2.6265
 50
180.0
 51
0.0
  0
LINE
  8
DETAIL
  6
CONTINUOUS
 62
     5
 10
-70.915499999999867
 20
169.14660000000001
 30
0.0
 11
-70.915499999999867
 21
142.88159999999991
 31
0.0
  0
LINE
  8
DETAIL
  6
CONTINUOUS
 62
     5
 10
-65.662499999999881
 20
169.14660000000001
 30
0.0
 11
-65.662499999999881
 21
142.88159999999991
 31
0.0
  0
LINE
  8
DETAIL
  6
CONTINUOUS
 62
     5
 10
-65.662499999999881
 20
203.81639999999999
 30
0.0
 11
-65.662499999999881
 21
177.5514
 31
0.0
  0
LINE
  8
DETAIL
  6
CONTINUOUS
 62
     5
 10
-70.915499999999867
 20
203.81639999999999
 30
0.0
 11
-70.915499999999867
 21
177.5514
 31
0.0
  0
ARC
  8
DETAIL
  6
CONTINUOUS
 62
     5
 10
-68.288999999999859
 20
177.5514
 30
0.0
 40
2.6265
 50
180.0
 51
0.0
  0
ARC
  8
DETAIL
  6
CONTINUOUS
 62
     5
 10
-68.288999999999859
 20
203.81639999999999
 30
0.0
 40
2.6265
 50
0.0
 51
180.0
  0
ARC
  8
DETAIL
  6
CONTINUOUS
 62
     5
 10
183.85499999999999
 20
203.81639999999999
 30
0.0
 40
2.6265
 50
0.0
 51
180.0
  0
ARC
  8
DETAIL
  6
CONTINUOUS
 62
     5
 10
183.85499999999999
 20
177.5514
 30
0.0
 40
2.6265
 50
180.0
 51
0.0
  0
LINE
  8
DETAIL
  6
CONTINUOUS
 62
     5
 10
181.22850000000011
 20
203.81639999999999
 30
0.0
 11
181.22850000000011
 21
177.5514
 31
0.0
  0
LINE
  8
DETAIL
  6
CONTINUOUS
 62
     5
 10
186.4815000000001
 20
203.81639999999999
 30
0.0
 11
186.4815000000001
 21
177.5514
 31
0.0
  0
LINE
  8
DETAIL
  6
CONTINUOUS
 62
     5
 10
186.4815000000001
 20
169.14660000000001
 30
0.0
 11
186.4815000000001
 21
142.88159999999991
 31
0.0
  0
LINE
  8
DETAIL
  6
CONTINUOUS
 62
     5
 10
181.22850000000011
 20
169.14660000000001
 30
0.0
 11
181.22850000000011
 21
142.88159999999991
 31
0.0
  0
ARC
  8
DETAIL
  6
CONTINUOUS
 62
     5
 10
183.85499999999999
 20
142.88159999999991
 30
0.0
 40
2.6265
 50
180.0
 51
0.0
  0
ARC
  8
DETAIL
  6
CONTINUOUS
 62
     5
 10
183.85499999999999
 20
169.14660000000001
 30
0.0
 40
2.6265
 50
0.0
 51
180.0
  0
ARC
  8
DETAIL
  6
CONTINUOUS
 62
     5
 10
183.85499999999999
 20
99.807000000000002
 30
0.0
 40
2.6265
 50
0.0
 51
180.0
  0
ARC
  8
DETAIL
  6
CONTINUOUS
 62
     5
 10
183.85499999999999
 20
73.542000000000002
 30
0.0
 40
2.6265
 50
180.0
 51
0.0
  0
LINE
  8
DETAIL
  6
CONTINUOUS
 62
     5
 10
181.22850000000011
 20
99.807000000000002
 30
0.0
 11
181.22850000000011
 21
73.542000000000002
 31
0.0
  0
LINE
  8
DETAIL
  6
CONTINUOUS
 62
     5
 10
186.4815000000001
 20
99.807000000000002
 30
0.0
 11
186.4815000000001
 21
73.542000000000002
 31
0.0
  0
LINE
  8
DETAIL
  6
CONTINUOUS
 62
     5
 10
186.4815000000001
 20
134.47679999999991
 30
0.0
 11
186.4815000000001
 21
108.2117999999999
 31
0.0
  0
LINE
  8
DETAIL
  6
CONTINUOUS
 62
     5
 10
181.22850000000011
 20
134.47679999999991
 30
0.0
 11
181.22850000000011
 21
108.2117999999999
 31
0.0
  0
ARC
  8
DETAIL
  6
CONTINUOUS
 62
     5
 10
183.85499999999999
 20
108.2117999999999
 30
0.0
 40
2.6265
 50
180.0
 51
0.0
  0
ARC
  8
DETAIL
  6
CONTINUOUS
 62
     5
 10
183.85499999999999
 20
134.47679999999991
 30
0.0
 40
2.6265
 50
0.0
 51
180.0
  0
ARC
  8
DETAIL
  6
CONTINUOUS
 62
     5
 10
183.85499999999999
 20
-4.202399999999999
 30
0.0
 40
2.6265
 50
0.0
 51
180.0
  0
ARC
  8
DETAIL
  6
CONTINUOUS
 62
     5
 10
183.85499999999999
 20
-30.467399999999991
 30
0.0
 40
2.6265
 50
180.0
 51
0.0
  0
LINE
  8
DETAIL
  6
CONTINUOUS
 62
     5
 10
181.22850000000011
 20
-4.202399999999999
 30
0.0
 11
181.22850000000011
 21
-30.467399999999991
 31
0.0
  0
LINE
  8
DETAIL
  6
CONTINUOUS
 62
     5
 10
186.4815000000001
 20
-4.202399999999999
 30
0.0
 11
186.4815000000001
 21
-30.467399999999991
 31
0.0
  0
LINE
  8
DETAIL
  6
CONTINUOUS
 62
     5
 10
186.4815000000001
 20
-38.872199999999999
 30
0.0
 11
186.4815000000001
 21
-65.137200000000007
 31
0.0
  0
LINE
  8
DETAIL
  6
CONTINUOUS
 62
     5
 10
181.22850000000011
 20
-38.872199999999999
 30
0.0
 11
181.22850000000011
 21
-65.137200000000007
 31
0.0
  0
ARC
  8
DETAIL
  6
CONTINUOUS
 62
     5
 10
183.85499999999999
 20
-65.137200000000007
 30
0.0
 40
2.6265
 50
180.0
 51
0.0
  0
ARC
  8
DETAIL
  6
CONTINUOUS
 62
     5
 10
183.85499999999999
 20
-38.872199999999999
 30
0.0
 40
2.6265
 50
0.0
 51
180.0
  0
ARC
  8
DETAIL
  6
CONTINUOUS
 62
     5
 10
183.85499999999999
 20
30.467400000000001
 30
0.0
 40
2.6265
 50
0.0
 51
180.0
  0
ARC
  8
DETAIL
  6
CONTINUOUS
 62
     5
 10
183.85499999999999
 20
4.202399999999999
 30
0.0
 40
2.6265
 50
180.0
 51
0.0
  0
LINE
  8
DETAIL
  6
CONTINUOUS
 62
     5
 10
181.22850000000011
 20
30.467400000000001
 30
0.0
 11
181.22850000000011
 21
4.202399999999999
 31
0.0
  0
LINE
  8
DETAIL
  6
CONTINUOUS
 62
     5
 10
186.4815000000001
 20
30.467400000000001
 30
0.0
 11
186.4815000000001
 21
4.202399999999999
 31
0.0
  0
LINE
  8
DETAIL
  6
CONTINUOUS
 62
     5
 10
186.4815000000001
 20
65.137200000000007
 30
0.0
 11
186.4815000000001
 21
38.872199999999999
 31
0.0
  0
LINE
  8
DETAIL
  6
CONTINUOUS
 62
     5
 10
181.22850000000011
 20
65.137200000000007
 30
0.0
 11
181.22850000000011
 21
38.872199999999999
 31
0.0
  0
ARC
  8
DETAIL
  6
CONTINUOUS
 62
     5
 10
183.85499999999999
 20
38.872199999999999
 30
0.0
 40
2.6265
 50
180.0
 51
0.0
  0
ARC
  8
DETAIL
  6
CONTINUOUS
 62
     5
 10
183.85499999999999
 20
65.137200000000007
 30
0.0
 40
2.6265
 50
0.0
 51
180.0
  0
ARC
  8
DETAIL
  6
CONTINUOUS
 62
     5
 10
183.85499999999999
 20
-108.2117999999999
 30
0.0
 40
2.6265
 50
0.0
 51
180.0
  0
ARC
  8
DETAIL
  6
CONTINUOUS
 62
     5
 10
183.85499999999999
 20
-134.47679999999991
 30
0.0
 40
2.6265
 50
180.0
 51
0.0
  0
LINE
  8
DETAIL
  6
CONTINUOUS
 62
     5
 10
181.22850000000011
 20
-108.2117999999999
 30
0.0
 11
181.22850000000011
 21
-134.47679999999991
 31
0.0
  0
LINE
  8
DETAIL
  6
CONTINUOUS
 62
     5
 10
186.4815000000001
 20
-108.2117999999999
 30
0.0
 11
186.4815000000001
 21
-134.47679999999991
 31
0.0
  0
LINE
  8
DETAIL
  6
CONTINUOUS
 62
     5
 10
186.4815000000001
 20
-142.88159999999991
 30
0.0
 11
186.4815000000001
 21
-169.14660000000001
 31
0.0
  0
LINE
  8
DETAIL
  6
CONTINUOUS
 62
     5
 10
181.22850000000011
 20
-142.88159999999991
 30
0.0
 11
181.22850000000011
 21
-169.14660000000001
 31
0.0
  0
ARC
  8
DETAIL
  6
CONTINUOUS
 62
     5
 10
183.85499999999999
 20
-169.14660000000001
 30
0.0
 40
2.6265
 50
180.0
 51
0.0
  0
ARC
  8
DETAIL
  6
CONTINUOUS
 62
     5
 10
183.85499999999999
 20
-142.88159999999991
 30
0.0
 40
2.6265
 50
0.0
 51
180.0
  0
LINE
  8
DETAIL
  6
CONTINUOUS
 62
     5
 10
186.4815000000001
 20
-177.5514
 30
0.0
 11
186.4815000000001
 21
-203.81639999999999
 31
0.0
  0
LINE
  8
DETAIL
  6
CONTINUOUS
 62
     5
 10
181.22850000000011
 20
-177.5514
 30
0.0
 11
181.22850000000011
 21
-203.81639999999999
 31
0.0
  0
ARC
  8
DETAIL
  6
CONTINUOUS
 62
     5
 10
183.85499999999999
 20
-203.81639999999999
 30
0.0
 40
2.6265
 50
180.0
 51
0.0
  0
ARC
  8
DETAIL
  6
CONTINUOUS
 62
     5
 10
183.85499999999999
 20
-177.5514
 30
0.0
 40
2.6265
 50
0.0
 51
180.0
  0
LINE
  8
DETAIL
  6
CONTINUOUS
 62
     5
 10
186.4815000000001
 20
-73.542000000000002
 30
0.0
 11
186.4815000000001
 21
-99.807000000000002
 31
0.0
  0
LINE
  8
DETAIL
  6
CONTINUOUS
 62
     5
 10
181.22850000000011
 20
-73.542000000000002
 30
0.0
 11
181.22850000000011
 21
-99.807000000000002
 31
0.0
  0
ARC
  8
DETAIL
  6
CONTINUOUS
 62
     5
 10
183.85499999999999
 20
-99.807000000000002
 30
0.0
 40
2.6265
 50
180.0
 51
0.0
  0
ARC
  8
DETAIL
  6
CONTINUOUS
 62
     5
 10
183.85499999999999
 20
-73.542000000000002
 30
0.0
 40
2.6265
 50
0.0
 51
180.0
  0
ARC
  8
DETAIL
  6
CONTINUOUS
 62
     5
 10
194.3610000000001
 20
-73.542000000000002
 30
0.0
 40
2.6265
 50
0.0
 51
180.0
  0
ARC
  8
DETAIL
  6
CONTINUOUS
 62
     5
 10
194.3610000000001
 20
-99.807000000000002
 30
0.0
 40
2.6265
 50
180.0
 51
0.0
  0
LINE
  8
DETAIL
  6
CONTINUOUS
 62
     5
 10
191.73450000000011
 20
-73.542000000000002
 30
0.0
 11
191.73450000000011
 21
-99.807000000000002
 31
0.0
  0
LINE
  8
DETAIL
  6
CONTINUOUS
 62
     5
 10
196.98750000000001
 20
-73.542000000000002
 30
0.0
 11
196.98750000000001
 21
-99.807000000000002
 31
0.0
  0
ARC
  8
DETAIL
  6
CONTINUOUS
 62
     5
 10
194.3610000000001
 20
-177.5514
 30
0.0
 40
2.6265
 50
0.0
 51
180.0
  0
ARC
  8
DETAIL
  6
CONTINUOUS
 62
     5
 10
194.3610000000001
 20
-203.81639999999999
 30
0.0
 40
2.6265
 50
180.0
 51
0.0
  0
LINE
  8
DETAIL
  6
CONTINUOUS
 62
     5
 10
191.73450000000011
 20
-177.5514
 30
0.0
 11
191.73450000000011
 21
-203.81639999999999
 31
0.0
  0
LINE
  8
DETAIL
  6
CONTINUOUS
 62
     5
 10
196.98750000000001
 20
-177.5514
 30
0.0
 11
196.98750000000001
 21
-203.81639999999999
 31
0.0
  0
ARC
  8
DETAIL
  6
CONTINUOUS
 62
     5
 10
194.3610000000001
 20
-142.88159999999991
 30
0.0
 40
2.6265
 50
0.0
 51
180.0
  0
ARC
  8
DETAIL
  6
CONTINUOUS
 62
     5
 10
194.3610000000001
 20
-169.14660000000001
 30
0.0
 40
2.6265
 50
180.0
 51
0.0
  0
LINE
  8
DETAIL
  6
CONTINUOUS
 62
     5
 10
191.73450000000011
 20
-142.88159999999991
 30
0.0
 11
191.73450000000011
 21
-169.14660000000001
 31
0.0
  0
LINE
  8
DETAIL
  6
CONTINUOUS
 62
     5
 10
196.98750000000001
 20
-142.88159999999991
 30
0.0
 11
196.98750000000001
 21
-169.14660000000001
 31
0.0
  0
LINE
  8
DETAIL
  6
CONTINUOUS
 62
     5
 10
196.98750000000001
 20
-108.2117999999999
 30
0.0
 11
196.98750000000001
 21
-134.47679999999991
 31
0.0
  0
LINE
  8
DETAIL
  6
CONTINUOUS
 62
     5
 10
191.73450000000011
 20
-108.2117999999999
 30
0.0
 11
191.73450000000011
 21
-134.47679999999991
 31
0.0
  0
ARC
  8
DETAIL
  6
CONTINUOUS
 62
     5
 10
194.3610000000001
 20
-134.47679999999991
 30
0.0
 40
2.6265
 50
180.0
 51
0.0
  0
ARC
  8
DETAIL
  6
CONTINUOUS
 62
     5
 10
194.3610000000001
 20
-108.2117999999999
 30
0.0
 40
2.6265
 50
0.0
 51
180.0
  0
ARC
  8
DETAIL
  6
CONTINUOUS
 62
     5
 10
194.3610000000001
 20
65.137200000000007
 30
0.0
 40
2.6265
 50
0.0
 51
180.0
  0
ARC
  8
DETAIL
  6
CONTINUOUS
 62
     5
 10
194.3610000000001
 20
38.872199999999999
 30
0.0
 40
2.6265
 50
180.0
 51
0.0
  0
LINE
  8
DETAIL
  6
CONTINUOUS
 62
     5
 10
191.73450000000011
 20
65.137200000000007
 30
0.0
 11
191.73450000000011
 21
38.872199999999999
 31
0.0
  0
LINE
  8
DETAIL
  6
CONTINUOUS
 62
     5
 10
196.98750000000001
 20
65.137200000000007
 30
0.0
 11
196.98750000000001
 21
38.872199999999999
 31
0.0
  0
LINE
  8
DETAIL
  6
CONTINUOUS
 62
     5
 10
196.98750000000001
 20
30.467400000000001
 30
0.0
 11
196.98750000000001
 21
4.202399999999999
 31
0.0
  0
LINE
  8
DETAIL
  6
CONTINUOUS
 62
     5
 10
191.73450000000011
 20
30.467400000000001
 30
0.0
 11
191.73450000000011
 21
4.202399999999999
 31
0.0
  0
ARC
  8
DETAIL
  6
CONTINUOUS
 62
     5
 10
194.3610000000001
 20
4.202399999999999
 30
0.0
 40
2.6265
 50
180.0
 51
0.0
  0
ARC
  8
DETAIL
  6
CONTINUOUS
 62
     5
 10
194.3610000000001
 20
30.467400000000001
 30
0.0
 40
2.6265
 50
0.0
 51
180.0
  0
ARC
  8
DETAIL
  6
CONTINUOUS
 62
     5
 10
194.3610000000001
 20
-38.872199999999999
 30
0.0
 40
2.6265
 50
0.0
 51
180.0
  0
ARC
  8
DETAIL
  6
CONTINUOUS
 62
     5
 10
194.3610000000001
 20
-65.137200000000007
 30
0.0
 40
2.6265
 50
180.0
 51
0.0
  0
LINE
  8
DETAIL
  6
CONTINUOUS
 62
     5
 10
191.73450000000011
 20
-38.872199999999999
 30
0.0
 11
191.73450000000011
 21
-65.137200000000007
 31
0.0
  0
LINE
  8
DETAIL
  6
CONTINUOUS
 62
     5
 10
196.98750000000001
 20
-38.872199999999999
 30
0.0
 11
196.98750000000001
 21
-65.137200000000007
 31
0.0
  0
LINE
  8
DETAIL
  6
CONTINUOUS
 62
     5
 10
196.98750000000001
 20
-4.202399999999999
 30
0.0
 11
196.98750000000001
 21
-30.467399999999991
 31
0.0
  0
LINE
  8
DETAIL
  6
CONTINUOUS
 62
     5
 10
191.73450000000011
 20
-4.202399999999999
 30
0.0
 11
191.73450000000011
 21
-30.467399999999991
 31
0.0
  0
ARC
  8
DETAIL
  6
CONTINUOUS
 62
     5
 10
194.3610000000001
 20
-30.467399999999991
 30
0.0
 40
2.6265
 50
180.0
 51
0.0
  0
ARC
  8
DETAIL
  6
CONTINUOUS
 62
     5
 10
194.3610000000001
 20
-4.202399999999999
 30
0.0
 40
2.6265
 50
0.0
 51
180.0
  0
ARC
  8
DETAIL
  6
CONTINUOUS
 62
     5
 10
194.3610000000001
 20
134.47679999999991
 30
0.0
 40
2.6265
 50
0.0
 51
180.0
  0
ARC
  8
DETAIL
  6
CONTINUOUS
 62
     5
 10
194.3610000000001
 20
108.2117999999999
 30
0.0
 40
2.6265
 50
180.0
 51
0.0
  0
LINE
  8
DETAIL
  6
CONTINUOUS
 62
     5
 10
191.73450000000011
 20
134.47679999999991
 30
0.0
 11
191.73450000000011
 21
108.2117999999999
 31
0.0
  0
LINE
  8
DETAIL
  6
CONTINUOUS
 62
     5
 10
196.98750000000001
 20
134.47679999999991
 30
0.0
 11
196.98750000000001
 21
108.2117999999999
 31
0.0
  0
LINE
  8
DETAIL
  6
CONTINUOUS
 62
     5
 10
196.98750000000001
 20
99.807000000000002
 30
0.0
 11
196.98750000000001
 21
73.542000000000002
 31
0.0
  0
LINE
  8
DETAIL
  6
CONTINUOUS
 62
     5
 10
191.73450000000011
 20
99.807000000000002
 30
0.0
 11
191.73450000000011
 21
73.542000000000002
 31
0.0
  0
ARC
  8
DETAIL
  6
CONTINUOUS
 62
     5
 10
194.3610000000001
 20
73.542000000000002
 30
0.0
 40
2.6265
 50
180.0
 51
0.0
  0
ARC
  8
DETAIL
  6
CONTINUOUS
 62
     5
 10
194.3610000000001
 20
99.807000000000002
 30
0.0
 40
2.6265
 50
0.0
 51
180.0
  0
ARC
  8
DETAIL
  6
CONTINUOUS
 62
     5
 10
194.3610000000001
 20
169.14660000000001
 30
0.0
 40
2.6265
 50
0.0
 51
180.0
  0
ARC
  8
DETAIL
  6
CONTINUOUS
 62
     5
 10
194.3610000000001
 20
142.88159999999991
 30
0.0
 40
2.6265
 50
180.0
 51
0.0
  0
LINE
  8
DETAIL
  6
CONTINUOUS
 62
     5
 10
191.73450000000011
 20
169.14660000000001
 30
0.0
 11
191.73450000000011
 21
142.88159999999991
 31
0.0
  0
LINE
  8
DETAIL
  6
CONTINUOUS
 62
     5
 10
196.98750000000001
 20
169.14660000000001
 30
0.0
 11
196.98750000000001
 21
142.88159999999991
 31
0.0
  0
LINE
  8
DETAIL
  6
CONTINUOUS
 62
     5
 10
196.98750000000001
 20
203.81639999999999
 30
0.0
 11
196.98750000000001
 21
177.5514
 31
0.0
  0
LINE
  8
DETAIL
  6
CONTINUOUS
 62
     5
 10
191.73450000000011
 20
203.81639999999999
 30
0.0
 11
191.73450000000011
 21
177.5514
 31
0.0
  0
ARC
  8
DETAIL
  6
CONTINUOUS
 62
     5
 10
194.3610000000001
 20
177.5514
 30
0.0
 40
2.6265
 50
180.0
 51
0.0
  0
ARC
  8
DETAIL
  6
CONTINUOUS
 62
     5
 10
194.3610000000001
 20
203.81639999999999
 30
0.0
 40
2.6265
 50
0.0
 51
180.0
  0
ARC
  8
DETAIL
  6
CONTINUOUS
 62
     5
 10
215.3730000000001
 20
203.81639999999999
 30
0.0
 40
2.6265
 50
0.0
 51
180.0
  0
ARC
  8
DETAIL
  6
CONTINUOUS
 62
     5
 10
215.3730000000001
 20
177.5514
 30
0.0
 40
2.6265
 50
180.0
 51
0.0
  0
LINE
  8
DETAIL
  6
CONTINUOUS
 62
     5
 10
212.74650000000011
 20
203.81639999999999
 30
0.0
 11
212.74650000000011
 21
177.5514
 31
0.0
  0
LINE
  8
DETAIL
  6
CONTINUOUS
 62
     5
 10
217.9995000000001
 20
203.81639999999999
 30
0.0
 11
217.9995000000001
 21
177.5514
 31
0.0
  0
LINE
  8
DETAIL
  6
CONTINUOUS
 62
     5
 10
217.9995000000001
 20
169.14660000000001
 30
0.0
 11
217.9995000000001
 21
142.88159999999991
 31
0.0
  0
LINE
  8
DETAIL
  6
CONTINUOUS
 62
     5
 10
212.74650000000011
 20
169.14660000000001
 30
0.0
 11
212.74650000000011
 21
142.88159999999991
 31
0.0
  0
ARC
  8
DETAIL
  6
CONTINUOUS
 62
     5
 10
215.3730000000001
 20
142.88159999999991
 30
0.0
 40
2.6265
 50
180.0
 51
0.0
  0
ARC
  8
DETAIL
  6
CONTINUOUS
 62
     5
 10
215.3730000000001
 20
169.14660000000001
 30
0.0
 40
2.6265
 50
0.0
 51
180.0
  0
ARC
  8
DETAIL
  6
CONTINUOUS
 62
     5
 10
215.3730000000001
 20
99.807000000000002
 30
0.0
 40
2.6265
 50
0.0
 51
180.0
  0
ARC
  8
DETAIL
  6
CONTINUOUS
 62
     5
 10
215.3730000000001
 20
73.542000000000002
 30
0.0
 40
2.6265
 50
180.0
 51
0.0
  0
LINE
  8
DETAIL
  6
CONTINUOUS
 62
     5
 10
212.74650000000011
 20
99.807000000000002
 30
0.0
 11
212.74650000000011
 21
73.542000000000002
 31
0.0
  0
LINE
  8
DETAIL
  6
CONTINUOUS
 62
     5
 10
217.9995000000001
 20
99.807000000000002
 30
0.0
 11
217.9995000000001
 21
73.542000000000002
 31
0.0
  0
LINE
  8
DETAIL
  6
CONTINUOUS
 62
     5
 10
217.9995000000001
 20
134.47679999999991
 30
0.0
 11
217.9995000000001
 21
108.2117999999999
 31
0.0
  0
LINE
  8
DETAIL
  6
CONTINUOUS
 62
     5
 10
212.74650000000011
 20
134.47679999999991
 30
0.0
 11
212.74650000000011
 21
108.2117999999999
 31
0.0
  0
ARC
  8
DETAIL
  6
CONTINUOUS
 62
     5
 10
215.3730000000001
 20
108.2117999999999
 30
0.0
 40
2.6265
 50
180.0
 51
0.0
  0
ARC
  8
DETAIL
  6
CONTINUOUS
 62
     5
 10
215.3730000000001
 20
134.47679999999991
 30
0.0
 40
2.6265
 50
0.0
 51
180.0
  0
ARC
  8
DETAIL
  6
CONTINUOUS
 62
     5
 10
215.3730000000001
 20
-4.202399999999999
 30
0.0
 40
2.6265
 50
0.0
 51
180.0
  0
ARC
  8
DETAIL
  6
CONTINUOUS
 62
     5
 10
215.3730000000001
 20
-30.467399999999991
 30
0.0
 40
2.6265
 50
180.0
 51
0.0
  0
LINE
  8
DETAIL
  6
CONTINUOUS
 62
     5
 10
212.74650000000011
 20
-4.202399999999999
 30
0.0
 11
212.74650000000011
 21
-30.467399999999991
 31
0.0
  0
LINE
  8
DETAIL
  6
CONTINUOUS
 62
     5
 10
217.9995000000001
 20
-4.202399999999999
 30
0.0
 11
217.9995000000001
 21
-30.467399999999991
 31
0.0
  0
LINE
  8
DETAIL
  6
CONTINUOUS
 62
     5
 10
217.9995000000001
 20
-38.872199999999999
 30
0.0
 11
217.9995000000001
 21
-65.137200000000007
 31
0.0
  0
LINE
  8
DETAIL
  6
CONTINUOUS
 62
     5
 10
212.74650000000011
 20
-38.872199999999999
 30
0.0
 11
212.74650000000011
 21
-65.137200000000007
 31
0.0
  0
ARC
  8
DETAIL
  6
CONTINUOUS
 62
     5
 10
215.3730000000001
 20
-65.137200000000007
 30
0.0
 40
2.6265
 50
180.0
 51
0.0
  0
ARC
  8
DETAIL
  6
CONTINUOUS
 62
     5
 10
215.3730000000001
 20
-38.872199999999999
 30
0.0
 40
2.6265
 50
0.0
 51
180.0
  0
ARC
  8
DETAIL
  6
CONTINUOUS
 62
     5
 10
215.3730000000001
 20
30.467400000000001
 30
0.0
 40
2.6265
 50
0.0
 51
180.0
  0
ARC
  8
DETAIL
  6
CONTINUOUS
 62
     5
 10
215.3730000000001
 20
4.202399999999999
 30
0.0
 40
2.6265
 50
180.0
 51
0.0
  0
LINE
  8
DETAIL
  6
CONTINUOUS
 62
     5
 10
212.74650000000011
 20
30.467400000000001
 30
0.0
 11
212.74650000000011
 21
4.202399999999999
 31
0.0
  0
LINE
  8
DETAIL
  6
CONTINUOUS
 62
     5
 10
217.9995000000001
 20
30.467400000000001
 30
0.0
 11
217.9995000000001
 21
4.202399999999999
 31
0.0
  0
LINE
  8
DETAIL
  6
CONTINUOUS
 62
     5
 10
217.9995000000001
 20
65.137200000000007
 30
0.0
 11
217.9995000000001
 21
38.872199999999999
 31
0.0
  0
LINE
  8
DETAIL
  6
CONTINUOUS
 62
     5
 10
212.74650000000011
 20
65.137200000000007
 30
0.0
 11
212.74650000000011
 21
38.872199999999999
 31
0.0
  0
ARC
  8
DETAIL
  6
CONTINUOUS
 62
     5
 10
215.3730000000001
 20
38.872199999999999
 30
0.0
 40
2.6265
 50
180.0
 51
0.0
  0
ARC
  8
DETAIL
  6
CONTINUOUS
 62
     5
 10
215.3730000000001
 20
65.137200000000007
 30
0.0
 40
2.6265
 50
0.0
 51
180.0
  0
ARC
  8
DETAIL
  6
CONTINUOUS
 62
     5
 10
215.3730000000001
 20
-108.2117999999999
 30
0.0
 40
2.6265
 50
0.0
 51
180.0
  0
ARC
  8
DETAIL
  6
CONTINUOUS
 62
     5
 10
215.3730000000001
 20
-134.47679999999991
 30
0.0
 40
2.6265
 50
180.0
 51
0.0
  0
LINE
  8
DETAIL
  6
CONTINUOUS
 62
     5
 10
212.74650000000011
 20
-108.2117999999999
 30
0.0
 11
212.74650000000011
 21
-134.47679999999991
 31
0.0
  0
LINE
  8
DETAIL
  6
CONTINUOUS
 62
     5
 10
217.9995000000001
 20
-108.2117999999999
 30
0.0
 11
217.9995000000001
 21
-134.47679999999991
 31
0.0
  0
LINE
  8
DETAIL
  6
CONTINUOUS
 62
     5
 10
217.9995000000001
 20
-142.88159999999991
 30
0.0
 11
217.9995000000001
 21
-169.14660000000001
 31
0.0
  0
LINE
  8
DETAIL
  6
CONTINUOUS
 62
     5
 10
212.74650000000011
 20
-142.88159999999991
 30
0.0
 11
212.74650000000011
 21
-169.14660000000001
 31
0.0
  0
ARC
  8
DETAIL
  6
CONTINUOUS
 62
     5
 10
215.3730000000001
 20
-169.14660000000001
 30
0.0
 40
2.6265
 50
180.0
 51
0.0
  0
ARC
  8
DETAIL
  6
CONTINUOUS
 62
     5
 10
215.3730000000001
 20
-142.88159999999991
 30
0.0
 40
2.6265
 50
0.0
 51
180.0
  0
LINE
  8
DETAIL
  6
CONTINUOUS
 62
     5
 10
217.9995000000001
 20
-177.5514
 30
0.0
 11
217.9995000000001
 21
-203.81639999999999
 31
0.0
  0
LINE
  8
DETAIL
  6
CONTINUOUS
 62
     5
 10
212.74650000000011
 20
-177.5514
 30
0.0
 11
212.74650000000011
 21
-203.81639999999999
 31
0.0
  0
ARC
  8
DETAIL
  6
CONTINUOUS
 62
     5
 10
215.3730000000001
 20
-203.81639999999999
 30
0.0
 40
2.6265
 50
180.0
 51
0.0
  0
ARC
  8
DETAIL
  6
CONTINUOUS
 62
     5
 10
215.3730000000001
 20
-177.5514
 30
0.0
 40
2.6265
 50
0.0
 51
180.0
  0
LINE
  8
DETAIL
  6
CONTINUOUS
 62
     5
 10
217.9995000000001
 20
-73.542000000000002
 30
0.0
 11
217.9995000000001
 21
-99.807000000000002
 31
0.0
  0
LINE
  8
DETAIL
  6
CONTINUOUS
 62
     5
 10
212.74650000000011
 20
-73.542000000000002
 30
0.0
 11
212.74650000000011
 21
-99.807000000000002
 31
0.0
  0
ARC
  8
DETAIL
  6
CONTINUOUS
 62
     5
 10
215.3730000000001
 20
-99.807000000000002
 30
0.0
 40
2.6265
 50
180.0
 51
0.0
  0
ARC
  8
DETAIL
  6
CONTINUOUS
 62
     5
 10
215.3730000000001
 20
-73.542000000000002
 30
0.0
 40
2.6265
 50
0.0
 51
180.0
  0
ARC
  8
DETAIL
  6
CONTINUOUS
 62
     5
 10
204.8670000000001
 20
-73.542000000000002
 30
0.0
 40
2.6265
 50
0.0
 51
180.0
  0
ARC
  8
DETAIL
  6
CONTINUOUS
 62
     5
 10
204.8670000000001
 20
-99.807000000000002
 30
0.0
 40
2.6265
 50
180.0
 51
0.0
  0
LINE
  8
DETAIL
  6
CONTINUOUS
 62
     5
 10
202.24050000000011
 20
-73.542000000000002
 30
0.0
 11
202.24050000000011
 21
-99.807000000000002
 31
0.0
  0
LINE
  8
DETAIL
  6
CONTINUOUS
 62
     5
 10
207.4935000000001
 20
-73.542000000000002
 30
0.0
 11
207.4935000000001
 21
-99.807000000000002
 31
0.0
  0
ARC
  8
DETAIL
  6
CONTINUOUS
 62
     5
 10
204.8670000000001
 20
-177.5514
 30
0.0
 40
2.6265
 50
0.0
 51
180.0
  0
ARC
  8
DETAIL
  6
CONTINUOUS
 62
     5
 10
204.8670000000001
 20
-203.81639999999999
 30
0.0
 40
2.6265
 50
180.0
 51
0.0
  0
LINE
  8
DETAIL
  6
CONTINUOUS
 62
     5
 10
202.24050000000011
 20
-177.5514
 30
0.0
 11
202.24050000000011
 21
-203.81639999999999
 31
0.0
  0
LINE
  8
DETAIL
  6
CONTINUOUS
 62
     5
 10
207.4935000000001
 20
-177.5514
 30
0.0
 11
207.4935000000001
 21
-203.81639999999999
 31
0.0
  0
ARC
  8
DETAIL
  6
CONTINUOUS
 62
     5
 10
204.8670000000001
 20
-142.88159999999991
 30
0.0
 40
2.6265
 50
0.0
 51
180.0
  0
ARC
  8
DETAIL
  6
CONTINUOUS
 62
     5
 10
204.8670000000001
 20
-169.14660000000001
 30
0.0
 40
2.6265
 50
180.0
 51
0.0
  0
LINE
  8
DETAIL
  6
CONTINUOUS
 62
     5
 10
202.24050000000011
 20
-142.88159999999991
 30
0.0
 11
202.24050000000011
 21
-169.14660000000001
 31
0.0
  0
LINE
  8
DETAIL
  6
CONTINUOUS
 62
     5
 10
207.4935000000001
 20
-142.88159999999991
 30
0.0
 11
207.4935000000001
 21
-169.14660000000001
 31
0.0
  0
LINE
  8
DETAIL
  6
CONTINUOUS
 62
     5
 10
207.4935000000001
 20
-108.2117999999999
 30
0.0
 11
207.4935000000001
 21
-134.47679999999991
 31
0.0
  0
LINE
  8
DETAIL
  6
CONTINUOUS
 62
     5
 10
202.24050000000011
 20
-108.2117999999999
 30
0.0
 11
202.24050000000011
 21
-134.47679999999991
 31
0.0
  0
ARC
  8
DETAIL
  6
CONTINUOUS
 62
     5
 10
204.8670000000001
 20
-134.47679999999991
 30
0.0
 40
2.6265
 50
180.0
 51
0.0
  0
ARC
  8
DETAIL
  6
CONTINUOUS
 62
     5
 10
204.8670000000001
 20
-108.2117999999999
 30
0.0
 40
2.6265
 50
0.0
 51
180.0
  0
ARC
  8
DETAIL
  6
CONTINUOUS
 62
     5
 10
204.8670000000001
 20
65.137200000000007
 30
0.0
 40
2.6265
 50
0.0
 51
180.0
  0
ARC
  8
DETAIL
  6
CONTINUOUS
 62
     5
 10
204.8670000000001
 20
38.872199999999999
 30
0.0
 40
2.6265
 50
180.0
 51
0.0
  0
LINE
  8
DETAIL
  6
CONTINUOUS
 62
     5
 10
202.24050000000011
 20
65.137200000000007
 30
0.0
 11
202.24050000000011
 21
38.872199999999999
 31
0.0
  0
LINE
  8
DETAIL
  6
CONTINUOUS
 62
     5
 10
207.4935000000001
 20
65.137200000000007
 30
0.0
 11
207.4935000000001
 21
38.872199999999999
 31
0.0
  0
LINE
  8
DETAIL
  6
CONTINUOUS
 62
     5
 10
207.4935000000001
 20
30.467400000000001
 30
0.0
 11
207.4935000000001
 21
4.202399999999999
 31
0.0
  0
LINE
  8
DETAIL
  6
CONTINUOUS
 62
     5
 10
202.24050000000011
 20
30.467400000000001
 30
0.0
 11
202.24050000000011
 21
4.202399999999999
 31
0.0
  0
ARC
  8
DETAIL
  6
CONTINUOUS
 62
     5
 10
204.8670000000001
 20
4.202399999999999
 30
0.0
 40
2.6265
 50
180.0
 51
0.0
  0
ARC
  8
DETAIL
  6
CONTINUOUS
 62
     5
 10
204.8670000000001
 20
30.467400000000001
 30
0.0
 40
2.6265
 50
0.0
 51
180.0
  0
ARC
  8
DETAIL
  6
CONTINUOUS
 62
     5
 10
204.8670000000001
 20
-38.872199999999999
 30
0.0
 40
2.6265
 50
0.0
 51
180.0
  0
ARC
  8
DETAIL
  6
CONTINUOUS
 62
     5
 10
204.8670000000001
 20
-65.137200000000007
 30
0.0
 40
2.6265
 50
180.0
 51
0.0
  0
LINE
  8
DETAIL
  6
CONTINUOUS
 62
     5
 10
202.24050000000011
 20
-38.872199999999999
 30
0.0
 11
202.24050000000011
 21
-65.137200000000007
 31
0.0
  0
LINE
  8
DETAIL
  6
CONTINUOUS
 62
     5
 10
207.4935000000001
 20
-38.872199999999999
 30
0.0
 11
207.4935000000001
 21
-65.137200000000007
 31
0.0
  0
LINE
  8
DETAIL
  6
CONTINUOUS
 62
     5
 10
207.4935000000001
 20
-4.202399999999999
 30
0.0
 11
207.4935000000001
 21
-30.467399999999991
 31
0.0
  0
LINE
  8
DETAIL
  6
CONTINUOUS
 62
     5
 10
202.24050000000011
 20
-4.202399999999999
 30
0.0
 11
202.24050000000011
 21
-30.467399999999991
 31
0.0
  0
ARC
  8
DETAIL
  6
CONTINUOUS
 62
     5
 10
204.8670000000001
 20
-30.467399999999991
 30
0.0
 40
2.6265
 50
180.0
 51
0.0
  0
ARC
  8
DETAIL
  6
CONTINUOUS
 62
     5
 10
204.8670000000001
 20
-4.202399999999999
 30
0.0
 40
2.6265
 50
0.0
 51
180.0
  0
ARC
  8
DETAIL
  6
CONTINUOUS
 62
     5
 10
204.8670000000001
 20
134.47679999999991
 30
0.0
 40
2.6265
 50
0.0
 51
180.0
  0
ARC
  8
DETAIL
  6
CONTINUOUS
 62
     5
 10
204.8670000000001
 20
108.2117999999999
 30
0.0
 40
2.6265
 50
180.0
 51
0.0
  0
LINE
  8
DETAIL
  6
CONTINUOUS
 62
     5
 10
202.24050000000011
 20
134.47679999999991
 30
0.0
 11
202.24050000000011
 21
108.2117999999999
 31
0.0
  0
LINE
  8
DETAIL
  6
CONTINUOUS
 62
     5
 10
207.4935000000001
 20
134.47679999999991
 30
0.0
 11
207.4935000000001
 21
108.2117999999999
 31
0.0
  0
LINE
  8
DETAIL
  6
CONTINUOUS
 62
     5
 10
207.4935000000001
 20
99.807000000000002
 30
0.0
 11
207.4935000000001
 21
73.542000000000002
 31
0.0
  0
LINE
  8
DETAIL
  6
CONTINUOUS
 62
     5
 10
202.24050000000011
 20
99.807000000000002
 30
0.0
 11
202.24050000000011
 21
73.542000000000002
 31
0.0
  0
ARC
  8
DETAIL
  6
CONTINUOUS
 62
     5
 10
204.8670000000001
 20
73.542000000000002
 30
0.0
 40
2.6265
 50
180.0
 51
0.0
  0
ARC
  8
DETAIL
  6
CONTINUOUS
 62
     5
 10
204.8670000000001
 20
99.807000000000002
 30
0.0
 40
2.6265
 50
0.0
 51
180.0
  0
ARC
  8
DETAIL
  6
CONTINUOUS
 62
     5
 10
204.8670000000001
 20
169.14660000000001
 30
0.0
 40
2.6265
 50
0.0
 51
180.0
  0
ARC
  8
DETAIL
  6
CONTINUOUS
 62
     5
 10
204.8670000000001
 20
142.88159999999991
 30
0.0
 40
2.6265
 50
180.0
 51
0.0
  0
LINE
  8
DETAIL
  6
CONTINUOUS
 62
     5
 10
202.24050000000011
 20
169.14660000000001
 30
0.0
 11
202.24050000000011
 21
142.88159999999991
 31
0.0
  0
LINE
  8
DETAIL
  6
CONTINUOUS
 62
     5
 10
207.4935000000001
 20
169.14660000000001
 30
0.0
 11
207.4935000000001
 21
142.88159999999991
 31
0.0
  0
LINE
  8
DETAIL
  6
CONTINUOUS
 62
     5
 10
207.4935000000001
 20
203.81639999999999
 30
0.0
 11
207.4935000000001
 21
177.5514
 31
0.0
  0
LINE
  8
DETAIL
  6
CONTINUOUS
 62
     5
 10
202.24050000000011
 20
203.81639999999999
 30
0.0
 11
202.24050000000011
 21
177.5514
 31
0.0
  0
ARC
  8
DETAIL
  6
CONTINUOUS
 62
     5
 10
204.8670000000001
 20
177.5514
 30
0.0
 40
2.6265
 50
180.0
 51
0.0
  0
ARC
  8
DETAIL
  6
CONTINUOUS
 62
     5
 10
204.8670000000001
 20
203.81639999999999
 30
0.0
 40
2.6265
 50
0.0
 51
180.0
  0
ARC
  8
DETAIL
  6
CONTINUOUS
 62
     5
 10
236.3850000000001
 20
203.81639999999999
 30
0.0
 40
2.6265
 50
0.0
 51
180.0
  0
ARC
  8
DETAIL
  6
CONTINUOUS
 62
     5
 10
236.3850000000001
 20
177.5514
 30
0.0
 40
2.6265
 50
180.0
 51
0.0
  0
LINE
  8
DETAIL
  6
CONTINUOUS
 62
     5
 10
233.75850000000011
 20
203.81639999999999
 30
0.0
 11
233.75850000000011
 21
177.5514
 31
0.0
  0
LINE
  8
DETAIL
  6
CONTINUOUS
 62
     5
 10
239.01150000000001
 20
203.81639999999999
 30
0.0
 11
239.01150000000001
 21
177.5514
 31
0.0
  0
LINE
  8
DETAIL
  6
CONTINUOUS
 62
     5
 10
239.01150000000001
 20
169.14660000000001
 30
0.0
 11
239.01150000000001
 21
142.88159999999991
 31
0.0
  0
LINE
  8
DETAIL
  6
CONTINUOUS
 62
     5
 10
233.75850000000011
 20
169.14660000000001
 30
0.0
 11
233.75850000000011
 21
142.88159999999991
 31
0.0
  0
ARC
  8
DETAIL
  6
CONTINUOUS
 62
     5
 10
236.3850000000001
 20
142.88159999999991
 30
0.0
 40
2.6265
 50
180.0
 51
0.0
  0
ARC
  8
DETAIL
  6
CONTINUOUS
 62
     5
 10
236.3850000000001
 20
169.14660000000001
 30
0.0
 40
2.6265
 50
0.0
 51
180.0
  0
ARC
  8
DETAIL
  6
CONTINUOUS
 62
     5
 10
236.3850000000001
 20
99.807000000000002
 30
0.0
 40
2.6265
 50
0.0
 51
180.0
  0
ARC
  8
DETAIL
  6
CONTINUOUS
 62
     5
 10
236.3850000000001
 20
73.542000000000002
 30
0.0
 40
2.6265
 50
180.0
 51
0.0
  0
LINE
  8
DETAIL
  6
CONTINUOUS
 62
     5
 10
233.75850000000011
 20
99.807000000000002
 30
0.0
 11
233.75850000000011
 21
73.542000000000002
 31
0.0
  0
LINE
  8
DETAIL
  6
CONTINUOUS
 62
     5
 10
239.01150000000001
 20
99.807000000000002
 30
0.0
 11
239.01150000000001
 21
73.542000000000002
 31
0.0
  0
LINE
  8
DETAIL
  6
CONTINUOUS
 62
     5
 10
239.01150000000001
 20
134.47679999999991
 30
0.0
 11
239.01150000000001
 21
108.2117999999999
 31
0.0
  0
LINE
  8
DETAIL
  6
CONTINUOUS
 62
     5
 10
233.75850000000011
 20
134.47679999999991
 30
0.0
 11
233.75850000000011
 21
108.2117999999999
 31
0.0
  0
ARC
  8
DETAIL
  6
CONTINUOUS
 62
     5
 10
236.3850000000001
 20
108.2117999999999
 30
0.0
 40
2.6265
 50
180.0
 51
0.0
  0
ARC
  8
DETAIL
  6
CONTINUOUS
 62
     5
 10
236.3850000000001
 20
134.47679999999991
 30
0.0
 40
2.6265
 50
0.0
 51
180.0
  0
ARC
  8
DETAIL
  6
CONTINUOUS
 62
     5
 10
236.3850000000001
 20
-4.202399999999999
 30
0.0
 40
2.6265
 50
0.0
 51
180.0
  0
ARC
  8
DETAIL
  6
CONTINUOUS
 62
     5
 10
236.3850000000001
 20
-30.467399999999991
 30
0.0
 40
2.6265
 50
180.0
 51
0.0
  0
LINE
  8
DETAIL
  6
CONTINUOUS
 62
     5
 10
233.75850000000011
 20
-4.202399999999999
 30
0.0
 11
233.75850000000011
 21
-30.467399999999991
 31
0.0
  0
LINE
  8
DETAIL
  6
CONTINUOUS
 62
     5
 10
239.01150000000001
 20
-4.202399999999999
 30
0.0
 11
239.01150000000001
 21
-30.467399999999991
 31
0.0
  0
LINE
  8
DETAIL
  6
CONTINUOUS
 62
     5
 10
239.01150000000001
 20
-38.872199999999999
 30
0.0
 11
239.01150000000001
 21
-65.137200000000007
 31
0.0
  0
LINE
  8
DETAIL
  6
CONTINUOUS
 62
     5
 10
233.75850000000011
 20
-38.872199999999999
 30
0.0
 11
233.75850000000011
 21
-65.137200000000007
 31
0.0
  0
ARC
  8
DETAIL
  6
CONTINUOUS
 62
     5
 10
236.3850000000001
 20
-65.137200000000007
 30
0.0
 40
2.6265
 50
180.0
 51
0.0
  0
ARC
  8
DETAIL
  6
CONTINUOUS
 62
     5
 10
236.3850000000001
 20
-38.872199999999999
 30
0.0
 40
2.6265
 50
0.0
 51
180.0
  0
ARC
  8
DETAIL
  6
CONTINUOUS
 62
     5
 10
236.3850000000001
 20
30.467400000000001
 30
0.0
 40
2.6265
 50
0.0
 51
180.0
  0
ARC
  8
DETAIL
  6
CONTINUOUS
 62
     5
 10
236.3850000000001
 20
4.202399999999999
 30
0.0
 40
2.6265
 50
180.0
 51
0.0
  0
LINE
  8
DETAIL
  6
CONTINUOUS
 62
     5
 10
233.75850000000011
 20
30.467400000000001
 30
0.0
 11
233.75850000000011
 21
4.202399999999999
 31
0.0
  0
LINE
  8
DETAIL
  6
CONTINUOUS
 62
     5
 10
239.01150000000001
 20
30.467400000000001
 30
0.0
 11
239.01150000000001
 21
4.202399999999999
 31
0.0
  0
LINE
  8
DETAIL
  6
CONTINUOUS
 62
     5
 10
239.01150000000001
 20
65.137200000000007
 30
0.0
 11
239.01150000000001
 21
38.872199999999999
 31
0.0
  0
LINE
  8
DETAIL
  6
CONTINUOUS
 62
     5
 10
233.75850000000011
 20
65.137200000000007
 30
0.0
 11
233.75850000000011
 21
38.872199999999999
 31
0.0
  0
ARC
  8
DETAIL
  6
CONTINUOUS
 62
     5
 10
236.3850000000001
 20
38.872199999999999
 30
0.0
 40
2.6265
 50
180.0
 51
0.0
  0
ARC
  8
DETAIL
  6
CONTINUOUS
 62
     5
 10
236.3850000000001
 20
65.137200000000007
 30
0.0
 40
2.6265
 50
0.0
 51
180.0
  0
ARC
  8
DETAIL
  6
CONTINUOUS
 62
     5
 10
236.3850000000001
 20
-108.2117999999999
 30
0.0
 40
2.6265
 50
0.0
 51
180.0
  0
ARC
  8
DETAIL
  6
CONTINUOUS
 62
     5
 10
236.3850000000001
 20
-134.47679999999991
 30
0.0
 40
2.6265
 50
180.0
 51
0.0
  0
LINE
  8
DETAIL
  6
CONTINUOUS
 62
     5
 10
233.75850000000011
 20
-108.2117999999999
 30
0.0
 11
233.75850000000011
 21
-134.47679999999991
 31
0.0
  0
LINE
  8
DETAIL
  6
CONTINUOUS
 62
     5
 10
239.01150000000001
 20
-108.2117999999999
 30
0.0
 11
239.01150000000001
 21
-134.47679999999991
 31
0.0
  0
LINE
  8
DETAIL
  6
CONTINUOUS
 62
     5
 10
239.01150000000001
 20
-142.88159999999991
 30
0.0
 11
239.01150000000001
 21
-169.14660000000001
 31
0.0
  0
LINE
  8
DETAIL
  6
CONTINUOUS
 62
     5
 10
233.75850000000011
 20
-142.88159999999991
 30
0.0
 11
233.75850000000011
 21
-169.14660000000001
 31
0.0
  0
ARC
  8
DETAIL
  6
CONTINUOUS
 62
     5
 10
236.3850000000001
 20
-169.14660000000001
 30
0.0
 40
2.6265
 50
180.0
 51
0.0
  0
ARC
  8
DETAIL
  6
CONTINUOUS
 62
     5
 10
236.3850000000001
 20
-142.88159999999991
 30
0.0
 40
2.6265
 50
0.0
 51
180.0
  0
LINE
  8
DETAIL
  6
CONTINUOUS
 62
     5
 10
239.01150000000001
 20
-177.5514
 30
0.0
 11
239.01150000000001
 21
-203.81639999999999
 31
0.0
  0
LINE
  8
DETAIL
  6
CONTINUOUS
 62
     5
 10
233.75850000000011
 20
-177.5514
 30
0.0
 11
233.75850000000011
 21
-203.81639999999999
 31
0.0
  0
ARC
  8
DETAIL
  6
CONTINUOUS
 62
     5
 10
236.3850000000001
 20
-203.81639999999999
 30
0.0
 40
2.6265
 50
180.0
 51
0.0
  0
ARC
  8
DETAIL
  6
CONTINUOUS
 62
     5
 10
236.3850000000001
 20
-177.5514
 30
0.0
 40
2.6265
 50
0.0
 51
180.0
  0
LINE
  8
DETAIL
  6
CONTINUOUS
 62
     5
 10
239.01150000000001
 20
-73.542000000000002
 30
0.0
 11
239.01150000000001
 21
-99.807000000000002
 31
0.0
  0
LINE
  8
DETAIL
  6
CONTINUOUS
 62
     5
 10
233.75850000000011
 20
-73.542000000000002
 30
0.0
 11
233.75850000000011
 21
-99.807000000000002
 31
0.0
  0
ARC
  8
DETAIL
  6
CONTINUOUS
 62
     5
 10
236.3850000000001
 20
-99.807000000000002
 30
0.0
 40
2.6265
 50
180.0
 51
0.0
  0
ARC
  8
DETAIL
  6
CONTINUOUS
 62
     5
 10
236.3850000000001
 20
-73.542000000000002
 30
0.0
 40
2.6265
 50
0.0
 51
180.0
  0
ARC
  8
DETAIL
  6
CONTINUOUS
 62
     5
 10
225.8790000000001
 20
-73.542000000000002
 30
0.0
 40
2.6265
 50
0.0
 51
180.0
  0
ARC
  8
DETAIL
  6
CONTINUOUS
 62
     5
 10
225.8790000000001
 20
-99.807000000000002
 30
0.0
 40
2.6265
 50
180.0
 51
0.0
  0
LINE
  8
DETAIL
  6
CONTINUOUS
 62
     5
 10
223.25250000000011
 20
-73.542000000000002
 30
0.0
 11
223.25250000000011
 21
-99.807000000000002
 31
0.0
  0
LINE
  8
DETAIL
  6
CONTINUOUS
 62
     5
 10
228.5055000000001
 20
-73.542000000000002
 30
0.0
 11
228.5055000000001
 21
-99.807000000000002
 31
0.0
  0
ARC
  8
DETAIL
  6
CONTINUOUS
 62
     5
 10
225.8790000000001
 20
-177.5514
 30
0.0
 40
2.6265
 50
0.0
 51
180.0
  0
ARC
  8
DETAIL
  6
CONTINUOUS
 62
     5
 10
225.8790000000001
 20
-203.81639999999999
 30
0.0
 40
2.6265
 50
180.0
 51
0.0
  0
LINE
  8
DETAIL
  6
CONTINUOUS
 62
     5
 10
223.25250000000011
 20
-177.5514
 30
0.0
 11
223.25250000000011
 21
-203.81639999999999
 31
0.0
  0
LINE
  8
DETAIL
  6
CONTINUOUS
 62
     5
 10
228.5055000000001
 20
-177.5514
 30
0.0
 11
228.5055000000001
 21
-203.81639999999999
 31
0.0
  0
ARC
  8
DETAIL
  6
CONTINUOUS
 62
     5
 10
225.8790000000001
 20
-142.88159999999991
 30
0.0
 40
2.6265
 50
0.0
 51
180.0
  0
ARC
  8
DETAIL
  6
CONTINUOUS
 62
     5
 10
225.8790000000001
 20
-169.14660000000001
 30
0.0
 40
2.6265
 50
180.0
 51
0.0
  0
LINE
  8
DETAIL
  6
CONTINUOUS
 62
     5
 10
223.25250000000011
 20
-142.88159999999991
 30
0.0
 11
223.25250000000011
 21
-169.14660000000001
 31
0.0
  0
LINE
  8
DETAIL
  6
CONTINUOUS
 62
     5
 10
228.5055000000001
 20
-142.88159999999991
 30
0.0
 11
228.5055000000001
 21
-169.14660000000001
 31
0.0
  0
LINE
  8
DETAIL
  6
CONTINUOUS
 62
     5
 10
228.5055000000001
 20
-108.2117999999999
 30
0.0
 11
228.5055000000001
 21
-134.47679999999991
 31
0.0
  0
LINE
  8
DETAIL
  6
CONTINUOUS
 62
     5
 10
223.25250000000011
 20
-108.2117999999999
 30
0.0
 11
223.25250000000011
 21
-134.47679999999991
 31
0.0
  0
ARC
  8
DETAIL
  6
CONTINUOUS
 62
     5
 10
225.8790000000001
 20
-134.47679999999991
 30
0.0
 40
2.6265
 50
180.0
 51
0.0
  0
ARC
  8
DETAIL
  6
CONTINUOUS
 62
     5
 10
225.8790000000001
 20
-108.2117999999999
 30
0.0
 40
2.6265
 50
0.0
 51
180.0
  0
ARC
  8
DETAIL
  6
CONTINUOUS
 62
     5
 10
225.8790000000001
 20
65.137200000000007
 30
0.0
 40
2.6265
 50
0.0
 51
180.0
  0
ARC
  8
DETAIL
  6
CONTINUOUS
 62
     5
 10
225.8790000000001
 20
38.872199999999999
 30
0.0
 40
2.6265
 50
180.0
 51
0.0
  0
LINE
  8
DETAIL
  6
CONTINUOUS
 62
     5
 10
223.25250000000011
 20
65.137200000000007
 30
0.0
 11
223.25250000000011
 21
38.872199999999999
 31
0.0
  0
LINE
  8
DETAIL
  6
CONTINUOUS
 62
     5
 10
228.5055000000001
 20
65.137200000000007
 30
0.0
 11
228.5055000000001
 21
38.872199999999999
 31
0.0
  0
LINE
  8
DETAIL
  6
CONTINUOUS
 62
     5
 10
228.5055000000001
 20
30.467400000000001
 30
0.0
 11
228.5055000000001
 21
4.202399999999999
 31
0.0
  0
LINE
  8
DETAIL
  6
CONTINUOUS
 62
     5
 10
223.25250000000011
 20
30.467400000000001
 30
0.0
 11
223.25250000000011
 21
4.202399999999999
 31
0.0
  0
ARC
  8
DETAIL
  6
CONTINUOUS
 62
     5
 10
225.8790000000001
 20
4.202399999999999
 30
0.0
 40
2.6265
 50
180.0
 51
0.0
  0
ARC
  8
DETAIL
  6
CONTINUOUS
 62
     5
 10
225.8790000000001
 20
30.467400000000001
 30
0.0
 40
2.6265
 50
0.0
 51
180.0
  0
ARC
  8
DETAIL
  6
CONTINUOUS
 62
     5
 10
225.8790000000001
 20
-38.872199999999999
 30
0.0
 40
2.6265
 50
0.0
 51
180.0
  0
ARC
  8
DETAIL
  6
CONTINUOUS
 62
     5
 10
225.8790000000001
 20
-65.137200000000007
 30
0.0
 40
2.6265
 50
180.0
 51
0.0
  0
LINE
  8
DETAIL
  6
CONTINUOUS
 62
     5
 10
223.25250000000011
 20
-38.872199999999999
 30
0.0
 11
223.25250000000011
 21
-65.137200000000007
 31
0.0
  0
LINE
  8
DETAIL
  6
CONTINUOUS
 62
     5
 10
228.5055000000001
 20
-38.872199999999999
 30
0.0
 11
228.5055000000001
 21
-65.137200000000007
 31
0.0
  0
LINE
  8
DETAIL
  6
CONTINUOUS
 62
     5
 10
228.5055000000001
 20
-4.202399999999999
 30
0.0
 11
228.5055000000001
 21
-30.467399999999991
 31
0.0
  0
LINE
  8
DETAIL
  6
CONTINUOUS
 62
     5
 10
223.25250000000011
 20
-4.202399999999999
 30
0.0
 11
223.25250000000011
 21
-30.467399999999991
 31
0.0
  0
ARC
  8
DETAIL
  6
CONTINUOUS
 62
     5
 10
225.8790000000001
 20
-30.467399999999991
 30
0.0
 40
2.6265
 50
180.0
 51
0.0
  0
ARC
  8
DETAIL
  6
CONTINUOUS
 62
     5
 10
225.8790000000001
 20
-4.202399999999999
 30
0.0
 40
2.6265
 50
0.0
 51
180.0
  0
ARC
  8
DETAIL
  6
CONTINUOUS
 62
     5
 10
225.8790000000001
 20
134.47679999999991
 30
0.0
 40
2.6265
 50
0.0
 51
180.0
  0
ARC
  8
DETAIL
  6
CONTINUOUS
 62
     5
 10
225.8790000000001
 20
108.2117999999999
 30
0.0
 40
2.6265
 50
180.0
 51
0.0
  0
LINE
  8
DETAIL
  6
CONTINUOUS
 62
     5
 10
223.25250000000011
 20
134.47679999999991
 30
0.0
 11
223.25250000000011
 21
108.2117999999999
 31
0.0
  0
LINE
  8
DETAIL
  6
CONTINUOUS
 62
     5
 10
228.5055000000001
 20
134.47679999999991
 30
0.0
 11
228.5055000000001
 21
108.2117999999999
 31
0.0
  0
LINE
  8
DETAIL
  6
CONTINUOUS
 62
     5
 10
228.5055000000001
 20
99.807000000000002
 30
0.0
 11
228.5055000000001
 21
73.542000000000002
 31
0.0
  0
LINE
  8
DETAIL
  6
CONTINUOUS
 62
     5
 10
223.25250000000011
 20
99.807000000000002
 30
0.0
 11
223.25250000000011
 21
73.542000000000002
 31
0.0
  0
ARC
  8
DETAIL
  6
CONTINUOUS
 62
     5
 10
225.8790000000001
 20
73.542000000000002
 30
0.0
 40
2.6265
 50
180.0
 51
0.0
  0
ARC
  8
DETAIL
  6
CONTINUOUS
 62
     5
 10
225.8790000000001
 20
99.807000000000002
 30
0.0
 40
2.6265
 50
0.0
 51
180.0
  0
ARC
  8
DETAIL
  6
CONTINUOUS
 62
     5
 10
225.8790000000001
 20
169.14660000000001
 30
0.0
 40
2.6265
 50
0.0
 51
180.0
  0
ARC
  8
DETAIL
  6
CONTINUOUS
 62
     5
 10
225.8790000000001
 20
142.88159999999991
 30
0.0
 40
2.6265
 50
180.0
 51
0.0
  0
LINE
  8
DETAIL
  6
CONTINUOUS
 62
     5
 10
223.25250000000011
 20
169.14660000000001
 30
0.0
 11
223.25250000000011
 21
142.88159999999991
 31
0.0
  0
LINE
  8
DETAIL
  6
CONTINUOUS
 62
     5
 10
228.5055000000001
 20
169.14660000000001
 30
0.0
 11
228.5055000000001
 21
142.88159999999991
 31
0.0
  0
LINE
  8
DETAIL
  6
CONTINUOUS
 62
     5
 10
228.5055000000001
 20
203.81639999999999
 30
0.0
 11
228.5055000000001
 21
177.5514
 31
0.0
  0
LINE
  8
DETAIL
  6
CONTINUOUS
 62
     5
 10
223.25250000000011
 20
203.81639999999999
 30
0.0
 11
223.25250000000011
 21
177.5514
 31
0.0
  0
ARC
  8
DETAIL
  6
CONTINUOUS
 62
     5
 10
225.8790000000001
 20
177.5514
 30
0.0
 40
2.6265
 50
180.0
 51
0.0
  0
ARC
  8
DETAIL
  6
CONTINUOUS
 62
     5
 10
225.8790000000001
 20
203.81639999999999
 30
0.0
 40
2.6265
 50
0.0
 51
180.0
  0
ARC
  8
DETAIL
  6
CONTINUOUS
 62
     5
 10
141.8310000000001
 20
203.81639999999999
 30
0.0
 40
2.6265
 50
0.0
 51
180.0
  0
ARC
  8
DETAIL
  6
CONTINUOUS
 62
     5
 10
141.8310000000001
 20
177.5514
 30
0.0
 40
2.6265
 50
180.0
 51
0.0
  0
LINE
  8
DETAIL
  6
CONTINUOUS
 62
     5
 10
139.20450000000011
 20
203.81639999999999
 30
0.0
 11
139.20450000000011
 21
177.5514
 31
0.0
  0
LINE
  8
DETAIL
  6
CONTINUOUS
 62
     5
 10
144.4575000000001
 20
203.81639999999999
 30
0.0
 11
144.4575000000001
 21
177.5514
 31
0.0
  0
LINE
  8
DETAIL
  6
CONTINUOUS
 62
     5
 10
144.4575000000001
 20
169.14660000000001
 30
0.0
 11
144.4575000000001
 21
142.88159999999991
 31
0.0
  0
LINE
  8
DETAIL
  6
CONTINUOUS
 62
     5
 10
139.20450000000011
 20
169.14660000000001
 30
0.0
 11
139.20450000000011
 21
142.88159999999991
 31
0.0
  0
ARC
  8
DETAIL
  6
CONTINUOUS
 62
     5
 10
141.8310000000001
 20
142.88159999999991
 30
0.0
 40
2.6265
 50
180.0
 51
0.0
  0
ARC
  8
DETAIL
  6
CONTINUOUS
 62
     5
 10
141.8310000000001
 20
169.14660000000001
 30
0.0
 40
2.6265
 50
0.0
 51
180.0
  0
ARC
  8
DETAIL
  6
CONTINUOUS
 62
     5
 10
141.8310000000001
 20
99.807000000000002
 30
0.0
 40
2.6265
 50
0.0
 51
180.0
  0
ARC
  8
DETAIL
  6
CONTINUOUS
 62
     5
 10
141.8310000000001
 20
73.542000000000002
 30
0.0
 40
2.6265
 50
180.0
 51
0.0
  0
LINE
  8
DETAIL
  6
CONTINUOUS
 62
     5
 10
139.20450000000011
 20
99.807000000000002
 30
0.0
 11
139.20450000000011
 21
73.542000000000002
 31
0.0
  0
LINE
  8
DETAIL
  6
CONTINUOUS
 62
     5
 10
144.4575000000001
 20
99.807000000000002
 30
0.0
 11
144.4575000000001
 21
73.542000000000002
 31
0.0
  0
LINE
  8
DETAIL
  6
CONTINUOUS
 62
     5
 10
144.4575000000001
 20
134.47679999999991
 30
0.0
 11
144.4575000000001
 21
108.2117999999999
 31
0.0
  0
LINE
  8
DETAIL
  6
CONTINUOUS
 62
     5
 10
139.20450000000011
 20
134.47679999999991
 30
0.0
 11
139.20450000000011
 21
108.2117999999999
 31
0.0
  0
ARC
  8
DETAIL
  6
CONTINUOUS
 62
     5
 10
141.8310000000001
 20
108.2117999999999
 30
0.0
 40
2.6265
 50
180.0
 51
0.0
  0
ARC
  8
DETAIL
  6
CONTINUOUS
 62
     5
 10
141.8310000000001
 20
134.47679999999991
 30
0.0
 40
2.6265
 50
0.0
 51
180.0
  0
ARC
  8
DETAIL
  6
CONTINUOUS
 62
     5
 10
141.8310000000001
 20
-4.202399999999999
 30
0.0
 40
2.6265
 50
0.0
 51
180.0
  0
ARC
  8
DETAIL
  6
CONTINUOUS
 62
     5
 10
141.8310000000001
 20
-30.467399999999991
 30
0.0
 40
2.6265
 50
180.0
 51
0.0
  0
LINE
  8
DETAIL
  6
CONTINUOUS
 62
     5
 10
139.20450000000011
 20
-4.202399999999999
 30
0.0
 11
139.20450000000011
 21
-30.467399999999991
 31
0.0
  0
LINE
  8
DETAIL
  6
CONTINUOUS
 62
     5
 10
144.4575000000001
 20
-4.202399999999999
 30
0.0
 11
144.4575000000001
 21
-30.467399999999991
 31
0.0
  0
LINE
  8
DETAIL
  6
CONTINUOUS
 62
     5
 10
144.4575000000001
 20
-38.872199999999999
 30
0.0
 11
144.4575000000001
 21
-65.137200000000007
 31
0.0
  0
LINE
  8
DETAIL
  6
CONTINUOUS
 62
     5
 10
139.20450000000011
 20
-38.872199999999999
 30
0.0
 11
139.20450000000011
 21
-65.137200000000007
 31
0.0
  0
ARC
  8
DETAIL
  6
CONTINUOUS
 62
     5
 10
141.8310000000001
 20
-65.137200000000007
 30
0.0
 40
2.6265
 50
180.0
 51
0.0
  0
ARC
  8
DETAIL
  6
CONTINUOUS
 62
     5
 10
141.8310000000001
 20
-38.872199999999999
 30
0.0
 40
2.6265
 50
0.0
 51
180.0
  0
ARC
  8
DETAIL
  6
CONTINUOUS
 62
     5
 10
141.8310000000001
 20
30.467400000000001
 30
0.0
 40
2.6265
 50
0.0
 51
180.0
  0
ARC
  8
DETAIL
  6
CONTINUOUS
 62
     5
 10
141.8310000000001
 20
4.202399999999999
 30
0.0
 40
2.6265
 50
180.0
 51
0.0
  0
LINE
  8
DETAIL
  6
CONTINUOUS
 62
     5
 10
139.20450000000011
 20
30.467400000000001
 30
0.0
 11
139.20450000000011
 21
4.202399999999999
 31
0.0
  0
LINE
  8
DETAIL
  6
CONTINUOUS
 62
     5
 10
144.4575000000001
 20
30.467400000000001
 30
0.0
 11
144.4575000000001
 21
4.202399999999999
 31
0.0
  0
LINE
  8
DETAIL
  6
CONTINUOUS
 62
     5
 10
144.4575000000001
 20
65.137200000000007
 30
0.0
 11
144.4575000000001
 21
38.872199999999999
 31
0.0
  0
LINE
  8
DETAIL
  6
CONTINUOUS
 62
     5
 10
139.20450000000011
 20
65.137200000000007
 30
0.0
 11
139.20450000000011
 21
38.872199999999999
 31
0.0
  0
ARC
  8
DETAIL
  6
CONTINUOUS
 62
     5
 10
141.8310000000001
 20
38.872199999999999
 30
0.0
 40
2.6265
 50
180.0
 51
0.0
  0
ARC
  8
DETAIL
  6
CONTINUOUS
 62
     5
 10
141.8310000000001
 20
65.137200000000007
 30
0.0
 40
2.6265
 50
0.0
 51
180.0
  0
ARC
  8
DETAIL
  6
CONTINUOUS
 62
     5
 10
141.8310000000001
 20
-108.2117999999999
 30
0.0
 40
2.6265
 50
0.0
 51
180.0
  0
ARC
  8
DETAIL
  6
CONTINUOUS
 62
     5
 10
141.8310000000001
 20
-134.47679999999991
 30
0.0
 40
2.6265
 50
180.0
 51
0.0
  0
LINE
  8
DETAIL
  6
CONTINUOUS
 62
     5
 10
139.20450000000011
 20
-108.2117999999999
 30
0.0
 11
139.20450000000011
 21
-134.47679999999991
 31
0.0
  0
LINE
  8
DETAIL
  6
CONTINUOUS
 62
     5
 10
144.4575000000001
 20
-108.2117999999999
 30
0.0
 11
144.4575000000001
 21
-134.47679999999991
 31
0.0
  0
LINE
  8
DETAIL
  6
CONTINUOUS
 62
     5
 10
144.4575000000001
 20
-142.88159999999991
 30
0.0
 11
144.4575000000001
 21
-169.14660000000001
 31
0.0
  0
LINE
  8
DETAIL
  6
CONTINUOUS
 62
     5
 10
139.20450000000011
 20
-142.88159999999991
 30
0.0
 11
139.20450000000011
 21
-169.14660000000001
 31
0.0
  0
ARC
  8
DETAIL
  6
CONTINUOUS
 62
     5
 10
141.8310000000001
 20
-169.14660000000001
 30
0.0
 40
2.6265
 50
180.0
 51
0.0
  0
ARC
  8
DETAIL
  6
CONTINUOUS
 62
     5
 10
141.8310000000001
 20
-142.88159999999991
 30
0.0
 40
2.6265
 50
0.0
 51
180.0
  0
LINE
  8
DETAIL
  6
CONTINUOUS
 62
     5
 10
144.4575000000001
 20
-177.5514
 30
0.0
 11
144.4575000000001
 21
-203.81639999999999
 31
0.0
  0
LINE
  8
DETAIL
  6
CONTINUOUS
 62
     5
 10
139.20450000000011
 20
-177.5514
 30
0.0
 11
139.20450000000011
 21
-203.81639999999999
 31
0.0
  0
ARC
  8
DETAIL
  6
CONTINUOUS
 62
     5
 10
141.8310000000001
 20
-203.81639999999999
 30
0.0
 40
2.6265
 50
180.0
 51
0.0
  0
ARC
  8
DETAIL
  6
CONTINUOUS
 62
     5
 10
141.8310000000001
 20
-177.5514
 30
0.0
 40
2.6265
 50
0.0
 51
180.0
  0
LINE
  8
DETAIL
  6
CONTINUOUS
 62
     5
 10
144.4575000000001
 20
-73.542000000000002
 30
0.0
 11
144.4575000000001
 21
-99.807000000000002
 31
0.0
  0
LINE
  8
DETAIL
  6
CONTINUOUS
 62
     5
 10
139.20450000000011
 20
-73.542000000000002
 30
0.0
 11
139.20450000000011
 21
-99.807000000000002
 31
0.0
  0
ARC
  8
DETAIL
  6
CONTINUOUS
 62
     5
 10
141.8310000000001
 20
-99.807000000000002
 30
0.0
 40
2.6265
 50
180.0
 51
0.0
  0
ARC
  8
DETAIL
  6
CONTINUOUS
 62
     5
 10
141.8310000000001
 20
-73.542000000000002
 30
0.0
 40
2.6265
 50
0.0
 51
180.0
  0
ARC
  8
DETAIL
  6
CONTINUOUS
 62
     5
 10
152.3370000000001
 20
-73.542000000000002
 30
0.0
 40
2.6265
 50
0.0
 51
180.0
  0
ARC
  8
DETAIL
  6
CONTINUOUS
 62
     5
 10
152.3370000000001
 20
-99.807000000000002
 30
0.0
 40
2.6265
 50
180.0
 51
0.0
  0
LINE
  8
DETAIL
  6
CONTINUOUS
 62
     5
 10
149.71050000000011
 20
-73.542000000000002
 30
0.0
 11
149.71050000000011
 21
-99.807000000000002
 31
0.0
  0
LINE
  8
DETAIL
  6
CONTINUOUS
 62
     5
 10
154.9635000000001
 20
-73.542000000000002
 30
0.0
 11
154.9635000000001
 21
-99.807000000000002
 31
0.0
  0
ARC
  8
DETAIL
  6
CONTINUOUS
 62
     5
 10
152.3370000000001
 20
-177.5514
 30
0.0
 40
2.6265
 50
0.0
 51
180.0
  0
ARC
  8
DETAIL
  6
CONTINUOUS
 62
     5
 10
152.3370000000001
 20
-203.81639999999999
 30
0.0
 40
2.6265
 50
180.0
 51
0.0
  0
LINE
  8
DETAIL
  6
CONTINUOUS
 62
     5
 10
149.71050000000011
 20
-177.5514
 30
0.0
 11
149.71050000000011
 21
-203.81639999999999
 31
0.0
  0
LINE
  8
DETAIL
  6
CONTINUOUS
 62
     5
 10
154.9635000000001
 20
-177.5514
 30
0.0
 11
154.9635000000001
 21
-203.81639999999999
 31
0.0
  0
ARC
  8
DETAIL
  6
CONTINUOUS
 62
     5
 10
152.3370000000001
 20
-142.88159999999991
 30
0.0
 40
2.6265
 50
0.0
 51
180.0
  0
ARC
  8
DETAIL
  6
CONTINUOUS
 62
     5
 10
152.3370000000001
 20
-169.14660000000001
 30
0.0
 40
2.6265
 50
180.0
 51
0.0
  0
LINE
  8
DETAIL
  6
CONTINUOUS
 62
     5
 10
149.71050000000011
 20
-142.88159999999991
 30
0.0
 11
149.71050000000011
 21
-169.14660000000001
 31
0.0
  0
LINE
  8
DETAIL
  6
CONTINUOUS
 62
     5
 10
154.9635000000001
 20
-142.88159999999991
 30
0.0
 11
154.9635000000001
 21
-169.14660000000001
 31
0.0
  0
LINE
  8
DETAIL
  6
CONTINUOUS
 62
     5
 10
154.9635000000001
 20
-108.2117999999999
 30
0.0
 11
154.9635000000001
 21
-134.47679999999991
 31
0.0
  0
LINE
  8
DETAIL
  6
CONTINUOUS
 62
     5
 10
149.71050000000011
 20
-108.2117999999999
 30
0.0
 11
149.71050000000011
 21
-134.47679999999991
 31
0.0
  0
ARC
  8
DETAIL
  6
CONTINUOUS
 62
     5
 10
152.3370000000001
 20
-134.47679999999991
 30
0.0
 40
2.6265
 50
180.0
 51
0.0
  0
ARC
  8
DETAIL
  6
CONTINUOUS
 62
     5
 10
152.3370000000001
 20
-108.2117999999999
 30
0.0
 40
2.6265
 50
0.0
 51
180.0
  0
ARC
  8
DETAIL
  6
CONTINUOUS
 62
     5
 10
152.3370000000001
 20
65.137200000000007
 30
0.0
 40
2.6265
 50
0.0
 51
180.0
  0
ARC
  8
DETAIL
  6
CONTINUOUS
 62
     5
 10
152.3370000000001
 20
38.872199999999999
 30
0.0
 40
2.6265
 50
180.0
 51
0.0
  0
LINE
  8
DETAIL
  6
CONTINUOUS
 62
     5
 10
149.71050000000011
 20
65.137200000000007
 30
0.0
 11
149.71050000000011
 21
38.872199999999999
 31
0.0
  0
LINE
  8
DETAIL
  6
CONTINUOUS
 62
     5
 10
154.9635000000001
 20
65.137200000000007
 30
0.0
 11
154.9635000000001
 21
38.872199999999999
 31
0.0
  0
LINE
  8
DETAIL
  6
CONTINUOUS
 62
     5
 10
154.9635000000001
 20
30.467400000000001
 30
0.0
 11
154.9635000000001
 21
4.202399999999999
 31
0.0
  0
LINE
  8
DETAIL
  6
CONTINUOUS
 62
     5
 10
149.71050000000011
 20
30.467400000000001
 30
0.0
 11
149.71050000000011
 21
4.202399999999999
 31
0.0
  0
ARC
  8
DETAIL
  6
CONTINUOUS
 62
     5
 10
152.3370000000001
 20
4.202399999999999
 30
0.0
 40
2.6265
 50
180.0
 51
0.0
  0
ARC
  8
DETAIL
  6
CONTINUOUS
 62
     5
 10
152.3370000000001
 20
30.467400000000001
 30
0.0
 40
2.6265
 50
0.0
 51
180.0
  0
ARC
  8
DETAIL
  6
CONTINUOUS
 62
     5
 10
152.3370000000001
 20
-38.872199999999999
 30
0.0
 40
2.6265
 50
0.0
 51
180.0
  0
ARC
  8
DETAIL
  6
CONTINUOUS
 62
     5
 10
152.3370000000001
 20
-65.137200000000007
 30
0.0
 40
2.6265
 50
180.0
 51
0.0
  0
LINE
  8
DETAIL
  6
CONTINUOUS
 62
     5
 10
149.71050000000011
 20
-38.872199999999999
 30
0.0
 11
149.71050000000011
 21
-65.137200000000007
 31
0.0
  0
LINE
  8
DETAIL
  6
CONTINUOUS
 62
     5
 10
154.9635000000001
 20
-38.872199999999999
 30
0.0
 11
154.9635000000001
 21
-65.137200000000007
 31
0.0
  0
LINE
  8
DETAIL
  6
CONTINUOUS
 62
     5
 10
154.9635000000001
 20
-4.202399999999999
 30
0.0
 11
154.9635000000001
 21
-30.467399999999991
 31
0.0
  0
LINE
  8
DETAIL
  6
CONTINUOUS
 62
     5
 10
149.71050000000011
 20
-4.202399999999999
 30
0.0
 11
149.71050000000011
 21
-30.467399999999991
 31
0.0
  0
ARC
  8
DETAIL
  6
CONTINUOUS
 62
     5
 10
152.3370000000001
 20
-30.467399999999991
 30
0.0
 40
2.6265
 50
180.0
 51
0.0
  0
ARC
  8
DETAIL
  6
CONTINUOUS
 62
     5
 10
152.3370000000001
 20
-4.202399999999999
 30
0.0
 40
2.6265
 50
0.0
 51
180.0
  0
ARC
  8
DETAIL
  6
CONTINUOUS
 62
     5
 10
152.3370000000001
 20
134.47679999999991
 30
0.0
 40
2.6265
 50
0.0
 51
180.0
  0
ARC
  8
DETAIL
  6
CONTINUOUS
 62
     5
 10
152.3370000000001
 20
108.2117999999999
 30
0.0
 40
2.6265
 50
180.0
 51
0.0
  0
LINE
  8
DETAIL
  6
CONTINUOUS
 62
     5
 10
149.71050000000011
 20
134.47679999999991
 30
0.0
 11
149.71050000000011
 21
108.2117999999999
 31
0.0
  0
LINE
  8
DETAIL
  6
CONTINUOUS
 62
     5
 10
154.9635000000001
 20
134.47679999999991
 30
0.0
 11
154.9635000000001
 21
108.2117999999999
 31
0.0
  0
LINE
  8
DETAIL
  6
CONTINUOUS
 62
     5
 10
154.9635000000001
 20
99.807000000000002
 30
0.0
 11
154.9635000000001
 21
73.542000000000002
 31
0.0
  0
LINE
  8
DETAIL
  6
CONTINUOUS
 62
     5
 10
149.71050000000011
 20
99.807000000000002
 30
0.0
 11
149.71050000000011
 21
73.542000000000002
 31
0.0
  0
ARC
  8
DETAIL
  6
CONTINUOUS
 62
     5
 10
152.3370000000001
 20
73.542000000000002
 30
0.0
 40
2.6265
 50
180.0
 51
0.0
  0
ARC
  8
DETAIL
  6
CONTINUOUS
 62
     5
 10
152.3370000000001
 20
99.807000000000002
 30
0.0
 40
2.6265
 50
0.0
 51
180.0
  0
ARC
  8
DETAIL
  6
CONTINUOUS
 62
     5
 10
152.3370000000001
 20
169.14660000000001
 30
0.0
 40
2.6265
 50
0.0
 51
180.0
  0
ARC
  8
DETAIL
  6
CONTINUOUS
 62
     5
 10
152.3370000000001
 20
142.88159999999991
 30
0.0
 40
2.6265
 50
180.0
 51
0.0
  0
LINE
  8
DETAIL
  6
CONTINUOUS
 62
     5
 10
149.71050000000011
 20
169.14660000000001
 30
0.0
 11
149.71050000000011
 21
142.88159999999991
 31
0.0
  0
LINE
  8
DETAIL
  6
CONTINUOUS
 62
     5
 10
154.9635000000001
 20
169.14660000000001
 30
0.0
 11
154.9635000000001
 21
142.88159999999991
 31
0.0
  0
LINE
  8
DETAIL
  6
CONTINUOUS
 62
     5
 10
154.9635000000001
 20
203.81639999999999
 30
0.0
 11
154.9635000000001
 21
177.5514
 31
0.0
  0
LINE
  8
DETAIL
  6
CONTINUOUS
 62
     5
 10
149.71050000000011
 20
203.81639999999999
 30
0.0
 11
149.71050000000011
 21
177.5514
 31
0.0
  0
ARC
  8
DETAIL
  6
CONTINUOUS
 62
     5
 10
152.3370000000001
 20
177.5514
 30
0.0
 40
2.6265
 50
180.0
 51
0.0
  0
ARC
  8
DETAIL
  6
CONTINUOUS
 62
     5
 10
152.3370000000001
 20
203.81639999999999
 30
0.0
 40
2.6265
 50
0.0
 51
180.0
  0
ARC
  8
DETAIL
  6
CONTINUOUS
 62
     5
 10
173.3490000000001
 20
203.81639999999999
 30
0.0
 40
2.6265
 50
0.0
 51
180.0
  0
ARC
  8
DETAIL
  6
CONTINUOUS
 62
     5
 10
173.3490000000001
 20
177.5514
 30
0.0
 40
2.6265
 50
180.0
 51
0.0
  0
LINE
  8
DETAIL
  6
CONTINUOUS
 62
     5
 10
170.7224999999998
 20
203.81639999999999
 30
0.0
 11
170.7224999999998
 21
177.5514
 31
0.0
  0
LINE
  8
DETAIL
  6
CONTINUOUS
 62
     5
 10
175.97550000000001
 20
203.81639999999999
 30
0.0
 11
175.97550000000001
 21
177.5514
 31
0.0
  0
LINE
  8
DETAIL
  6
CONTINUOUS
 62
     5
 10
175.97550000000001
 20
169.14660000000001
 30
0.0
 11
175.97550000000001
 21
142.88159999999991
 31
0.0
  0
LINE
  8
DETAIL
  6
CONTINUOUS
 62
     5
 10
170.7224999999998
 20
169.14660000000001
 30
0.0
 11
170.7224999999998
 21
142.88159999999991
 31
0.0
  0
ARC
  8
DETAIL
  6
CONTINUOUS
 62
     5
 10
173.3490000000001
 20
142.88159999999991
 30
0.0
 40
2.6265
 50
180.0
 51
0.0
  0
ARC
  8
DETAIL
  6
CONTINUOUS
 62
     5
 10
173.3490000000001
 20
169.14660000000001
 30
0.0
 40
2.6265
 50
0.0
 51
180.0
  0
ARC
  8
DETAIL
  6
CONTINUOUS
 62
     5
 10
173.3490000000001
 20
99.807000000000002
 30
0.0
 40
2.6265
 50
0.0
 51
180.0
  0
ARC
  8
DETAIL
  6
CONTINUOUS
 62
     5
 10
173.3490000000001
 20
73.542000000000002
 30
0.0
 40
2.6265
 50
180.0
 51
0.0
  0
LINE
  8
DETAIL
  6
CONTINUOUS
 62
     5
 10
170.7224999999998
 20
99.807000000000002
 30
0.0
 11
170.7224999999998
 21
73.542000000000002
 31
0.0
  0
LINE
  8
DETAIL
  6
CONTINUOUS
 62
     5
 10
175.97550000000001
 20
99.807000000000002
 30
0.0
 11
175.97550000000001
 21
73.542000000000002
 31
0.0
  0
LINE
  8
DETAIL
  6
CONTINUOUS
 62
     5
 10
175.97550000000001
 20
134.47679999999991
 30
0.0
 11
175.97550000000001
 21
108.2117999999999
 31
0.0
  0
LINE
  8
DETAIL
  6
CONTINUOUS
 62
     5
 10
170.7224999999998
 20
134.47679999999991
 30
0.0
 11
170.7224999999998
 21
108.2117999999999
 31
0.0
  0
ARC
  8
DETAIL
  6
CONTINUOUS
 62
     5
 10
173.3490000000001
 20
108.2117999999999
 30
0.0
 40
2.6265
 50
180.0
 51
0.0
  0
ARC
  8
DETAIL
  6
CONTINUOUS
 62
     5
 10
173.3490000000001
 20
134.47679999999991
 30
0.0
 40
2.6265
 50
0.0
 51
180.0
  0
ARC
  8
DETAIL
  6
CONTINUOUS
 62
     5
 10
173.3490000000001
 20
-4.202399999999999
 30
0.0
 40
2.6265
 50
0.0
 51
180.0
  0
ARC
  8
DETAIL
  6
CONTINUOUS
 62
     5
 10
173.3490000000001
 20
-30.467399999999991
 30
0.0
 40
2.6265
 50
180.0
 51
0.0
  0
LINE
  8
DETAIL
  6
CONTINUOUS
 62
     5
 10
170.7224999999998
 20
-4.202399999999999
 30
0.0
 11
170.7224999999998
 21
-30.467399999999991
 31
0.0
  0
LINE
  8
DETAIL
  6
CONTINUOUS
 62
     5
 10
175.97550000000001
 20
-4.202399999999999
 30
0.0
 11
175.97550000000001
 21
-30.467399999999991
 31
0.0
  0
LINE
  8
DETAIL
  6
CONTINUOUS
 62
     5
 10
175.97550000000001
 20
-38.872199999999999
 30
0.0
 11
175.97550000000001
 21
-65.137200000000007
 31
0.0
  0
LINE
  8
DETAIL
  6
CONTINUOUS
 62
     5
 10
170.7224999999998
 20
-38.872199999999999
 30
0.0
 11
170.7224999999998
 21
-65.137200000000007
 31
0.0
  0
ARC
  8
DETAIL
  6
CONTINUOUS
 62
     5
 10
173.3490000000001
 20
-65.137200000000007
 30
0.0
 40
2.6265
 50
180.0
 51
0.0
  0
ARC
  8
DETAIL
  6
CONTINUOUS
 62
     5
 10
173.3490000000001
 20
-38.872199999999999
 30
0.0
 40
2.6265
 50
0.0
 51
180.0
  0
ARC
  8
DETAIL
  6
CONTINUOUS
 62
     5
 10
173.3490000000001
 20
30.467400000000001
 30
0.0
 40
2.6265
 50
0.0
 51
180.0
  0
ARC
  8
DETAIL
  6
CONTINUOUS
 62
     5
 10
173.3490000000001
 20
4.202399999999999
 30
0.0
 40
2.6265
 50
180.0
 51
0.0
  0
LINE
  8
DETAIL
  6
CONTINUOUS
 62
     5
 10
170.7224999999998
 20
30.467400000000001
 30
0.0
 11
170.7224999999998
 21
4.202399999999999
 31
0.0
  0
LINE
  8
DETAIL
  6
CONTINUOUS
 62
     5
 10
175.97550000000001
 20
30.467400000000001
 30
0.0
 11
175.97550000000001
 21
4.202399999999999
 31
0.0
  0
LINE
  8
DETAIL
  6
CONTINUOUS
 62
     5
 10
175.97550000000001
 20
65.137200000000007
 30
0.0
 11
175.97550000000001
 21
38.872199999999999
 31
0.0
  0
LINE
  8
DETAIL
  6
CONTINUOUS
 62
     5
 10
170.7224999999998
 20
65.137200000000007
 30
0.0
 11
170.7224999999998
 21
38.872199999999999
 31
0.0
  0
ARC
  8
DETAIL
  6
CONTINUOUS
 62
     5
 10
173.3490000000001
 20
38.872199999999999
 30
0.0
 40
2.6265
 50
180.0
 51
0.0
  0
ARC
  8
DETAIL
  6
CONTINUOUS
 62
     5
 10
173.3490000000001
 20
65.137200000000007
 30
0.0
 40
2.6265
 50
0.0
 51
180.0
  0
ARC
  8
DETAIL
  6
CONTINUOUS
 62
     5
 10
173.3490000000001
 20
-108.2117999999999
 30
0.0
 40
2.6265
 50
0.0
 51
180.0
  0
ARC
  8
DETAIL
  6
CONTINUOUS
 62
     5
 10
173.3490000000001
 20
-134.47679999999991
 30
0.0
 40
2.6265
 50
180.0
 51
0.0
  0
LINE
  8
DETAIL
  6
CONTINUOUS
 62
     5
 10
170.7224999999998
 20
-108.2117999999999
 30
0.0
 11
170.7224999999998
 21
-134.47679999999991
 31
0.0
  0
LINE
  8
DETAIL
  6
CONTINUOUS
 62
     5
 10
175.97550000000001
 20
-108.2117999999999
 30
0.0
 11
175.97550000000001
 21
-134.47679999999991
 31
0.0
  0
LINE
  8
DETAIL
  6
CONTINUOUS
 62
     5
 10
175.97550000000001
 20
-142.88159999999991
 30
0.0
 11
175.97550000000001
 21
-169.14660000000001
 31
0.0
  0
LINE
  8
DETAIL
  6
CONTINUOUS
 62
     5
 10
170.7224999999998
 20
-142.88159999999991
 30
0.0
 11
170.7224999999998
 21
-169.14660000000001
 31
0.0
  0
ARC
  8
DETAIL
  6
CONTINUOUS
 62
     5
 10
173.3490000000001
 20
-169.14660000000001
 30
0.0
 40
2.6265
 50
180.0
 51
0.0
  0
ARC
  8
DETAIL
  6
CONTINUOUS
 62
     5
 10
173.3490000000001
 20
-142.88159999999991
 30
0.0
 40
2.6265
 50
0.0
 51
180.0
  0
LINE
  8
DETAIL
  6
CONTINUOUS
 62
     5
 10
175.97550000000001
 20
-177.5514
 30
0.0
 11
175.97550000000001
 21
-203.81639999999999
 31
0.0
  0
LINE
  8
DETAIL
  6
CONTINUOUS
 62
     5
 10
170.7224999999998
 20
-177.5514
 30
0.0
 11
170.7224999999998
 21
-203.81639999999999
 31
0.0
  0
ARC
  8
DETAIL
  6
CONTINUOUS
 62
     5
 10
173.3490000000001
 20
-203.81639999999999
 30
0.0
 40
2.6265
 50
180.0
 51
0.0
  0
ARC
  8
DETAIL
  6
CONTINUOUS
 62
     5
 10
173.3490000000001
 20
-177.5514
 30
0.0
 40
2.6265
 50
0.0
 51
180.0
  0
LINE
  8
DETAIL
  6
CONTINUOUS
 62
     5
 10
175.97550000000001
 20
-73.542000000000002
 30
0.0
 11
175.97550000000001
 21
-99.807000000000002
 31
0.0
  0
LINE
  8
DETAIL
  6
CONTINUOUS
 62
     5
 10
170.7224999999998
 20
-73.542000000000002
 30
0.0
 11
170.7224999999998
 21
-99.807000000000002
 31
0.0
  0
ARC
  8
DETAIL
  6
CONTINUOUS
 62
     5
 10
173.3490000000001
 20
-99.807000000000002
 30
0.0
 40
2.6265
 50
180.0
 51
0.0
  0
ARC
  8
DETAIL
  6
CONTINUOUS
 62
     5
 10
173.3490000000001
 20
-73.542000000000002
 30
0.0
 40
2.6265
 50
0.0
 51
180.0
  0
ARC
  8
DETAIL
  6
CONTINUOUS
 62
     5
 10
162.8430000000001
 20
-73.542000000000002
 30
0.0
 40
2.6265
 50
0.0
 51
180.0
  0
ARC
  8
DETAIL
  6
CONTINUOUS
 62
     5
 10
162.8430000000001
 20
-99.807000000000002
 30
0.0
 40
2.6265
 50
180.0
 51
0.0
  0
LINE
  8
DETAIL
  6
CONTINUOUS
 62
     5
 10
160.21650000000011
 20
-73.542000000000002
 30
0.0
 11
160.21650000000011
 21
-99.807000000000002
 31
0.0
  0
LINE
  8
DETAIL
  6
CONTINUOUS
 62
     5
 10
165.4695000000001
 20
-73.542000000000002
 30
0.0
 11
165.4695000000001
 21
-99.807000000000002
 31
0.0
  0
ARC
  8
DETAIL
  6
CONTINUOUS
 62
     5
 10
162.8430000000001
 20
-177.5514
 30
0.0
 40
2.6265
 50
0.0
 51
180.0
  0
ARC
  8
DETAIL
  6
CONTINUOUS
 62
     5
 10
162.8430000000001
 20
-203.81639999999999
 30
0.0
 40
2.6265
 50
180.0
 51
0.0
  0
LINE
  8
DETAIL
  6
CONTINUOUS
 62
     5
 10
160.21650000000011
 20
-177.5514
 30
0.0
 11
160.21650000000011
 21
-203.81639999999999
 31
0.0
  0
LINE
  8
DETAIL
  6
CONTINUOUS
 62
     5
 10
165.4695000000001
 20
-177.5514
 30
0.0
 11
165.4695000000001
 21
-203.81639999999999
 31
0.0
  0
ARC
  8
DETAIL
  6
CONTINUOUS
 62
     5
 10
162.8430000000001
 20
-142.88159999999991
 30
0.0
 40
2.6265
 50
0.0
 51
180.0
  0
ARC
  8
DETAIL
  6
CONTINUOUS
 62
     5
 10
162.8430000000001
 20
-169.14660000000001
 30
0.0
 40
2.6265
 50
180.0
 51
0.0
  0
LINE
  8
DETAIL
  6
CONTINUOUS
 62
     5
 10
160.21650000000011
 20
-142.88159999999991
 30
0.0
 11
160.21650000000011
 21
-169.14660000000001
 31
0.0
  0
LINE
  8
DETAIL
  6
CONTINUOUS
 62
     5
 10
165.4695000000001
 20
-142.88159999999991
 30
0.0
 11
165.4695000000001
 21
-169.14660000000001
 31
0.0
  0
LINE
  8
DETAIL
  6
CONTINUOUS
 62
     5
 10
165.4695000000001
 20
-108.2117999999999
 30
0.0
 11
165.4695000000001
 21
-134.47679999999991
 31
0.0
  0
LINE
  8
DETAIL
  6
CONTINUOUS
 62
     5
 10
160.21650000000011
 20
-108.2117999999999
 30
0.0
 11
160.21650000000011
 21
-134.47679999999991
 31
0.0
  0
ARC
  8
DETAIL
  6
CONTINUOUS
 62
     5
 10
162.8430000000001
 20
-134.47679999999991
 30
0.0
 40
2.6265
 50
180.0
 51
0.0
  0
ARC
  8
DETAIL
  6
CONTINUOUS
 62
     5
 10
162.8430000000001
 20
-108.2117999999999
 30
0.0
 40
2.6265
 50
0.0
 51
180.0
  0
ARC
  8
DETAIL
  6
CONTINUOUS
 62
     5
 10
162.8430000000001
 20
65.137200000000007
 30
0.0
 40
2.6265
 50
0.0
 51
180.0
  0
ARC
  8
DETAIL
  6
CONTINUOUS
 62
     5
 10
162.8430000000001
 20
38.872199999999999
 30
0.0
 40
2.6265
 50
180.0
 51
0.0
  0
LINE
  8
DETAIL
  6
CONTINUOUS
 62
     5
 10
160.21650000000011
 20
65.137200000000007
 30
0.0
 11
160.21650000000011
 21
38.872199999999999
 31
0.0
  0
LINE
  8
DETAIL
  6
CONTINUOUS
 62
     5
 10
165.4695000000001
 20
65.137200000000007
 30
0.0
 11
165.4695000000001
 21
38.872199999999999
 31
0.0
  0
LINE
  8
DETAIL
  6
CONTINUOUS
 62
     5
 10
165.4695000000001
 20
30.467400000000001
 30
0.0
 11
165.4695000000001
 21
4.202399999999999
 31
0.0
  0
LINE
  8
DETAIL
  6
CONTINUOUS
 62
     5
 10
160.21650000000011
 20
30.467400000000001
 30
0.0
 11
160.21650000000011
 21
4.202399999999999
 31
0.0
  0
ARC
  8
DETAIL
  6
CONTINUOUS
 62
     5
 10
162.8430000000001
 20
4.202399999999999
 30
0.0
 40
2.6265
 50
180.0
 51
0.0
  0
ARC
  8
DETAIL
  6
CONTINUOUS
 62
     5
 10
162.8430000000001
 20
30.467400000000001
 30
0.0
 40
2.6265
 50
0.0
 51
180.0
  0
ARC
  8
DETAIL
  6
CONTINUOUS
 62
     5
 10
162.8430000000001
 20
-38.872199999999999
 30
0.0
 40
2.6265
 50
0.0
 51
180.0
  0
ARC
  8
DETAIL
  6
CONTINUOUS
 62
     5
 10
162.8430000000001
 20
-65.137200000000007
 30
0.0
 40
2.6265
 50
180.0
 51
0.0
  0
LINE
  8
DETAIL
  6
CONTINUOUS
 62
     5
 10
160.21650000000011
 20
-38.872199999999999
 30
0.0
 11
160.21650000000011
 21
-65.137200000000007
 31
0.0
  0
LINE
  8
DETAIL
  6
CONTINUOUS
 62
     5
 10
165.4695000000001
 20
-38.872199999999999
 30
0.0
 11
165.4695000000001
 21
-65.137200000000007
 31
0.0
  0
LINE
  8
DETAIL
  6
CONTINUOUS
 62
     5
 10
165.4695000000001
 20
-4.202399999999999
 30
0.0
 11
165.4695000000001
 21
-30.467399999999991
 31
0.0
  0
LINE
  8
DETAIL
  6
CONTINUOUS
 62
     5
 10
160.21650000000011
 20
-4.202399999999999
 30
0.0
 11
160.21650000000011
 21
-30.467399999999991
 31
0.0
  0
ARC
  8
DETAIL
  6
CONTINUOUS
 62
     5
 10
162.8430000000001
 20
-30.467399999999991
 30
0.0
 40
2.6265
 50
180.0
 51
0.0
  0
ARC
  8
DETAIL
  6
CONTINUOUS
 62
     5
 10
162.8430000000001
 20
-4.202399999999999
 30
0.0
 40
2.6265
 50
0.0
 51
180.0
  0
ARC
  8
DETAIL
  6
CONTINUOUS
 62
     5
 10
162.8430000000001
 20
134.47679999999991
 30
0.0
 40
2.6265
 50
0.0
 51
180.0
  0
ARC
  8
DETAIL
  6
CONTINUOUS
 62
     5
 10
162.8430000000001
 20
108.2117999999999
 30
0.0
 40
2.6265
 50
180.0
 51
0.0
  0
LINE
  8
DETAIL
  6
CONTINUOUS
 62
     5
 10
160.21650000000011
 20
134.47679999999991
 30
0.0
 11
160.21650000000011
 21
108.2117999999999
 31
0.0
  0
LINE
  8
DETAIL
  6
CONTINUOUS
 62
     5
 10
165.4695000000001
 20
134.47679999999991
 30
0.0
 11
165.4695000000001
 21
108.2117999999999
 31
0.0
  0
LINE
  8
DETAIL
  6
CONTINUOUS
 62
     5
 10
165.4695000000001
 20
99.807000000000002
 30
0.0
 11
165.4695000000001
 21
73.542000000000002
 31
0.0
  0
LINE
  8
DETAIL
  6
CONTINUOUS
 62
     5
 10
160.21650000000011
 20
99.807000000000002
 30
0.0
 11
160.21650000000011
 21
73.542000000000002
 31
0.0
  0
ARC
  8
DETAIL
  6
CONTINUOUS
 62
     5
 10
162.8430000000001
 20
73.542000000000002
 30
0.0
 40
2.6265
 50
180.0
 51
0.0
  0
ARC
  8
DETAIL
  6
CONTINUOUS
 62
     5
 10
162.8430000000001
 20
99.807000000000002
 30
0.0
 40
2.6265
 50
0.0
 51
180.0
  0
ARC
  8
DETAIL
  6
CONTINUOUS
 62
     5
 10
162.8430000000001
 20
169.14660000000001
 30
0.0
 40
2.6265
 50
0.0
 51
180.0
  0
ARC
  8
DETAIL
  6
CONTINUOUS
 62
     5
 10
162.8430000000001
 20
142.88159999999991
 30
0.0
 40
2.6265
 50
180.0
 51
0.0
  0
LINE
  8
DETAIL
  6
CONTINUOUS
 62
     5
 10
160.21650000000011
 20
169.14660000000001
 30
0.0
 11
160.21650000000011
 21
142.88159999999991
 31
0.0
  0
LINE
  8
DETAIL
  6
CONTINUOUS
 62
     5
 10
165.4695000000001
 20
169.14660000000001
 30
0.0
 11
165.4695000000001
 21
142.88159999999991
 31
0.0
  0
LINE
  8
DETAIL
  6
CONTINUOUS
 62
     5
 10
165.4695000000001
 20
203.81639999999999
 30
0.0
 11
165.4695000000001
 21
177.5514
 31
0.0
  0
LINE
  8
DETAIL
  6
CONTINUOUS
 62
     5
 10
160.21650000000011
 20
203.81639999999999
 30
0.0
 11
160.21650000000011
 21
177.5514
 31
0.0
  0
ARC
  8
DETAIL
  6
CONTINUOUS
 62
     5
 10
162.8430000000001
 20
177.5514
 30
0.0
 40
2.6265
 50
180.0
 51
0.0
  0
ARC
  8
DETAIL
  6
CONTINUOUS
 62
     5
 10
162.8430000000001
 20
203.81639999999999
 30
0.0
 40
2.6265
 50
0.0
 51
180.0
  0
ARC
  8
DETAIL
  6
CONTINUOUS
 62
     5
 10
120.819
 20
203.81639999999999
 30
0.0
 40
2.6265
 50
0.0
 51
180.0
  0
ARC
  8
DETAIL
  6
CONTINUOUS
 62
     5
 10
120.819
 20
177.5514
 30
0.0
 40
2.6265
 50
180.0
 51
0.0
  0
LINE
  8
DETAIL
  6
CONTINUOUS
 62
     5
 10
118.19250000000009
 20
203.81639999999999
 30
0.0
 11
118.19250000000009
 21
177.5514
 31
0.0
  0
LINE
  8
DETAIL
  6
CONTINUOUS
 62
     5
 10
123.4455000000001
 20
203.81639999999999
 30
0.0
 11
123.4455000000001
 21
177.5514
 31
0.0
  0
LINE
  8
DETAIL
  6
CONTINUOUS
 62
     5
 10
123.4455000000001
 20
169.14660000000001
 30
0.0
 11
123.4455000000001
 21
142.88159999999991
 31
0.0
  0
LINE
  8
DETAIL
  6
CONTINUOUS
 62
     5
 10
118.19250000000009
 20
169.14660000000001
 30
0.0
 11
118.19250000000009
 21
142.88159999999991
 31
0.0
  0
ARC
  8
DETAIL
  6
CONTINUOUS
 62
     5
 10
120.819
 20
142.88159999999991
 30
0.0
 40
2.6265
 50
180.0
 51
0.0
  0
ARC
  8
DETAIL
  6
CONTINUOUS
 62
     5
 10
120.819
 20
169.14660000000001
 30
0.0
 40
2.6265
 50
0.0
 51
180.0
  0
ARC
  8
DETAIL
  6
CONTINUOUS
 62
     5
 10
120.819
 20
99.807000000000002
 30
0.0
 40
2.6265
 50
0.0
 51
180.0
  0
ARC
  8
DETAIL
  6
CONTINUOUS
 62
     5
 10
120.819
 20
73.542000000000002
 30
0.0
 40
2.6265
 50
180.0
 51
0.0
  0
LINE
  8
DETAIL
  6
CONTINUOUS
 62
     5
 10
118.19250000000009
 20
99.807000000000002
 30
0.0
 11
118.19250000000009
 21
73.542000000000002
 31
0.0
  0
LINE
  8
DETAIL
  6
CONTINUOUS
 62
     5
 10
123.4455000000001
 20
99.807000000000002
 30
0.0
 11
123.4455000000001
 21
73.542000000000002
 31
0.0
  0
LINE
  8
DETAIL
  6
CONTINUOUS
 62
     5
 10
123.4455000000001
 20
134.47679999999991
 30
0.0
 11
123.4455000000001
 21
108.2117999999999
 31
0.0
  0
LINE
  8
DETAIL
  6
CONTINUOUS
 62
     5
 10
118.19250000000009
 20
134.47679999999991
 30
0.0
 11
118.19250000000009
 21
108.2117999999999
 31
0.0
  0
ARC
  8
DETAIL
  6
CONTINUOUS
 62
     5
 10
120.819
 20
108.2117999999999
 30
0.0
 40
2.6265
 50
180.0
 51
0.0
  0
ARC
  8
DETAIL
  6
CONTINUOUS
 62
     5
 10
120.819
 20
134.47679999999991
 30
0.0
 40
2.6265
 50
0.0
 51
180.0
  0
ARC
  8
DETAIL
  6
CONTINUOUS
 62
     5
 10
120.819
 20
-4.202399999999999
 30
0.0
 40
2.6265
 50
0.0
 51
180.0
  0
ARC
  8
DETAIL
  6
CONTINUOUS
 62
     5
 10
120.819
 20
-30.467399999999991
 30
0.0
 40
2.6265
 50
180.0
 51
0.0
  0
LINE
  8
DETAIL
  6
CONTINUOUS
 62
     5
 10
118.19250000000009
 20
-4.202399999999999
 30
0.0
 11
118.19250000000009
 21
-30.467399999999991
 31
0.0
  0
LINE
  8
DETAIL
  6
CONTINUOUS
 62
     5
 10
123.4455000000001
 20
-4.202399999999999
 30
0.0
 11
123.4455000000001
 21
-30.467399999999991
 31
0.0
  0
LINE
  8
DETAIL
  6
CONTINUOUS
 62
     5
 10
123.4455000000001
 20
-38.872199999999999
 30
0.0
 11
123.4455000000001
 21
-65.137200000000007
 31
0.0
  0
LINE
  8
DETAIL
  6
CONTINUOUS
 62
     5
 10
118.19250000000009
 20
-38.872199999999999
 30
0.0
 11
118.19250000000009
 21
-65.137200000000007
 31
0.0
  0
ARC
  8
DETAIL
  6
CONTINUOUS
 62
     5
 10
120.819
 20
-65.137200000000007
 30
0.0
 40
2.6265
 50
180.0
 51
0.0
  0
ARC
  8
DETAIL
  6
CONTINUOUS
 62
     5
 10
120.819
 20
-38.872199999999999
 30
0.0
 40
2.6265
 50
0.0
 51
180.0
  0
ARC
  8
DETAIL
  6
CONTINUOUS
 62
     5
 10
120.819
 20
30.467400000000001
 30
0.0
 40
2.6265
 50
0.0
 51
180.0
  0
ARC
  8
DETAIL
  6
CONTINUOUS
 62
     5
 10
120.819
 20
4.202399999999999
 30
0.0
 40
2.6265
 50
180.0
 51
0.0
  0
LINE
  8
DETAIL
  6
CONTINUOUS
 62
     5
 10
118.19250000000009
 20
30.467400000000001
 30
0.0
 11
118.19250000000009
 21
4.202399999999999
 31
0.0
  0
LINE
  8
DETAIL
  6
CONTINUOUS
 62
     5
 10
123.4455000000001
 20
30.467400000000001
 30
0.0
 11
123.4455000000001
 21
4.202399999999999
 31
0.0
  0
LINE
  8
DETAIL
  6
CONTINUOUS
 62
     5
 10
123.4455000000001
 20
65.137200000000007
 30
0.0
 11
123.4455000000001
 21
38.872199999999999
 31
0.0
  0
LINE
  8
DETAIL
  6
CONTINUOUS
 62
     5
 10
118.19250000000009
 20
65.137200000000007
 30
0.0
 11
118.19250000000009
 21
38.872199999999999
 31
0.0
  0
ARC
  8
DETAIL
  6
CONTINUOUS
 62
     5
 10
120.819
 20
38.872199999999999
 30
0.0
 40
2.6265
 50
180.0
 51
0.0
  0
ARC
  8
DETAIL
  6
CONTINUOUS
 62
     5
 10
120.819
 20
65.137200000000007
 30
0.0
 40
2.6265
 50
0.0
 51
180.0
  0
ARC
  8
DETAIL
  6
CONTINUOUS
 62
     5
 10
120.819
 20
-108.2117999999999
 30
0.0
 40
2.6265
 50
0.0
 51
180.0
  0
ARC
  8
DETAIL
  6
CONTINUOUS
 62
     5
 10
120.819
 20
-134.47679999999991
 30
0.0
 40
2.6265
 50
180.0
 51
0.0
  0
LINE
  8
DETAIL
  6
CONTINUOUS
 62
     5
 10
118.19250000000009
 20
-108.2117999999999
 30
0.0
 11
118.19250000000009
 21
-134.47679999999991
 31
0.0
  0
LINE
  8
DETAIL
  6
CONTINUOUS
 62
     5
 10
123.4455000000001
 20
-108.2117999999999
 30
0.0
 11
123.4455000000001
 21
-134.47679999999991
 31
0.0
  0
LINE
  8
DETAIL
  6
CONTINUOUS
 62
     5
 10
123.4455000000001
 20
-142.88159999999991
 30
0.0
 11
123.4455000000001
 21
-169.14660000000001
 31
0.0
  0
LINE
  8
DETAIL
  6
CONTINUOUS
 62
     5
 10
118.19250000000009
 20
-142.88159999999991
 30
0.0
 11
118.19250000000009
 21
-169.14660000000001
 31
0.0
  0
ARC
  8
DETAIL
  6
CONTINUOUS
 62
     5
 10
120.819
 20
-169.14660000000001
 30
0.0
 40
2.6265
 50
180.0
 51
0.0
  0
ARC
  8
DETAIL
  6
CONTINUOUS
 62
     5
 10
120.819
 20
-142.88159999999991
 30
0.0
 40
2.6265
 50
0.0
 51
180.0
  0
LINE
  8
DETAIL
  6
CONTINUOUS
 62
     5
 10
123.4455000000001
 20
-177.5514
 30
0.0
 11
123.4455000000001
 21
-203.81639999999999
 31
0.0
  0
LINE
  8
DETAIL
  6
CONTINUOUS
 62
     5
 10
118.19250000000009
 20
-177.5514
 30
0.0
 11
118.19250000000009
 21
-203.81639999999999
 31
0.0
  0
ARC
  8
DETAIL
  6
CONTINUOUS
 62
     5
 10
120.819
 20
-203.81639999999999
 30
0.0
 40
2.6265
 50
180.0
 51
0.0
  0
ARC
  8
DETAIL
  6
CONTINUOUS
 62
     5
 10
120.819
 20
-177.5514
 30
0.0
 40
2.6265
 50
0.0
 51
180.0
  0
LINE
  8
DETAIL
  6
CONTINUOUS
 62
     5
 10
123.4455000000001
 20
-73.542000000000002
 30
0.0
 11
123.4455000000001
 21
-99.807000000000002
 31
0.0
  0
LINE
  8
DETAIL
  6
CONTINUOUS
 62
     5
 10
118.19250000000009
 20
-73.542000000000002
 30
0.0
 11
118.19250000000009
 21
-99.807000000000002
 31
0.0
  0
ARC
  8
DETAIL
  6
CONTINUOUS
 62
     5
 10
120.819
 20
-99.807000000000002
 30
0.0
 40
2.6265
 50
180.0
 51
0.0
  0
ARC
  8
DETAIL
  6
CONTINUOUS
 62
     5
 10
120.819
 20
-73.542000000000002
 30
0.0
 40
2.6265
 50
0.0
 51
180.0
  0
ARC
  8
DETAIL
  6
CONTINUOUS
 62
     5
 10
131.3250000000001
 20
-73.542000000000002
 30
0.0
 40
2.6265
 50
0.0
 51
180.0
  0
ARC
  8
DETAIL
  6
CONTINUOUS
 62
     5
 10
131.3250000000001
 20
-99.807000000000002
 30
0.0
 40
2.6265
 50
180.0
 51
0.0
  0
LINE
  8
DETAIL
  6
CONTINUOUS
 62
     5
 10
128.69850000000011
 20
-73.542000000000002
 30
0.0
 11
128.69850000000011
 21
-99.807000000000002
 31
0.0
  0
LINE
  8
DETAIL
  6
CONTINUOUS
 62
     5
 10
133.9515000000001
 20
-73.542000000000002
 30
0.0
 11
133.9515000000001
 21
-99.807000000000002
 31
0.0
  0
ARC
  8
DETAIL
  6
CONTINUOUS
 62
     5
 10
131.3250000000001
 20
-177.5514
 30
0.0
 40
2.6265
 50
0.0
 51
180.0
  0
ARC
  8
DETAIL
  6
CONTINUOUS
 62
     5
 10
131.3250000000001
 20
-203.81639999999999
 30
0.0
 40
2.6265
 50
180.0
 51
0.0
  0
LINE
  8
DETAIL
  6
CONTINUOUS
 62
     5
 10
128.69850000000011
 20
-177.5514
 30
0.0
 11
128.69850000000011
 21
-203.81639999999999
 31
0.0
  0
LINE
  8
DETAIL
  6
CONTINUOUS
 62
     5
 10
133.9515000000001
 20
-177.5514
 30
0.0
 11
133.9515000000001
 21
-203.81639999999999
 31
0.0
  0
ARC
  8
DETAIL
  6
CONTINUOUS
 62
     5
 10
131.3250000000001
 20
-142.88159999999991
 30
0.0
 40
2.6265
 50
0.0
 51
180.0
  0
ARC
  8
DETAIL
  6
CONTINUOUS
 62
     5
 10
131.3250000000001
 20
-169.14660000000001
 30
0.0
 40
2.6265
 50
180.0
 51
0.0
  0
LINE
  8
DETAIL
  6
CONTINUOUS
 62
     5
 10
128.69850000000011
 20
-142.88159999999991
 30
0.0
 11
128.69850000000011
 21
-169.14660000000001
 31
0.0
  0
LINE
  8
DETAIL
  6
CONTINUOUS
 62
     5
 10
133.9515000000001
 20
-142.88159999999991
 30
0.0
 11
133.9515000000001
 21
-169.14660000000001
 31
0.0
  0
LINE
  8
DETAIL
  6
CONTINUOUS
 62
     5
 10
133.9515000000001
 20
-108.2117999999999
 30
0.0
 11
133.9515000000001
 21
-134.47679999999991
 31
0.0
  0
LINE
  8
DETAIL
  6
CONTINUOUS
 62
     5
 10
128.69850000000011
 20
-108.2117999999999
 30
0.0
 11
128.69850000000011
 21
-134.47679999999991
 31
0.0
  0
ARC
  8
DETAIL
  6
CONTINUOUS
 62
     5
 10
131.3250000000001
 20
-134.47679999999991
 30
0.0
 40
2.6265
 50
180.0
 51
0.0
  0
ARC
  8
DETAIL
  6
CONTINUOUS
 62
     5
 10
131.3250000000001
 20
-108.2117999999999
 30
0.0
 40
2.6265
 50
0.0
 51
180.0
  0
ARC
  8
DETAIL
  6
CONTINUOUS
 62
     5
 10
131.3250000000001
 20
65.137200000000007
 30
0.0
 40
2.6265
 50
0.0
 51
180.0
  0
ARC
  8
DETAIL
  6
CONTINUOUS
 62
     5
 10
131.3250000000001
 20
38.872199999999999
 30
0.0
 40
2.6265
 50
180.0
 51
0.0
  0
LINE
  8
DETAIL
  6
CONTINUOUS
 62
     5
 10
128.69850000000011
 20
65.137200000000007
 30
0.0
 11
128.69850000000011
 21
38.872199999999999
 31
0.0
  0
LINE
  8
DETAIL
  6
CONTINUOUS
 62
     5
 10
133.9515000000001
 20
65.137200000000007
 30
0.0
 11
133.9515000000001
 21
38.872199999999999
 31
0.0
  0
LINE
  8
DETAIL
  6
CONTINUOUS
 62
     5
 10
133.9515000000001
 20
30.467400000000001
 30
0.0
 11
133.9515000000001
 21
4.202399999999999
 31
0.0
  0
LINE
  8
DETAIL
  6
CONTINUOUS
 62
     5
 10
128.69850000000011
 20
30.467400000000001
 30
0.0
 11
128.69850000000011
 21
4.202399999999999
 31
0.0
  0
ARC
  8
DETAIL
  6
CONTINUOUS
 62
     5
 10
131.3250000000001
 20
4.202399999999999
 30
0.0
 40
2.6265
 50
180.0
 51
0.0
  0
ARC
  8
DETAIL
  6
CONTINUOUS
 62
     5
 10
131.3250000000001
 20
30.467400000000001
 30
0.0
 40
2.6265
 50
0.0
 51
180.0
  0
ARC
  8
DETAIL
  6
CONTINUOUS
 62
     5
 10
131.3250000000001
 20
-38.872199999999999
 30
0.0
 40
2.6265
 50
0.0
 51
180.0
  0
ARC
  8
DETAIL
  6
CONTINUOUS
 62
     5
 10
131.3250000000001
 20
-65.137200000000007
 30
0.0
 40
2.6265
 50
180.0
 51
0.0
  0
LINE
  8
DETAIL
  6
CONTINUOUS
 62
     5
 10
128.69850000000011
 20
-38.872199999999999
 30
0.0
 11
128.69850000000011
 21
-65.137200000000007
 31
0.0
  0
LINE
  8
DETAIL
  6
CONTINUOUS
 62
     5
 10
133.9515000000001
 20
-38.872199999999999
 30
0.0
 11
133.9515000000001
 21
-65.137200000000007
 31
0.0
  0
LINE
  8
DETAIL
  6
CONTINUOUS
 62
     5
 10
133.9515000000001
 20
-4.202399999999999
 30
0.0
 11
133.9515000000001
 21
-30.467399999999991
 31
0.0
  0
LINE
  8
DETAIL
  6
CONTINUOUS
 62
     5
 10
128.69850000000011
 20
-4.202399999999999
 30
0.0
 11
128.69850000000011
 21
-30.467399999999991
 31
0.0
  0
ARC
  8
DETAIL
  6
CONTINUOUS
 62
     5
 10
131.3250000000001
 20
-30.467399999999991
 30
0.0
 40
2.6265
 50
180.0
 51
0.0
  0
ARC
  8
DETAIL
  6
CONTINUOUS
 62
     5
 10
131.3250000000001
 20
-4.202399999999999
 30
0.0
 40
2.6265
 50
0.0
 51
180.0
  0
ARC
  8
DETAIL
  6
CONTINUOUS
 62
     5
 10
131.3250000000001
 20
134.47679999999991
 30
0.0
 40
2.6265
 50
0.0
 51
180.0
  0
ARC
  8
DETAIL
  6
CONTINUOUS
 62
     5
 10
131.3250000000001
 20
108.2117999999999
 30
0.0
 40
2.6265
 50
180.0
 51
0.0
  0
LINE
  8
DETAIL
  6
CONTINUOUS
 62
     5
 10
128.69850000000011
 20
134.47679999999991
 30
0.0
 11
128.69850000000011
 21
108.2117999999999
 31
0.0
  0
LINE
  8
DETAIL
  6
CONTINUOUS
 62
     5
 10
133.9515000000001
 20
134.47679999999991
 30
0.0
 11
133.9515000000001
 21
108.2117999999999
 31
0.0
  0
LINE
  8
DETAIL
  6
CONTINUOUS
 62
     5
 10
133.9515000000001
 20
99.807000000000002
 30
0.0
 11
133.9515000000001
 21
73.542000000000002
 31
0.0
  0
LINE
  8
DETAIL
  6
CONTINUOUS
 62
     5
 10
128.69850000000011
 20
99.807000000000002
 30
0.0
 11
128.69850000000011
 21
73.542000000000002
 31
0.0
  0
ARC
  8
DETAIL
  6
CONTINUOUS
 62
     5
 10
131.3250000000001
 20
73.542000000000002
 30
0.0
 40
2.6265
 50
180.0
 51
0.0
  0
ARC
  8
DETAIL
  6
CONTINUOUS
 62
     5
 10
131.3250000000001
 20
99.807000000000002
 30
0.0
 40
2.6265
 50
0.0
 51
180.0
  0
ARC
  8
DETAIL
  6
CONTINUOUS
 62
     5
 10
131.3250000000001
 20
169.14660000000001
 30
0.0
 40
2.6265
 50
0.0
 51
180.0
  0
ARC
  8
DETAIL
  6
CONTINUOUS
 62
     5
 10
131.3250000000001
 20
142.88159999999991
 30
0.0
 40
2.6265
 50
180.0
 51
0.0
  0
LINE
  8
DETAIL
  6
CONTINUOUS
 62
     5
 10
128.69850000000011
 20
169.14660000000001
 30
0.0
 11
128.69850000000011
 21
142.88159999999991
 31
0.0
  0
LINE
  8
DETAIL
  6
CONTINUOUS
 62
     5
 10
133.9515000000001
 20
169.14660000000001
 30
0.0
 11
133.9515000000001
 21
142.88159999999991
 31
0.0
  0
LINE
  8
DETAIL
  6
CONTINUOUS
 62
     5
 10
133.9515000000001
 20
203.81639999999999
 30
0.0
 11
133.9515000000001
 21
177.5514
 31
0.0
  0
LINE
  8
DETAIL
  6
CONTINUOUS
 62
     5
 10
128.69850000000011
 20
203.81639999999999
 30
0.0
 11
128.69850000000011
 21
177.5514
 31
0.0
  0
ARC
  8
DETAIL
  6
CONTINUOUS
 62
     5
 10
131.3250000000001
 20
177.5514
 30
0.0
 40
2.6265
 50
180.0
 51
0.0
  0
ARC
  8
DETAIL
  6
CONTINUOUS
 62
     5
 10
131.3250000000001
 20
203.81639999999999
 30
0.0
 40
2.6265
 50
0.0
 51
180.0
  0
ARC
  8
DETAIL
  6
CONTINUOUS
 62
     5
 10
110.313
 20
203.81639999999999
 30
0.0
 40
2.6265
 50
0.0
 51
180.0
  0
ARC
  8
DETAIL
  6
CONTINUOUS
 62
     5
 10
110.313
 20
177.5514
 30
0.0
 40
2.6265
 50
180.0
 51
0.0
  0
LINE
  8
DETAIL
  6
CONTINUOUS
 62
     5
 10
107.6865
 20
203.81639999999999
 30
0.0
 11
107.6865
 21
177.5514
 31
0.0
  0
LINE
  8
DETAIL
  6
CONTINUOUS
 62
     5
 10
112.93950000000009
 20
203.81639999999999
 30
0.0
 11
112.93950000000009
 21
177.5514
 31
0.0
  0
LINE
  8
DETAIL
  6
CONTINUOUS
 62
     5
 10
112.93950000000009
 20
169.14660000000001
 30
0.0
 11
112.93950000000009
 21
142.88159999999991
 31
0.0
  0
LINE
  8
DETAIL
  6
CONTINUOUS
 62
     5
 10
107.6865
 20
169.14660000000001
 30
0.0
 11
107.6865
 21
142.88159999999991
 31
0.0
  0
ARC
  8
DETAIL
  6
CONTINUOUS
 62
     5
 10
110.313
 20
142.88159999999991
 30
0.0
 40
2.6265
 50
180.0
 51
0.0
  0
ARC
  8
DETAIL
  6
CONTINUOUS
 62
     5
 10
110.313
 20
169.14660000000001
 30
0.0
 40
2.6265
 50
0.0
 51
180.0
  0
ARC
  8
DETAIL
  6
CONTINUOUS
 62
     5
 10
110.313
 20
99.807000000000002
 30
0.0
 40
2.6265
 50
0.0
 51
180.0
  0
ARC
  8
DETAIL
  6
CONTINUOUS
 62
     5
 10
110.313
 20
73.542000000000002
 30
0.0
 40
2.6265
 50
180.0
 51
0.0
  0
LINE
  8
DETAIL
  6
CONTINUOUS
 62
     5
 10
107.6865
 20
99.807000000000002
 30
0.0
 11
107.6865
 21
73.542000000000002
 31
0.0
  0
LINE
  8
DETAIL
  6
CONTINUOUS
 62
     5
 10
112.93950000000009
 20
99.807000000000002
 30
0.0
 11
112.93950000000009
 21
73.542000000000002
 31
0.0
  0
LINE
  8
DETAIL
  6
CONTINUOUS
 62
     5
 10
112.93950000000009
 20
134.47679999999991
 30
0.0
 11
112.93950000000009
 21
108.2117999999999
 31
0.0
  0
LINE
  8
DETAIL
  6
CONTINUOUS
 62
     5
 10
107.6865
 20
134.47679999999991
 30
0.0
 11
107.6865
 21
108.2117999999999
 31
0.0
  0
ARC
  8
DETAIL
  6
CONTINUOUS
 62
     5
 10
110.313
 20
108.2117999999999
 30
0.0
 40
2.6265
 50
180.0
 51
0.0
  0
ARC
  8
DETAIL
  6
CONTINUOUS
 62
     5
 10
110.313
 20
134.47679999999991
 30
0.0
 40
2.6265
 50
0.0
 51
180.0
  0
ARC
  8
DETAIL
  6
CONTINUOUS
 62
     5
 10
110.313
 20
-4.202399999999999
 30
0.0
 40
2.6265
 50
0.0
 51
180.0
  0
ARC
  8
DETAIL
  6
CONTINUOUS
 62
     5
 10
110.313
 20
-30.467399999999991
 30
0.0
 40
2.6265
 50
180.0
 51
0.0
  0
LINE
  8
DETAIL
  6
CONTINUOUS
 62
     5
 10
107.6865
 20
-4.202399999999999
 30
0.0
 11
107.6865
 21
-30.467399999999991
 31
0.0
  0
LINE
  8
DETAIL
  6
CONTINUOUS
 62
     5
 10
112.93950000000009
 20
-4.202399999999999
 30
0.0
 11
112.93950000000009
 21
-30.467399999999991
 31
0.0
  0
LINE
  8
DETAIL
  6
CONTINUOUS
 62
     5
 10
112.93950000000009
 20
-38.872199999999999
 30
0.0
 11
112.93950000000009
 21
-65.137200000000007
 31
0.0
  0
LINE
  8
DETAIL
  6
CONTINUOUS
 62
     5
 10
107.6865
 20
-38.872199999999999
 30
0.0
 11
107.6865
 21
-65.137200000000007
 31
0.0
  0
ARC
  8
DETAIL
  6
CONTINUOUS
 62
     5
 10
110.313
 20
-65.137200000000007
 30
0.0
 40
2.6265
 50
180.0
 51
0.0
  0
ARC
  8
DETAIL
  6
CONTINUOUS
 62
     5
 10
110.313
 20
-38.872199999999999
 30
0.0
 40
2.6265
 50
0.0
 51
180.0
  0
ARC
  8
DETAIL
  6
CONTINUOUS
 62
     5
 10
110.313
 20
30.467400000000001
 30
0.0
 40
2.6265
 50
0.0
 51
180.0
  0
ARC
  8
DETAIL
  6
CONTINUOUS
 62
     5
 10
110.313
 20
4.202399999999999
 30
0.0
 40
2.6265
 50
180.0
 51
0.0
  0
LINE
  8
DETAIL
  6
CONTINUOUS
 62
     5
 10
107.6865
 20
30.467400000000001
 30
0.0
 11
107.6865
 21
4.202399999999999
 31
0.0
  0
LINE
  8
DETAIL
  6
CONTINUOUS
 62
     5
 10
112.93950000000009
 20
30.467400000000001
 30
0.0
 11
112.93950000000009
 21
4.202399999999999
 31
0.0
  0
LINE
  8
DETAIL
  6
CONTINUOUS
 62
     5
 10
112.93950000000009
 20
65.137200000000007
 30
0.0
 11
112.93950000000009
 21
38.872199999999999
 31
0.0
  0
LINE
  8
DETAIL
  6
CONTINUOUS
 62
     5
 10
107.6865
 20
65.137200000000007
 30
0.0
 11
107.6865
 21
38.872199999999999
 31
0.0
  0
ARC
  8
DETAIL
  6
CONTINUOUS
 62
     5
 10
110.313
 20
38.872199999999999
 30
0.0
 40
2.6265
 50
180.0
 51
0.0
  0
ARC
  8
DETAIL
  6
CONTINUOUS
 62
     5
 10
110.313
 20
65.137200000000007
 30
0.0
 40
2.6265
 50
0.0
 51
180.0
  0
ARC
  8
DETAIL
  6
CONTINUOUS
 62
     5
 10
110.313
 20
-108.2117999999999
 30
0.0
 40
2.6265
 50
0.0
 51
180.0
  0
ARC
  8
DETAIL
  6
CONTINUOUS
 62
     5
 10
110.313
 20
-134.47679999999991
 30
0.0
 40
2.6265
 50
180.0
 51
0.0
  0
LINE
  8
DETAIL
  6
CONTINUOUS
 62
     5
 10
107.6865
 20
-108.2117999999999
 30
0.0
 11
107.6865
 21
-134.47679999999991
 31
0.0
  0
LINE
  8
DETAIL
  6
CONTINUOUS
 62
     5
 10
112.93950000000009
 20
-108.2117999999999
 30
0.0
 11
112.93950000000009
 21
-134.47679999999991
 31
0.0
  0
LINE
  8
DETAIL
  6
CONTINUOUS
 62
     5
 10
112.93950000000009
 20
-142.88159999999991
 30
0.0
 11
112.93950000000009
 21
-169.14660000000001
 31
0.0
  0
LINE
  8
DETAIL
  6
CONTINUOUS
 62
     5
 10
107.6865
 20
-142.88159999999991
 30
0.0
 11
107.6865
 21
-169.14660000000001
 31
0.0
  0
ARC
  8
DETAIL
  6
CONTINUOUS
 62
     5
 10
110.313
 20
-169.14660000000001
 30
0.0
 40
2.6265
 50
180.0
 51
0.0
  0
ARC
  8
DETAIL
  6
CONTINUOUS
 62
     5
 10
110.313
 20
-142.88159999999991
 30
0.0
 40
2.6265
 50
0.0
 51
180.0
  0
LINE
  8
DETAIL
  6
CONTINUOUS
 62
     5
 10
112.93950000000009
 20
-177.5514
 30
0.0
 11
112.93950000000009
 21
-203.81639999999999
 31
0.0
  0
LINE
  8
DETAIL
  6
CONTINUOUS
 62
     5
 10
107.6865
 20
-177.5514
 30
0.0
 11
107.6865
 21
-203.81639999999999
 31
0.0
  0
ARC
  8
DETAIL
  6
CONTINUOUS
 62
     5
 10
110.313
 20
-203.81639999999999
 30
0.0
 40
2.6265
 50
180.0
 51
0.0
  0
ARC
  8
DETAIL
  6
CONTINUOUS
 62
     5
 10
110.313
 20
-177.5514
 30
0.0
 40
2.6265
 50
0.0
 51
180.0
  0
LINE
  8
DETAIL
  6
CONTINUOUS
 62
     5
 10
112.93950000000009
 20
-73.542000000000002
 30
0.0
 11
112.93950000000009
 21
-99.807000000000002
 31
0.0
  0
LINE
  8
DETAIL
  6
CONTINUOUS
 62
     5
 10
107.6865
 20
-73.542000000000002
 30
0.0
 11
107.6865
 21
-99.807000000000002
 31
0.0
  0
ARC
  8
DETAIL
  6
CONTINUOUS
 62
     5
 10
110.313
 20
-99.807000000000002
 30
0.0
 40
2.6265
 50
180.0
 51
0.0
  0
ARC
  8
DETAIL
  6
CONTINUOUS
 62
     5
 10
110.313
 20
-73.542000000000002
 30
0.0
 40
2.6265
 50
0.0
 51
180.0
  0
ARC
  8
DETAIL
  6
CONTINUOUS
 62
     5
 10
99.807000000000102
 20
-73.542000000000002
 30
0.0
 40
2.6265
 50
0.0
 51
180.0
  0
ARC
  8
DETAIL
  6
CONTINUOUS
 62
     5
 10
99.807000000000102
 20
-99.807000000000002
 30
0.0
 40
2.6265
 50
180.0
 51
0.0
  0
LINE
  8
DETAIL
  6
CONTINUOUS
 62
     5
 10
97.180500000000109
 20
-73.542000000000002
 30
0.0
 11
97.180500000000109
 21
-99.807000000000002
 31
0.0
  0
LINE
  8
DETAIL
  6
CONTINUOUS
 62
     5
 10
102.43350000000009
 20
-73.542000000000002
 30
0.0
 11
102.43350000000009
 21
-99.807000000000002
 31
0.0
  0
ARC
  8
DETAIL
  6
CONTINUOUS
 62
     5
 10
99.807000000000102
 20
-177.5514
 30
0.0
 40
2.6265
 50
0.0
 51
180.0
  0
ARC
  8
DETAIL
  6
CONTINUOUS
 62
     5
 10
99.807000000000102
 20
-203.81639999999999
 30
0.0
 40
2.6265
 50
180.0
 51
0.0
  0
LINE
  8
DETAIL
  6
CONTINUOUS
 62
     5
 10
97.180500000000109
 20
-177.5514
 30
0.0
 11
97.180500000000109
 21
-203.81639999999999
 31
0.0
  0
LINE
  8
DETAIL
  6
CONTINUOUS
 62
     5
 10
102.43350000000009
 20
-177.5514
 30
0.0
 11
102.43350000000009
 21
-203.81639999999999
 31
0.0
  0
ARC
  8
DETAIL
  6
CONTINUOUS
 62
     5
 10
99.807000000000102
 20
-142.88159999999991
 30
0.0
 40
2.6265
 50
0.0
 51
180.0
  0
ARC
  8
DETAIL
  6
CONTINUOUS
 62
     5
 10
99.807000000000102
 20
-169.14660000000001
 30
0.0
 40
2.6265
 50
180.0
 51
0.0
  0
LINE
  8
DETAIL
  6
CONTINUOUS
 62
     5
 10
97.180500000000109
 20
-142.88159999999991
 30
0.0
 11
97.180500000000109
 21
-169.14660000000001
 31
0.0
  0
LINE
  8
DETAIL
  6
CONTINUOUS
 62
     5
 10
102.43350000000009
 20
-142.88159999999991
 30
0.0
 11
102.43350000000009
 21
-169.14660000000001
 31
0.0
  0
LINE
  8
DETAIL
  6
CONTINUOUS
 62
     5
 10
102.43350000000009
 20
-108.2117999999999
 30
0.0
 11
102.43350000000009
 21
-134.47679999999991
 31
0.0
  0
LINE
  8
DETAIL
  6
CONTINUOUS
 62
     5
 10
97.180500000000109
 20
-108.2117999999999
 30
0.0
 11
97.180500000000109
 21
-134.47679999999991
 31
0.0
  0
ARC
  8
DETAIL
  6
CONTINUOUS
 62
     5
 10
99.807000000000102
 20
-134.47679999999991
 30
0.0
 40
2.6265
 50
180.0
 51
0.0
  0
ARC
  8
DETAIL
  6
CONTINUOUS
 62
     5
 10
99.807000000000102
 20
-108.2117999999999
 30
0.0
 40
2.6265
 50
0.0
 51
180.0
  0
ARC
  8
DETAIL
  6
CONTINUOUS
 62
     5
 10
99.807000000000102
 20
65.137200000000007
 30
0.0
 40
2.6265
 50
0.0
 51
180.0
  0
ARC
  8
DETAIL
  6
CONTINUOUS
 62
     5
 10
99.807000000000102
 20
38.872199999999999
 30
0.0
 40
2.6265
 50
180.0
 51
0.0
  0
LINE
  8
DETAIL
  6
CONTINUOUS
 62
     5
 10
97.180500000000109
 20
65.137200000000007
 30
0.0
 11
97.180500000000109
 21
38.872199999999999
 31
0.0
  0
LINE
  8
DETAIL
  6
CONTINUOUS
 62
     5
 10
102.43350000000009
 20
65.137200000000007
 30
0.0
 11
102.43350000000009
 21
38.872199999999999
 31
0.0
  0
LINE
  8
DETAIL
  6
CONTINUOUS
 62
     5
 10
102.43350000000009
 20
30.467400000000001
 30
0.0
 11
102.43350000000009
 21
4.202399999999999
 31
0.0
  0
LINE
  8
DETAIL
  6
CONTINUOUS
 62
     5
 10
97.180500000000109
 20
30.467400000000001
 30
0.0
 11
97.180500000000109
 21
4.202399999999999
 31
0.0
  0
ARC
  8
DETAIL
  6
CONTINUOUS
 62
     5
 10
99.807000000000102
 20
4.202399999999999
 30
0.0
 40
2.6265
 50
180.0
 51
0.0
  0
ARC
  8
DETAIL
  6
CONTINUOUS
 62
     5
 10
99.807000000000102
 20
30.467400000000001
 30
0.0
 40
2.6265
 50
0.0
 51
180.0
  0
ARC
  8
DETAIL
  6
CONTINUOUS
 62
     5
 10
99.807000000000102
 20
-38.872199999999999
 30
0.0
 40
2.6265
 50
0.0
 51
180.0
  0
ARC
  8
DETAIL
  6
CONTINUOUS
 62
     5
 10
99.807000000000102
 20
-65.137200000000007
 30
0.0
 40
2.6265
 50
180.0
 51
0.0
  0
LINE
  8
DETAIL
  6
CONTINUOUS
 62
     5
 10
97.180500000000109
 20
-38.872199999999999
 30
0.0
 11
97.180500000000109
 21
-65.137200000000007
 31
0.0
  0
LINE
  8
DETAIL
  6
CONTINUOUS
 62
     5
 10
102.43350000000009
 20
-38.872199999999999
 30
0.0
 11
102.43350000000009
 21
-65.137200000000007
 31
0.0
  0
LINE
  8
DETAIL
  6
CONTINUOUS
 62
     5
 10
102.43350000000009
 20
-4.202399999999999
 30
0.0
 11
102.43350000000009
 21
-30.467399999999991
 31
0.0
  0
LINE
  8
DETAIL
  6
CONTINUOUS
 62
     5
 10
97.180500000000109
 20
-4.202399999999999
 30
0.0
 11
97.180500000000109
 21
-30.467399999999991
 31
0.0
  0
ARC
  8
DETAIL
  6
CONTINUOUS
 62
     5
 10
99.807000000000102
 20
-30.467399999999991
 30
0.0
 40
2.6265
 50
180.0
 51
0.0
  0
ARC
  8
DETAIL
  6
CONTINUOUS
 62
     5
 10
99.807000000000102
 20
-4.202399999999999
 30
0.0
 40
2.6265
 50
0.0
 51
180.0
  0
ARC
  8
DETAIL
  6
CONTINUOUS
 62
     5
 10
99.807000000000102
 20
134.47679999999991
 30
0.0
 40
2.6265
 50
0.0
 51
180.0
  0
ARC
  8
DETAIL
  6
CONTINUOUS
 62
     5
 10
99.807000000000102
 20
108.2117999999999
 30
0.0
 40
2.6265
 50
180.0
 51
0.0
  0
LINE
  8
DETAIL
  6
CONTINUOUS
 62
     5
 10
97.180500000000109
 20
134.47679999999991
 30
0.0
 11
97.180500000000109
 21
108.2117999999999
 31
0.0
  0
LINE
  8
DETAIL
  6
CONTINUOUS
 62
     5
 10
102.43350000000009
 20
134.47679999999991
 30
0.0
 11
102.43350000000009
 21
108.2117999999999
 31
0.0
  0
LINE
  8
DETAIL
  6
CONTINUOUS
 62
     5
 10
102.43350000000009
 20
99.807000000000002
 30
0.0
 11
102.43350000000009
 21
73.542000000000002
 31
0.0
  0
LINE
  8
DETAIL
  6
CONTINUOUS
 62
     5
 10
97.180500000000109
 20
99.807000000000002
 30
0.0
 11
97.180500000000109
 21
73.542000000000002
 31
0.0
  0
ARC
  8
DETAIL
  6
CONTINUOUS
 62
     5
 10
99.807000000000102
 20
73.542000000000002
 30
0.0
 40
2.6265
 50
180.0
 51
0.0
  0
ARC
  8
DETAIL
  6
CONTINUOUS
 62
     5
 10
99.807000000000102
 20
99.807000000000002
 30
0.0
 40
2.6265
 50
0.0
 51
180.0
  0
ARC
  8
DETAIL
  6
CONTINUOUS
 62
     5
 10
99.807000000000102
 20
169.14660000000001
 30
0.0
 40
2.6265
 50
0.0
 51
180.0
  0
ARC
  8
DETAIL
  6
CONTINUOUS
 62
     5
 10
99.807000000000102
 20
142.88159999999991
 30
0.0
 40
2.6265
 50
180.0
 51
0.0
  0
LINE
  8
DETAIL
  6
CONTINUOUS
 62
     5
 10
97.180500000000109
 20
169.14660000000001
 30
0.0
 11
97.180500000000109
 21
142.88159999999991
 31
0.0
  0
LINE
  8
DETAIL
  6
CONTINUOUS
 62
     5
 10
102.43350000000009
 20
169.14660000000001
 30
0.0
 11
102.43350000000009
 21
142.88159999999991
 31
0.0
  0
LINE
  8
DETAIL
  6
CONTINUOUS
 62
     5
 10
102.43350000000009
 20
203.81639999999999
 30
0.0
 11
102.43350000000009
 21
177.5514
 31
0.0
  0
LINE
  8
DETAIL
  6
CONTINUOUS
 62
     5
 10
97.180500000000109
 20
203.81639999999999
 30
0.0
 11
97.180500000000109
 21
177.5514
 31
0.0
  0
ARC
  8
DETAIL
  6
CONTINUOUS
 62
     5
 10
99.807000000000102
 20
177.5514
 30
0.0
 40
2.6265
 50
180.0
 51
0.0
  0
ARC
  8
DETAIL
  6
CONTINUOUS
 62
     5
 10
99.807000000000102
 20
203.81639999999999
 30
0.0
 40
2.6265
 50
0.0
 51
180.0
  0
LINE
  8
SIZE
  6
CONTINUOUS
 62
    30
 10
232.00000000000011
 20
239.5
 30
0.0
 11
550.48521039431046
 21
239.5
 31
0.0
  0
LINE
  8
SIZE
  6
CONTINUOUS
 62
    30
 10
232.00000000000011
 20
-239.5
 30
0.0
 11
550.48521039431046
 21
-239.5
 31
0.0
  0
LINE
  8
SIZE
  6
CONTINUOUS
 62
    30
 10
524.11499385160744
 20
237.5
 30
0.0
 11
524.11499385160744
 21
-237.5
 31
0.0
  0
TEXT
  8
SIZE
  6
CONTINUOUS
 62
    30
 10
492.11499385160732
 20
-72.685714000000004
 30
0.0
 40
64.0
  1
479
 50
90.0
 41
0.9
  0
LINE
  8
SIZE
  6
CONTINUOUS
 62
    30
 10
-241.8956519999999
 20
232.0
 30
0.0
 11
-241.8956519999999
 21
467.40401801495852
 31
0.0
  0
LINE
  8
SIZE
  6
CONTINUOUS
 62
    30
 10
242.00000000000011
 20
232.0
 30
0.0
 11
242.00000000000011
 21
462.46167295626572
 31
0.0
  0
LINE
  8
SIZE
  6
CONTINUOUS
 62
    30
 10
-239.8956519999999
 20
436.10250085230479
 30
0.0
 11
240.00000000000011
 21
436.10250085230479
 31
0.0
  0
TEXT
  8
SIZE
  6
CONTINUOUS
 62
    30
 10
-76.500602405402304
 20
468.10250085230479
 30
0.0
 40
64.0
  1
484
 41
0.9
  0
CIRCLE
  8
SIZE
  6
CONTINUOUS
 62
    30
 10
242.00000000000011
 20
436.10250085230479
 30
0.0
 40
6.0
  0
CIRCLE
  8
SIZE
  6
CONTINUOUS
 62
    30
 10
-241.8956519999999
 20
436.10250085230479
 30
0.0
 40
6.0
  0
CIRCLE
  8
SIZE
  6
CONTINUOUS
 62
    30
 10
524.11499385160744
 20
-239.5
 30
0.0
 40
6.0
  0
CIRCLE
  8
SIZE
  6
CONTINUOUS
 62
    30
 10
524.11499385160744
 20
239.5
 30
0.0
 40
6.0
  0
TEXT
  8
ETC
  6
CONTINUOUS
 62
    61
 10
547.23644741697046
 20
445.98719096969029
 30
0.0
 40
50.0
  1
EFG-35MSB2
 41
0.9
  0
TEXT
  8
ETC
  6
CONTINUOUS
 62
    61
 10
459.67037490077428
 20
630.41189246040813
 30
0.0
 40
64.0
  1
EFG-35MSB2_2
 41
0.9
  0
TEXT
  8
ETC
  6
CONTINUOUS
 62
    61
 10
451.59689690077408
 20
534.48780507513663
 30
0.0
 40
64.0
  1
産業扇
 41
0.9
  0
ENDSEC
  0
EOF
