  0
SECTION
  2
HEADER
  9
$ACADVER
  1
AC1009
  9
$DWGCODEPAGE
  3
ansi_932
  9
$INSBASE
 10
0.0
 20
0.0
 30
0.0
  9
$EXTMIN
 10
-331.1818239618105
 20
-342.8391546013243
 30
0.0
  9
$EXTMAX
 10
1518.186728838291
 20
675.8167943968843
 30
0.0
  9
$LIMMIN
 10
-2970.0
 20
-2100.0
  9
$LIMMAX
 10
2970.0
 20
2100.0
  9
$ORTHOMODE
 70
     0
  9
$REGENMODE
 70
     0
  9
$FILLMODE
 70
     1
  9
$QTEXTMODE
 70
     0
  9
$MIRRTEXT
 70
     0
  9
$DRAGMODE
 70
     2
  9
$LTSCALE
 40
20.0
  9
$OSMODE
 70
    37
  9
$ATTMODE
 70
     1
  9
$TEXTSIZE
 40
64.0
  9
$TRACEWID
 40
0.05
  9
$TEXTSTYLE
  7
STANDARD
  9
$CLAYER
  8
OUTLINE
  9
$CELTYPE
  6
CONTINUOUS
  9
$CECOLOR
 62
     1
  9
$DIMSCALE
 40
1.0
  9
$DIMASZ
 40
2.0
  9
$DIMEXO
 40
20.0
  9
$DIMDLI
 40
200.0
  9
$DIMRND
 40
0.0
  9
$DIMDLE
 40
0.0
  9
$DIMEXE
 40
30.0
  9
$DIMTP
 40
0.0
  9
$DIMTM
 40
0.0
  9
$DIMTXT
 40
64.0
  9
$DIMCEN
 40
0.09
  9
$DIMTSZ
 40
0.0
  9
$DIMTOL
 70
     0
  9
$DIMLIM
 70
     0
  9
$DIMTIH
 70
     0
  9
$DIMTOH
 70
     0
  9
$DIMSE1
 70
     0
  9
$DIMSE2
 70
     0
  9
$DIMTAD
 70
     1
  9
$DIMZIN
 70
     8
  9
$DIMBLK
  1

  9
$DIMASO
 70
     1
  9
$DIMSHO
 70
     0
  9
$DIMPOST
  1

  9
$DIMAPOST
  1

  9
$DIMALT
 70
     0
  9
$DIMALTD
 70
     2
  9
$DIMALTF
 40
25.4
  9
$DIMLFAC
 40
1.0
  9
$DIMTOFL
 70
     1
  9
$DIMTVP
 40
0.0
  9
$DIMTIX
 70
     1
  9
$DIMSOXD
 70
     0
  9
$DIMSAH
 70
     0
  9
$DIMBLK1
  1

  9
$DIMBLK2
  1

  9
$DIMSTYLE
  2
STANDARD
  9
$DIMCLRD
 70
     0
  9
$DIMCLRE
 70
     0
  9
$DIMCLRT
 70
     0
  9
$DIMTFAC
 40
1.0
  9
$DIMGAP
 40
0.09
  9
$LUNITS
 70
     2
  9
$LUPREC
 70
     4
  9
$SKETCHINC
 40
0.1
  9
$FILLETRAD
 40
30.0
  9
$AUNITS
 70
     1
  9
$AUPREC
 70
     3
  9
$MENU
  1
ACAD
  9
$ELEVATION
 40
0.0
  9
$PELEVATION
 40
0.0
  9
$THICKNESS
 40
0.0
  9
$LIMCHECK
 70
     0
  9
$CHAMFERA
 40
0.0
  9
$CHAMFERB
 40
0.0
  9
$SKPOLY
 70
     0
  9
$TDCREATE
 40
2450967.503287025
  9
$TDUPDATE
 40
2457485.555092014
  9
$TDINDWG
 40
0.0594064468
  9
$TDUSRTIMER
 40
0.059406088
  9
$USRTIMER
 70
     1
  9
$ANGBASE
 50
0.0
  9
$ANGDIR
 70
     0
  9
$PDMODE
 70
     3
  9
$PDSIZE
 40
-2.0
  9
$PLINEWID
 40
0.0
  9
$COORDS
 70
     1
  9
$SPLFRAME
 70
     0
  9
$SPLINETYPE
 70
     6
  9
$SPLINESEGS
 70
     8
  9
$ATTDIA
 70
     0
  9
$ATTREQ
 70
     1
  9
$HANDLING
 70
     1
  9
$HANDSEED
  5
1860
  9
$SURFTAB1
 70
     6
  9
$SURFTAB2
 70
     6
  9
$SURFTYPE
 70
     6
  9
$SURFU
 70
     6
  9
$SURFV
 70
     6
  9
$UCSNAME
  2

  9
$UCSORG
 10
0.0
 20
0.0
 30
0.0
  9
$UCSXDIR
 10
1.0
 20
0.0
 30
0.0
  9
$UCSYDIR
 10
0.0
 20
1.0
 30
0.0
  9
$PUCSNAME
  2

  9
$PUCSORG
 10
0.0
 20
0.0
 30
0.0
  9
$PUCSXDIR
 10
1.0
 20
0.0
 30
0.0
  9
$PUCSYDIR
 10
0.0
 20
1.0
 30
0.0
  9
$USERI1
 70
     0
  9
$USERI2
 70
     0
  9
$USERI3
 70
     0
  9
$USERI4
 70
     0
  9
$USERI5
 70
     0
  9
$USERR1
 40
20.0
  9
$USERR2
 40
0.0
  9
$USERR3
 40
0.0
  9
$USERR4
 40
0.0
  9
$USERR5
 40
0.0
  9
$WORLDVIEW
 70
     1
  9
$SHADEDGE
 70
     3
  9
$SHADEDIF
 70
    70
  9
$TILEMODE
 70
     1
  9
$MAXACTVP
 70
    48
  9
$PLIMCHECK
 70
     0
  9
$PEXTMIN
 10
1.000000000000000E+20
 20
1.000000000000000E+20
 30
1.000000000000000E+20
  9
$PEXTMAX
 10
-1.000000000000000E+20
 20
-1.000000000000000E+20
 30
-1.000000000000000E+20
  9
$PLIMMIN
 10
0.0
 20
0.0
  9
$PLIMMAX
 10
12.0
 20
9.0
  9
$UNITMODE
 70
     0
  9
$VISRETAIN
 70
     1
  9
$PLINEGEN
 70
     0
  9
$PSLTSCALE
 70
     1
  0
ENDSEC
  0
SECTION
  2
TABLES
  0
TABLE
  2
VPORT
 70
     1
  0
VPORT
  2
*ACTIVE
 70
     0
 10
0.0
 20
0.0
 11
1.0
 21
1.0
 12
586.0630638982383
 22
165.9562739908178
 13
0.0
 23
0.0
 14
50.0
 24
50.0
 15
100.0
 25
100.0
 16
0.0
 26
0.0
 36
1.0
 17
0.0
 27
0.0
 37
0.0
 40
1432.579479197171
 41
1.493654822335025
 42
50.0
 43
0.0
 44
0.0
 50
0.0
 51
0.0
 71
     0
 72
  1000
 73
     1
 74
     0
 75
     0
 76
     0
 77
     0
 78
     1
  0
ENDTAB
  0
TABLE
  2
LTYPE
 70
     7
  0
LTYPE
  2
CONTINUOUS
 70
     0
  3
実線
 72
    65
 73
     0
 40
0.0
  0
LTYPE
  2
DASHDOT
 70
     0
  3
____ _ ____ _ ____ _ ____ _ ____ _ ____ _ ____
 72
    65
 73
     4
 40
5.5
 49
4.0
 49
-0.6
 49
0.3
 49
-0.6
  0
LTYPE
  2
DASHED
 70
     0
  3
_ _ _ _ _ _ _ _ _ _ _ _ _ _ _ _ _ _ _ _ _ _ _
 72
    65
 73
     2
 40
1.999999999999999
 49
1.199999999999999
 49
-0.8
  0
LTYPE
  2
DOT
 70
     0
  3
...............................................
 72
    65
 73
     2
 40
0.8
 49
0.5
 49
-0.3
  0
LTYPE
  2
DASHDOT1
 70
     0
  3
____ _ ____ _ ____ _ ____ _ ____ _ ____ _ ____
 72
    65
 73
     4
 40
2.0
 49
1.5
 49
-0.2
 49
0.1
 49
-0.2
  0
LTYPE
  2
DIVIDE
 70
     0
  3
_____ _ _ _____ _ _ _____ _ _ _____ _ _ ____
 72
    65
 73
     6
 40
6.4
 49
4.0
 49
-0.6
 49
0.3
 49
-0.6
 49
0.3
 49
-0.6
  0
LTYPE
  2
DIVIDE1
 70
     0
  3
_____ _ _ _____ _ _ _____ _ _ _____ _ _ ____
 72
    65
 73
     6
 40
3.2
 49
2.0
 49
-0.3
 49
0.15
 49
-0.3
 49
0.15
 49
-0.3
  0
ENDTAB
  0
TABLE
  2
LAYER
 70
    12
  0
LAYER
  2
0
 70
     0
 62
     7
  6
CONTINUOUS
  0
LAYER
  2
OUTLINE
 70
     0
 62
     3
  6
CONTINUOUS
  0
LAYER
  2
DETAIL
 70
     0
 62
     5
  6
CONTINUOUS
  0
LAYER
  2
BASIS
 70
     0
 62
     6
  6
DASHDOT
  0
LAYER
  2
SIZE
 70
     0
 62
    30
  6
CONTINUOUS
  0
LAYER
  2
NOTE
 70
     0
 62
     4
  6
CONTINUOUS
  0
LAYER
  2
DEFPOINTS
 70
     0
 62
     7
  6
CONTINUOUS
  0
LAYER
  2
ETC
 70
     0
 62
    61
  6
CONTINUOUS
  0
LAYER
  2
ARRANGE
 70
     0
 62
     1
  6
CONTINUOUS
  0
LAYER
  2
FIX
 70
     0
 62
    11
  6
CONTINUOUS
  0
LAYER
  2
SERVICESPACE
 70
     0
 62
     2
  6
DASHDOT
  0
LAYER
  2
SYMBOLLINE
 70
     0
 62
    15
  6
CONTINUOUS
  0
ENDTAB
  0
TABLE
  2
STYLE
 70
     1
  0
STYLE
  2
STANDARD
 70
     0
 40
0.0
 41
0.9
 50
0.0
 71
     0
 42
64.0
  3
SIMPLEX
  4
BIGFONT
  0
ENDTAB
  0
TABLE
  2
VIEW
 70
     1
  0
VIEW
  2
ALL
 70
     0
 40
4282.619807999997
 10
0.0
 20
41.30990399999999
 41
5940.0
 11
0.0
 21
0.0
 31
1.0
 12
0.0
 22
0.0
 32
0.0
 42
50.0
 43
0.0
 44
0.0
 50
0.0
 71
     0
  0
ENDTAB
  0
TABLE
  2
UCS
 70
     0
  0
ENDTAB
  0
TABLE
  2
APPID
 70
     1
  0
APPID
  2
ACAD
 70
     0
  0
ENDTAB
  0
TABLE
  2
DIMSTYLE
 70
     1
  0
DIMSTYLE
  2
STANDARD
 70
     0
  3

  4

  5

  6

  7

 40
1.0
 41
0.18
 42
0.0625
 43
0.38
 44
0.18
 45
0.0
 46
0.0
 47
0.0
 48
0.0
140
0.18
141
0.09
142
0.0
143
25.4
144
1.0
145
0.0
146
1.0
147
0.09
 71
     0
 72
     0
 73
     1
 74
     1
 75
     0
 76
     0
 77
     0
 78
     0
170
     0
171
     2
172
     0
173
     0
174
     0
175
     0
176
     0
177
     0
178
     0
  0
ENDTAB
  0
ENDSEC
  0
SECTION
  2
BLOCKS
  0
BLOCK
  8
0
  2
$MODEL_SPACE
 70
     0
 10
0.0
 20
0.0
 30
0.0
  3
$MODEL_SPACE
  1

  0
ENDBLK
  5
136B
  8
0
  0
BLOCK
 67
     1
  8
0
  2
$PAPER_SPACE
 70
     0
 10
0.0
 20
0.0
 30
0.0
  3
$PAPER_SPACE
  1

  0
ENDBLK
  5
1367
 67
     1
  8
0
  0
ENDSEC
  0
SECTION
  2
ENTITIES
  0
LINE
  5
1389
  8
NOTE
  6
CONTINUOUS
 62
     4
 10
-259.9999999999998
 20
-190.0000000000001
 30
0.0
 11
-430.3502379999997
 21
70.60537099999975
 31
0.0
  0
LINE
  5
138A
  8
NOTE
  6
CONTINUOUS
 62
     4
 10
-430.3502379999997
 20
70.60537099999975
 30
0.0
 11
-539.3768619999998
 21
70.60537099999975
 31
0.0
  0
LINE
  5
138B
  8
BASIS
  6
DASHDOT
 62
     6
 10
0.0
 20
311.6654759999996
 30
0.0
 11
0.0
 21
-335.7371929999998
 31
0.0
  0
POINT
  5
138C
  8
ARRANGE
  6
CONTINUOUS
 62
     1
 10
0.0
 20
0.0
 30
0.0
  0
CIRCLE
  5
138D
  8
ARRANGE
  6
CONTINUOUS
 62
     1
 10
0.0
 20
0.0
 30
0.0
 40
54.48275999999999
  0
LINE
  5
138E
  8
BASIS
  6
DASHDOT
 62
     6
 10
-320.632198
 20
0.0
 30
0.0
 11
306.3182429999995
 21
0.0
 31
0.0
  0
TEXT
  5
138F
  8
NOTE
  6
CONTINUOUS
 62
     4
 10
-526.4092549999996
 20
85.3720959999997
 30
0.0
 40
64.0
  1
EL
 41
0.9
  0
ARC
  5
1390
  8
OUTLINE
  6
CONTINUOUS
 62
     3
 10
-229.9999999999998
 20
-228.9999999999999
 30
0.0
 40
30.0
 50
180.0
 51
270.0
  0
ARC
  5
1391
  8
OUTLINE
  6
CONTINUOUS
 62
     3
 10
229.9999999999998
 20
-228.9999999999999
 30
0.0
 40
30.0
 50
270.0
 51
0.0
  0
ARC
  5
1392
  8
OUTLINE
  6
CONTINUOUS
 62
     3
 10
229.9999999999998
 20
228.9999999999999
 30
0.0
 40
30.0
 50
0.0
 51
90.0
  0
LINE
  5
1393
  8
OUTLINE
  6
CONTINUOUS
 62
     3
 10
-229.9999999999998
 20
-258.9999999999998
 30
0.0
 11
229.9999999999998
 21
-258.9999999999998
 31
0.0
  0
ARC
  5
1394
  8
OUTLINE
  6
CONTINUOUS
 62
     3
 10
-229.9999999999998
 20
228.9999999999999
 30
0.0
 40
30.0
 50
90.0
 51
180.0
  0
LINE
  5
1395
  8
OUTLINE
  6
CONTINUOUS
 62
     3
 10
-229.9999999999998
 20
258.9999999999999
 30
0.0
 11
229.9999999999998
 21
258.9999999999999
 31
0.0
  0
LINE
  5
1396
  8
OUTLINE
  6
CONTINUOUS
 62
     3
 10
-259.9999999999998
 20
228.9999999999999
 30
0.0
 11
-259.9999999999998
 21
-228.9999999999999
 31
0.0
  0
LINE
  5
1397
  8
OUTLINE
  6
CONTINUOUS
 62
     3
 10
259.9999999999998
 20
-228.9999999999999
 30
0.0
 11
259.9999999999998
 21
228.9999999999999
 31
0.0
  0
ARC
  5
1398
  8
DETAIL
  6
CONTINUOUS
 62
     5
 10
-230.0
 20
228.9999999999999
 30
0.0
 40
30.0
 50
89.99999999999994
 51
180.0
  0
LINE
  5
1399
  8
DETAIL
  6
CONTINUOUS
 62
     5
 10
-230.0
 20
258.9999999999999
 30
0.0
 11
229.9999999999999
 21
258.9999999999999
 31
0.0
  0
LINE
  5
139A
  8
DETAIL
  6
CONTINUOUS
 62
     5
 10
-260.0
 20
228.9999999999999
 30
0.0
 11
-260.0
 21
-228.9999999999999
 31
0.0
  0
ARC
  5
139B
  8
DETAIL
  6
CONTINUOUS
 62
     5
 10
-230.0
 20
-228.9999999999999
 30
0.0
 40
30.0
 50
180.0
 51
270.0
  0
LINE
  5
139C
  8
DETAIL
  6
CONTINUOUS
 62
     5
 10
-230.0
 20
-258.9999999999998
 30
0.0
 11
229.9999999999999
 21
-258.9999999999998
 31
0.0
  0
ARC
  5
139D
  8
DETAIL
  6
CONTINUOUS
 62
     5
 10
229.9999999999999
 20
-228.9999999999999
 30
0.0
 40
30.0
 50
270.0
 51
0.0
  0
LINE
  5
139E
  8
DETAIL
  6
CONTINUOUS
 62
     5
 10
259.9999999999999
 20
-228.9999999999999
 30
0.0
 11
259.9999999999999
 21
228.9999999999999
 31
0.0
  0
ARC
  5
139F
  8
DETAIL
  6
CONTINUOUS
 62
     5
 10
229.9999999999999
 20
228.9999999999999
 30
0.0
 40
30.0
 50
0.0
 51
90.0
  0
ARC
  5
13A0
  8
OUTLINE
  6
CONTINUOUS
 62
     3
 10
-230.0
 20
228.9999999999999
 30
0.0
 40
30.0
 50
89.99999999999994
 51
180.0
  0
LINE
  5
13A1
  8
OUTLINE
  6
CONTINUOUS
 62
     3
 10
-230.0
 20
258.9999999999999
 30
0.0
 11
229.9999999999999
 21
258.9999999999999
 31
0.0
  0
LINE
  5
13A2
  8
OUTLINE
  6
CONTINUOUS
 62
     3
 10
-260.0
 20
228.9999999999999
 30
0.0
 11
-260.0
 21
-228.9999999999999
 31
0.0
  0
ARC
  5
13A3
  8
OUTLINE
  6
CONTINUOUS
 62
     3
 10
-230.0
 20
-228.9999999999999
 30
0.0
 40
30.0
 50
180.0
 51
270.0
  0
LINE
  5
13A4
  8
OUTLINE
  6
CONTINUOUS
 62
     3
 10
-230.0
 20
-258.9999999999998
 30
0.0
 11
229.9999999999999
 21
-258.9999999999998
 31
0.0
  0
ARC
  5
13A5
  8
OUTLINE
  6
CONTINUOUS
 62
     3
 10
229.9999999999999
 20
-228.9999999999999
 30
0.0
 40
30.0
 50
270.0
 51
0.0
  0
LINE
  5
13A6
  8
OUTLINE
  6
CONTINUOUS
 62
     3
 10
259.9999999999999
 20
-228.9999999999999
 30
0.0
 11
259.9999999999999
 21
228.9999999999999
 31
0.0
  0
ARC
  5
13A7
  8
OUTLINE
  6
CONTINUOUS
 62
     3
 10
229.9999999999999
 20
228.9999999999999
 30
0.0
 40
30.0
 50
0.0
 51
90.0
  0
LINE
  5
13A8
  8
DETAIL
  6
CONTINUOUS
 62
     5
 10
-260.0
 20
-220.4999999999999
 30
0.0
 11
259.9999999999999
 21
-220.4999999999999
 31
0.0
  0
LINE
  5
13A9
  8
DETAIL
  6
CONTINUOUS
 62
     5
 10
-260.0
 20
220.4999999999999
 30
0.0
 11
259.9999999999999
 21
220.4999999999999
 31
0.0
  0
LINE
  5
13AA
  8
DETAIL
  6
CONTINUOUS
 62
     5
 10
-260.0
 20
73.5
 30
0.0
 11
259.9999999999999
 21
73.5
 31
0.0
  0
LINE
  5
13AB
  8
DETAIL
  6
CONTINUOUS
 62
     5
 10
-260.0
 20
69.5
 30
0.0
 11
259.9999999999999
 21
69.5
 31
0.0
  0
LINE
  5
13AC
  8
DETAIL
  6
CONTINUOUS
 62
     5
 10
-260.0
 20
-69.5
 30
0.0
 11
259.9999999999999
 21
-69.5
 31
0.0
  0
LINE
  5
13AD
  8
DETAIL
  6
CONTINUOUS
 62
     5
 10
-260.0
 20
-73.5
 30
0.0
 11
259.9999999999999
 21
-73.5
 31
0.0
  0
LINE
  5
13AE
  8
DETAIL
  6
CONTINUOUS
 62
     5
 10
-260.0
 20
216.4999999999999
 30
0.0
 11
259.9999999999999
 21
216.4999999999999
 31
0.0
  0
LINE
  5
13AF
  8
DETAIL
  6
CONTINUOUS
 62
     5
 10
-260.0
 20
212.4999999999999
 30
0.0
 11
259.9999999999999
 21
212.4999999999999
 31
0.0
  0
LINE
  5
13B0
  8
DETAIL
  6
CONTINUOUS
 62
     5
 10
-260.0
 20
-216.4999999999999
 30
0.0
 11
259.9999999999999
 21
-216.4999999999999
 31
0.0
  0
LINE
  5
13B1
  8
DETAIL
  6
CONTINUOUS
 62
     5
 10
-260.0
 20
-212.4999999999999
 30
0.0
 11
259.9999999999999
 21
-212.4999999999999
 31
0.0
  0
LINE
  5
13B2
  8
DETAIL
  6
CONTINUOUS
 62
     5
 10
-220.0
 20
220.4999999999999
 30
0.0
 11
-220.0
 21
-220.4999999999999
 31
0.0
  0
LINE
  5
13B3
  8
DETAIL
  6
CONTINUOUS
 62
     5
 10
220.0
 20
-220.4999999999999
 30
0.0
 11
220.0
 21
220.4999999999999
 31
0.0
  0
LINE
  5
13B4
  8
DETAIL
  6
CONTINUOUS
 62
     5
 10
-200.0209
 20
199.9999999999999
 30
0.0
 11
-200.0209
 21
174.9999999999999
 31
0.0
  0
LINE
  5
13B5
  8
DETAIL
  6
CONTINUOUS
 62
     5
 10
-195.0209
 20
199.9999999999999
 30
0.0
 11
-195.0209
 21
174.9999999999999
 31
0.0
  0
LINE
  5
13B6
  8
DETAIL
  6
CONTINUOUS
 62
     5
 10
-180.0209
 20
199.9999999999999
 30
0.0
 11
-180.0209
 21
174.9999999999999
 31
0.0
  0
ARC
  5
13B7
  8
DETAIL
  6
CONTINUOUS
 62
     5
 10
-207.5209
 20
199.9999999999999
 30
0.0
 40
7.5
 50
0.0
 51
180.0
  0
ARC
  5
13B8
  8
DETAIL
  6
CONTINUOUS
 62
     5
 10
-207.5209
 20
174.9999999999999
 30
0.0
 40
7.5
 50
180.0
 51
0.0
  0
ARC
  5
13B9
  8
DETAIL
  6
CONTINUOUS
 62
     5
 10
-187.5209
 20
174.9999999999999
 30
0.0
 40
7.5
 50
180.0
 51
0.0
  0
ARC
  5
13BA
  8
DETAIL
  6
CONTINUOUS
 62
     5
 10
-187.5209
 20
199.9999999999999
 30
0.0
 40
7.5
 50
0.0
 51
180.0
  0
LINE
  5
13BB
  8
DETAIL
  6
CONTINUOUS
 62
     5
 10
-180.0209
 20
199.9999999999999
 30
0.0
 11
-180.0209
 21
174.9999999999999
 31
0.0
  0
ARC
  5
13BC
  8
DETAIL
  6
CONTINUOUS
 62
     5
 10
-207.5209
 20
130.9999999999999
 30
0.0
 40
7.5
 50
180.0
 51
0.0
  0
ARC
  5
13BD
  8
DETAIL
  6
CONTINUOUS
 62
     5
 10
-207.5209
 20
155.9999999999999
 30
0.0
 40
7.5
 50
0.0
 51
180.0
  0
LINE
  5
13BE
  8
DETAIL
  6
CONTINUOUS
 62
     5
 10
-200.0209
 20
155.9999999999999
 30
0.0
 11
-200.0209
 21
130.9999999999999
 31
0.0
  0
LINE
  5
13BF
  8
DETAIL
  6
CONTINUOUS
 62
     5
 10
-200.0209
 20
111.9999999999999
 30
0.0
 11
-200.0209
 21
86.99999999999999
 31
0.0
  0
ARC
  5
13C0
  8
DETAIL
  6
CONTINUOUS
 62
     5
 10
-207.5209
 20
111.9999999999999
 30
0.0
 40
7.5
 50
0.0
 51
180.0
  0
ARC
  5
13C1
  8
DETAIL
  6
CONTINUOUS
 62
     5
 10
-207.5209
 20
86.99999999999999
 30
0.0
 40
7.5
 50
180.0
 51
0.0
  0
LINE
  5
13C2
  8
DETAIL
  6
CONTINUOUS
 62
     5
 10
-180.0209
 20
155.9999999999999
 30
0.0
 11
-180.0209
 21
130.9999999999999
 31
0.0
  0
ARC
  5
13C3
  8
DETAIL
  6
CONTINUOUS
 62
     5
 10
-187.5209
 20
155.9999999999999
 30
0.0
 40
7.5
 50
0.0
 51
180.0
  0
ARC
  5
13C4
  8
DETAIL
  6
CONTINUOUS
 62
     5
 10
-187.5209
 20
130.9999999999999
 30
0.0
 40
7.5
 50
180.0
 51
0.0
  0
LINE
  5
13C5
  8
DETAIL
  6
CONTINUOUS
 62
     5
 10
-180.0209
 20
155.9999999999999
 30
0.0
 11
-180.0209
 21
130.9999999999999
 31
0.0
  0
LINE
  5
13C6
  8
DETAIL
  6
CONTINUOUS
 62
     5
 10
-195.0209
 20
155.9999999999999
 30
0.0
 11
-195.0209
 21
130.9999999999999
 31
0.0
  0
LINE
  5
13C7
  8
DETAIL
  6
CONTINUOUS
 62
     5
 10
-180.0209
 20
111.9999999999999
 30
0.0
 11
-180.0209
 21
86.99999999999999
 31
0.0
  0
ARC
  5
13C8
  8
DETAIL
  6
CONTINUOUS
 62
     5
 10
-187.5209
 20
111.9999999999999
 30
0.0
 40
7.5
 50
0.0
 51
180.0
  0
ARC
  5
13C9
  8
DETAIL
  6
CONTINUOUS
 62
     5
 10
-187.5209
 20
86.99999999999999
 30
0.0
 40
7.5
 50
180.0
 51
0.0
  0
LINE
  5
13CA
  8
DETAIL
  6
CONTINUOUS
 62
     5
 10
-180.0209
 20
111.9999999999999
 30
0.0
 11
-180.0209
 21
86.99999999999999
 31
0.0
  0
LINE
  5
13CB
  8
DETAIL
  6
CONTINUOUS
 62
     5
 10
-195.0209
 20
111.9999999999999
 30
0.0
 11
-195.0209
 21
86.99999999999999
 31
0.0
  0
LINE
  5
13CC
  8
DETAIL
  6
CONTINUOUS
 62
     5
 10
-155.0209
 20
111.9999999999999
 30
0.0
 11
-155.0209
 21
86.99999999999999
 31
0.0
  0
LINE
  5
13CD
  8
DETAIL
  6
CONTINUOUS
 62
     5
 10
-140.0209
 20
111.9999999999999
 30
0.0
 11
-140.0209
 21
86.99999999999999
 31
0.0
  0
ARC
  5
13CE
  8
DETAIL
  6
CONTINUOUS
 62
     5
 10
-147.5209
 20
86.99999999999999
 30
0.0
 40
7.5
 50
180.0
 51
0.0
  0
ARC
  5
13CF
  8
DETAIL
  6
CONTINUOUS
 62
     5
 10
-147.5209
 20
111.9999999999999
 30
0.0
 40
7.5
 50
0.0
 51
180.0
  0
LINE
  5
13D0
  8
DETAIL
  6
CONTINUOUS
 62
     5
 10
-140.0209
 20
111.9999999999999
 30
0.0
 11
-140.0209
 21
86.99999999999999
 31
0.0
  0
LINE
  5
13D1
  8
DETAIL
  6
CONTINUOUS
 62
     5
 10
-155.0209
 20
155.9999999999999
 30
0.0
 11
-155.0209
 21
130.9999999999999
 31
0.0
  0
LINE
  5
13D2
  8
DETAIL
  6
CONTINUOUS
 62
     5
 10
-140.0209
 20
155.9999999999999
 30
0.0
 11
-140.0209
 21
130.9999999999999
 31
0.0
  0
ARC
  5
13D3
  8
DETAIL
  6
CONTINUOUS
 62
     5
 10
-147.5209
 20
130.9999999999999
 30
0.0
 40
7.5
 50
180.0
 51
0.0
  0
ARC
  5
13D4
  8
DETAIL
  6
CONTINUOUS
 62
     5
 10
-147.5209
 20
155.9999999999999
 30
0.0
 40
7.5
 50
0.0
 51
180.0
  0
LINE
  5
13D5
  8
DETAIL
  6
CONTINUOUS
 62
     5
 10
-140.0209
 20
155.9999999999999
 30
0.0
 11
-140.0209
 21
130.9999999999999
 31
0.0
  0
LINE
  5
13D6
  8
DETAIL
  6
CONTINUOUS
 62
     5
 10
-140.0209
 20
199.9999999999999
 30
0.0
 11
-140.0209
 21
174.9999999999999
 31
0.0
  0
ARC
  5
13D7
  8
DETAIL
  6
CONTINUOUS
 62
     5
 10
-147.5209
 20
199.9999999999999
 30
0.0
 40
7.5
 50
0.0
 51
180.0
  0
ARC
  5
13D8
  8
DETAIL
  6
CONTINUOUS
 62
     5
 10
-147.5209
 20
174.9999999999999
 30
0.0
 40
7.5
 50
180.0
 51
0.0
  0
LINE
  5
13D9
  8
DETAIL
  6
CONTINUOUS
 62
     5
 10
-140.0209
 20
199.9999999999999
 30
0.0
 11
-140.0209
 21
174.9999999999999
 31
0.0
  0
LINE
  5
13DA
  8
DETAIL
  6
CONTINUOUS
 62
     5
 10
-155.0209
 20
199.9999999999999
 30
0.0
 11
-155.0209
 21
174.9999999999999
 31
0.0
  0
LINE
  5
13DB
  8
DETAIL
  6
CONTINUOUS
 62
     5
 10
-175.0209
 20
199.9999999999999
 30
0.0
 11
-175.0209
 21
174.9999999999999
 31
0.0
  0
LINE
  5
13DC
  8
DETAIL
  6
CONTINUOUS
 62
     5
 10
-160.0209
 20
199.9999999999999
 30
0.0
 11
-160.0209
 21
174.9999999999999
 31
0.0
  0
ARC
  5
13DD
  8
DETAIL
  6
CONTINUOUS
 62
     5
 10
-167.5209
 20
174.9999999999999
 30
0.0
 40
7.5
 50
180.0
 51
0.0
  0
ARC
  5
13DE
  8
DETAIL
  6
CONTINUOUS
 62
     5
 10
-167.5209
 20
199.9999999999999
 30
0.0
 40
7.5
 50
0.0
 51
180.0
  0
LINE
  5
13DF
  8
DETAIL
  6
CONTINUOUS
 62
     5
 10
-160.0209
 20
199.9999999999999
 30
0.0
 11
-160.0209
 21
174.9999999999999
 31
0.0
  0
LINE
  5
13E0
  8
DETAIL
  6
CONTINUOUS
 62
     5
 10
-160.0209
 20
155.9999999999999
 30
0.0
 11
-160.0209
 21
130.9999999999999
 31
0.0
  0
ARC
  5
13E1
  8
DETAIL
  6
CONTINUOUS
 62
     5
 10
-167.5209
 20
155.9999999999999
 30
0.0
 40
7.5
 50
0.0
 51
180.0
  0
ARC
  5
13E2
  8
DETAIL
  6
CONTINUOUS
 62
     5
 10
-167.5209
 20
130.9999999999999
 30
0.0
 40
7.5
 50
180.0
 51
0.0
  0
LINE
  5
13E3
  8
DETAIL
  6
CONTINUOUS
 62
     5
 10
-160.0209
 20
155.9999999999999
 30
0.0
 11
-160.0209
 21
130.9999999999999
 31
0.0
  0
LINE
  5
13E4
  8
DETAIL
  6
CONTINUOUS
 62
     5
 10
-175.0209
 20
155.9999999999999
 30
0.0
 11
-175.0209
 21
130.9999999999999
 31
0.0
  0
LINE
  5
13E5
  8
DETAIL
  6
CONTINUOUS
 62
     5
 10
-160.0209
 20
111.9999999999999
 30
0.0
 11
-160.0209
 21
86.99999999999999
 31
0.0
  0
ARC
  5
13E6
  8
DETAIL
  6
CONTINUOUS
 62
     5
 10
-167.5209
 20
111.9999999999999
 30
0.0
 40
7.5
 50
0.0
 51
180.0
  0
ARC
  5
13E7
  8
DETAIL
  6
CONTINUOUS
 62
     5
 10
-167.5209
 20
86.99999999999999
 30
0.0
 40
7.5
 50
180.0
 51
0.0
  0
LINE
  5
13E8
  8
DETAIL
  6
CONTINUOUS
 62
     5
 10
-160.0209
 20
111.9999999999999
 30
0.0
 11
-160.0209
 21
86.99999999999999
 31
0.0
  0
LINE
  5
13E9
  8
DETAIL
  6
CONTINUOUS
 62
     5
 10
-175.0209
 20
111.9999999999999
 30
0.0
 11
-175.0209
 21
86.99999999999999
 31
0.0
  0
LINE
  5
13EA
  8
DETAIL
  6
CONTINUOUS
 62
     5
 10
-115.0208999999999
 20
111.9999999999999
 30
0.0
 11
-115.0208999999999
 21
86.99999999999999
 31
0.0
  0
LINE
  5
13EB
  8
DETAIL
  6
CONTINUOUS
 62
     5
 10
-100.0208999999999
 20
111.9999999999999
 30
0.0
 11
-100.0208999999999
 21
86.99999999999999
 31
0.0
  0
ARC
  5
13EC
  8
DETAIL
  6
CONTINUOUS
 62
     5
 10
-107.5209000000001
 20
86.99999999999999
 30
0.0
 40
7.5
 50
180.0
 51
0.0
  0
ARC
  5
13ED
  8
DETAIL
  6
CONTINUOUS
 62
     5
 10
-107.5209000000001
 20
111.9999999999999
 30
0.0
 40
7.5
 50
0.0
 51
180.0
  0
LINE
  5
13EE
  8
DETAIL
  6
CONTINUOUS
 62
     5
 10
-100.0208999999999
 20
111.9999999999999
 30
0.0
 11
-100.0208999999999
 21
86.99999999999999
 31
0.0
  0
LINE
  5
13EF
  8
DETAIL
  6
CONTINUOUS
 62
     5
 10
-115.0208999999999
 20
155.9999999999999
 30
0.0
 11
-115.0208999999999
 21
130.9999999999999
 31
0.0
  0
LINE
  5
13F0
  8
DETAIL
  6
CONTINUOUS
 62
     5
 10
-100.0208999999999
 20
155.9999999999999
 30
0.0
 11
-100.0208999999999
 21
130.9999999999999
 31
0.0
  0
ARC
  5
13F1
  8
DETAIL
  6
CONTINUOUS
 62
     5
 10
-107.5209000000001
 20
130.9999999999999
 30
0.0
 40
7.5
 50
180.0
 51
0.0
  0
ARC
  5
13F2
  8
DETAIL
  6
CONTINUOUS
 62
     5
 10
-107.5209000000001
 20
155.9999999999999
 30
0.0
 40
7.5
 50
0.0
 51
180.0
  0
LINE
  5
13F3
  8
DETAIL
  6
CONTINUOUS
 62
     5
 10
-100.0208999999999
 20
155.9999999999999
 30
0.0
 11
-100.0208999999999
 21
130.9999999999999
 31
0.0
  0
LINE
  5
13F4
  8
DETAIL
  6
CONTINUOUS
 62
     5
 10
-100.0208999999999
 20
199.9999999999999
 30
0.0
 11
-100.0208999999999
 21
174.9999999999999
 31
0.0
  0
ARC
  5
13F5
  8
DETAIL
  6
CONTINUOUS
 62
     5
 10
-107.5209000000001
 20
199.9999999999999
 30
0.0
 40
7.5
 50
0.0
 51
180.0
  0
ARC
  5
13F6
  8
DETAIL
  6
CONTINUOUS
 62
     5
 10
-107.5209000000001
 20
174.9999999999999
 30
0.0
 40
7.5
 50
180.0
 51
0.0
  0
LINE
  5
13F7
  8
DETAIL
  6
CONTINUOUS
 62
     5
 10
-100.0208999999999
 20
199.9999999999999
 30
0.0
 11
-100.0208999999999
 21
174.9999999999999
 31
0.0
  0
LINE
  5
13F8
  8
DETAIL
  6
CONTINUOUS
 62
     5
 10
-115.0208999999999
 20
199.9999999999999
 30
0.0
 11
-115.0208999999999
 21
174.9999999999999
 31
0.0
  0
LINE
  5
13F9
  8
DETAIL
  6
CONTINUOUS
 62
     5
 10
-95.0209000000001
 20
199.9999999999999
 30
0.0
 11
-95.0209000000001
 21
174.9999999999999
 31
0.0
  0
LINE
  5
13FA
  8
DETAIL
  6
CONTINUOUS
 62
     5
 10
-80.02089999999998
 20
199.9999999999999
 30
0.0
 11
-80.02089999999998
 21
174.9999999999999
 31
0.0
  0
ARC
  5
13FB
  8
DETAIL
  6
CONTINUOUS
 62
     5
 10
-87.5209000000001
 20
174.9999999999999
 30
0.0
 40
7.5
 50
180.0
 51
0.0
  0
ARC
  5
13FC
  8
DETAIL
  6
CONTINUOUS
 62
     5
 10
-87.5209000000001
 20
199.9999999999999
 30
0.0
 40
7.5
 50
0.0
 51
180.0
  0
LINE
  5
13FD
  8
DETAIL
  6
CONTINUOUS
 62
     5
 10
-80.02089999999998
 20
199.9999999999999
 30
0.0
 11
-80.02089999999998
 21
174.9999999999999
 31
0.0
  0
LINE
  5
13FE
  8
DETAIL
  6
CONTINUOUS
 62
     5
 10
-80.02089999999998
 20
155.9999999999999
 30
0.0
 11
-80.02089999999998
 21
130.9999999999999
 31
0.0
  0
ARC
  5
13FF
  8
DETAIL
  6
CONTINUOUS
 62
     5
 10
-87.5209000000001
 20
155.9999999999999
 30
0.0
 40
7.5
 50
0.0
 51
180.0
  0
ARC
  5
1400
  8
DETAIL
  6
CONTINUOUS
 62
     5
 10
-87.5209000000001
 20
130.9999999999999
 30
0.0
 40
7.5
 50
180.0
 51
0.0
  0
LINE
  5
1401
  8
DETAIL
  6
CONTINUOUS
 62
     5
 10
-80.02089999999998
 20
155.9999999999999
 30
0.0
 11
-80.02089999999998
 21
130.9999999999999
 31
0.0
  0
LINE
  5
1402
  8
DETAIL
  6
CONTINUOUS
 62
     5
 10
-95.0209000000001
 20
155.9999999999999
 30
0.0
 11
-95.0209000000001
 21
130.9999999999999
 31
0.0
  0
LINE
  5
1403
  8
DETAIL
  6
CONTINUOUS
 62
     5
 10
-80.02089999999998
 20
111.9999999999999
 30
0.0
 11
-80.02089999999998
 21
86.99999999999999
 31
0.0
  0
ARC
  5
1404
  8
DETAIL
  6
CONTINUOUS
 62
     5
 10
-87.5209000000001
 20
111.9999999999999
 30
0.0
 40
7.5
 50
0.0
 51
180.0
  0
ARC
  5
1405
  8
DETAIL
  6
CONTINUOUS
 62
     5
 10
-87.5209000000001
 20
86.99999999999999
 30
0.0
 40
7.5
 50
180.0
 51
0.0
  0
LINE
  5
1406
  8
DETAIL
  6
CONTINUOUS
 62
     5
 10
-80.02089999999998
 20
111.9999999999999
 30
0.0
 11
-80.02089999999998
 21
86.99999999999999
 31
0.0
  0
LINE
  5
1407
  8
DETAIL
  6
CONTINUOUS
 62
     5
 10
-95.0209000000001
 20
111.9999999999999
 30
0.0
 11
-95.0209000000001
 21
86.99999999999999
 31
0.0
  0
LINE
  5
1408
  8
DETAIL
  6
CONTINUOUS
 62
     5
 10
-135.0209
 20
111.9999999999999
 30
0.0
 11
-135.0209
 21
86.99999999999999
 31
0.0
  0
LINE
  5
1409
  8
DETAIL
  6
CONTINUOUS
 62
     5
 10
-120.0208999999999
 20
111.9999999999999
 30
0.0
 11
-120.0208999999999
 21
86.99999999999999
 31
0.0
  0
ARC
  5
140A
  8
DETAIL
  6
CONTINUOUS
 62
     5
 10
-127.5208999999999
 20
86.99999999999999
 30
0.0
 40
7.5
 50
180.0
 51
0.0
  0
ARC
  5
140B
  8
DETAIL
  6
CONTINUOUS
 62
     5
 10
-127.5208999999999
 20
111.9999999999999
 30
0.0
 40
7.5
 50
0.0
 51
180.0
  0
LINE
  5
140C
  8
DETAIL
  6
CONTINUOUS
 62
     5
 10
-120.0208999999999
 20
111.9999999999999
 30
0.0
 11
-120.0208999999999
 21
86.99999999999999
 31
0.0
  0
LINE
  5
140D
  8
DETAIL
  6
CONTINUOUS
 62
     5
 10
-135.0209
 20
155.9999999999999
 30
0.0
 11
-135.0209
 21
130.9999999999999
 31
0.0
  0
LINE
  5
140E
  8
DETAIL
  6
CONTINUOUS
 62
     5
 10
-120.0208999999999
 20
155.9999999999999
 30
0.0
 11
-120.0208999999999
 21
130.9999999999999
 31
0.0
  0
ARC
  5
140F
  8
DETAIL
  6
CONTINUOUS
 62
     5
 10
-127.5208999999999
 20
130.9999999999999
 30
0.0
 40
7.5
 50
180.0
 51
0.0
  0
ARC
  5
1410
  8
DETAIL
  6
CONTINUOUS
 62
     5
 10
-127.5208999999999
 20
155.9999999999999
 30
0.0
 40
7.5
 50
0.0
 51
180.0
  0
LINE
  5
1411
  8
DETAIL
  6
CONTINUOUS
 62
     5
 10
-120.0208999999999
 20
155.9999999999999
 30
0.0
 11
-120.0208999999999
 21
130.9999999999999
 31
0.0
  0
LINE
  5
1412
  8
DETAIL
  6
CONTINUOUS
 62
     5
 10
-120.0208999999999
 20
199.9999999999999
 30
0.0
 11
-120.0208999999999
 21
174.9999999999999
 31
0.0
  0
ARC
  5
1413
  8
DETAIL
  6
CONTINUOUS
 62
     5
 10
-127.5208999999999
 20
199.9999999999999
 30
0.0
 40
7.5
 50
0.0
 51
180.0
  0
ARC
  5
1414
  8
DETAIL
  6
CONTINUOUS
 62
     5
 10
-127.5208999999999
 20
174.9999999999999
 30
0.0
 40
7.5
 50
180.0
 51
0.0
  0
LINE
  5
1415
  8
DETAIL
  6
CONTINUOUS
 62
     5
 10
-120.0208999999999
 20
199.9999999999999
 30
0.0
 11
-120.0208999999999
 21
174.9999999999999
 31
0.0
  0
LINE
  5
1416
  8
DETAIL
  6
CONTINUOUS
 62
     5
 10
-135.0209
 20
199.9999999999999
 30
0.0
 11
-135.0209
 21
174.9999999999999
 31
0.0
  0
LINE
  5
1417
  8
DETAIL
  6
CONTINUOUS
 62
     5
 10
-15.0000150000001
 20
199.9999999999999
 30
0.0
 11
-15.0000150000001
 21
174.9999999999999
 31
0.0
  0
LINE
  5
1418
  8
DETAIL
  6
CONTINUOUS
 62
     5
 10
-0.0000149999999906
 20
199.9999999999999
 30
0.0
 11
-0.0000149999999906
 21
174.9999999999999
 31
0.0
  0
ARC
  5
1419
  8
DETAIL
  6
CONTINUOUS
 62
     5
 10
-7.500015000000104
 20
174.9999999999999
 30
0.0
 40
7.5
 50
180.0
 51
0.0
  0
ARC
  5
141A
  8
DETAIL
  6
CONTINUOUS
 62
     5
 10
-7.500015000000104
 20
199.9999999999999
 30
0.0
 40
7.5
 50
0.0
 51
180.0
  0
LINE
  5
141B
  8
DETAIL
  6
CONTINUOUS
 62
     5
 10
-0.0000149999999906
 20
199.9999999999999
 30
0.0
 11
-0.0000149999999906
 21
174.9999999999999
 31
0.0
  0
LINE
  5
141C
  8
DETAIL
  6
CONTINUOUS
 62
     5
 10
-0.0000149999999906
 20
155.9999999999999
 30
0.0
 11
-0.0000149999999906
 21
130.9999999999999
 31
0.0
  0
ARC
  5
141D
  8
DETAIL
  6
CONTINUOUS
 62
     5
 10
-7.500015000000104
 20
155.9999999999999
 30
0.0
 40
7.5
 50
0.0
 51
180.0
  0
ARC
  5
141E
  8
DETAIL
  6
CONTINUOUS
 62
     5
 10
-7.500015000000104
 20
130.9999999999999
 30
0.0
 40
7.5
 50
180.0
 51
0.0
  0
LINE
  5
141F
  8
DETAIL
  6
CONTINUOUS
 62
     5
 10
-0.0000149999999906
 20
155.9999999999999
 30
0.0
 11
-0.0000149999999906
 21
130.9999999999999
 31
0.0
  0
LINE
  5
1420
  8
DETAIL
  6
CONTINUOUS
 62
     5
 10
-15.0000150000001
 20
155.9999999999999
 30
0.0
 11
-15.0000150000001
 21
130.9999999999999
 31
0.0
  0
LINE
  5
1421
  8
DETAIL
  6
CONTINUOUS
 62
     5
 10
-0.0000149999999906
 20
111.9999999999999
 30
0.0
 11
-0.0000149999999906
 21
86.99999999999999
 31
0.0
  0
ARC
  5
1422
  8
DETAIL
  6
CONTINUOUS
 62
     5
 10
-7.500015000000104
 20
111.9999999999999
 30
0.0
 40
7.5
 50
0.0
 51
180.0
  0
ARC
  5
1423
  8
DETAIL
  6
CONTINUOUS
 62
     5
 10
-7.500015000000104
 20
86.99999999999999
 30
0.0
 40
7.5
 50
180.0
 51
0.0
  0
LINE
  5
1424
  8
DETAIL
  6
CONTINUOUS
 62
     5
 10
-0.0000149999999906
 20
111.9999999999999
 30
0.0
 11
-0.0000149999999906
 21
86.99999999999999
 31
0.0
  0
LINE
  5
1425
  8
DETAIL
  6
CONTINUOUS
 62
     5
 10
-15.0000150000001
 20
111.9999999999999
 30
0.0
 11
-15.0000150000001
 21
86.99999999999999
 31
0.0
  0
LINE
  5
1426
  8
DETAIL
  6
CONTINUOUS
 62
     5
 10
24.99998500000001
 20
111.9999999999999
 30
0.0
 11
24.99998500000001
 21
86.99999999999999
 31
0.0
  0
LINE
  5
1427
  8
DETAIL
  6
CONTINUOUS
 62
     5
 10
39.9999849999999
 20
111.9999999999999
 30
0.0
 11
39.9999849999999
 21
86.99999999999999
 31
0.0
  0
ARC
  5
1428
  8
DETAIL
  6
CONTINUOUS
 62
     5
 10
32.49998500000001
 20
86.99999999999999
 30
0.0
 40
7.5
 50
180.0
 51
0.0
  0
ARC
  5
1429
  8
DETAIL
  6
CONTINUOUS
 62
     5
 10
32.49998500000001
 20
111.9999999999999
 30
0.0
 40
7.5
 50
0.0
 51
180.0
  0
LINE
  5
142A
  8
DETAIL
  6
CONTINUOUS
 62
     5
 10
39.9999849999999
 20
111.9999999999999
 30
0.0
 11
39.9999849999999
 21
86.99999999999999
 31
0.0
  0
LINE
  5
142B
  8
DETAIL
  6
CONTINUOUS
 62
     5
 10
24.99998500000001
 20
155.9999999999999
 30
0.0
 11
24.99998500000001
 21
130.9999999999999
 31
0.0
  0
LINE
  5
142C
  8
DETAIL
  6
CONTINUOUS
 62
     5
 10
39.9999849999999
 20
155.9999999999999
 30
0.0
 11
39.9999849999999
 21
130.9999999999999
 31
0.0
  0
ARC
  5
142D
  8
DETAIL
  6
CONTINUOUS
 62
     5
 10
32.49998500000001
 20
130.9999999999999
 30
0.0
 40
7.5
 50
180.0
 51
0.0
  0
ARC
  5
142E
  8
DETAIL
  6
CONTINUOUS
 62
     5
 10
32.49998500000001
 20
155.9999999999999
 30
0.0
 40
7.5
 50
0.0
 51
180.0
  0
LINE
  5
142F
  8
DETAIL
  6
CONTINUOUS
 62
     5
 10
39.9999849999999
 20
155.9999999999999
 30
0.0
 11
39.9999849999999
 21
130.9999999999999
 31
0.0
  0
LINE
  5
1430
  8
DETAIL
  6
CONTINUOUS
 62
     5
 10
39.9999849999999
 20
199.9999999999999
 30
0.0
 11
39.9999849999999
 21
174.9999999999999
 31
0.0
  0
ARC
  5
1431
  8
DETAIL
  6
CONTINUOUS
 62
     5
 10
32.49998500000001
 20
199.9999999999999
 30
0.0
 40
7.5
 50
0.0
 51
180.0
  0
ARC
  5
1432
  8
DETAIL
  6
CONTINUOUS
 62
     5
 10
32.49998500000001
 20
174.9999999999999
 30
0.0
 40
7.5
 50
180.0
 51
0.0
  0
LINE
  5
1433
  8
DETAIL
  6
CONTINUOUS
 62
     5
 10
39.9999849999999
 20
199.9999999999999
 30
0.0
 11
39.9999849999999
 21
174.9999999999999
 31
0.0
  0
LINE
  5
1434
  8
DETAIL
  6
CONTINUOUS
 62
     5
 10
24.99998500000001
 20
199.9999999999999
 30
0.0
 11
24.99998500000001
 21
174.9999999999999
 31
0.0
  0
LINE
  5
1435
  8
DETAIL
  6
CONTINUOUS
 62
     5
 10
4.999984999999896
 20
199.9999999999999
 30
0.0
 11
4.999984999999896
 21
174.9999999999999
 31
0.0
  0
LINE
  5
1436
  8
DETAIL
  6
CONTINUOUS
 62
     5
 10
19.99998500000001
 20
199.9999999999999
 30
0.0
 11
19.99998500000001
 21
174.9999999999999
 31
0.0
  0
ARC
  5
1437
  8
DETAIL
  6
CONTINUOUS
 62
     5
 10
12.49998500000001
 20
174.9999999999999
 30
0.0
 40
7.5
 50
180.0
 51
0.0
  0
ARC
  5
1438
  8
DETAIL
  6
CONTINUOUS
 62
     5
 10
12.49998500000001
 20
199.9999999999999
 30
0.0
 40
7.5
 50
0.0
 51
180.0
  0
LINE
  5
1439
  8
DETAIL
  6
CONTINUOUS
 62
     5
 10
19.99998500000001
 20
199.9999999999999
 30
0.0
 11
19.99998500000001
 21
174.9999999999999
 31
0.0
  0
LINE
  5
143A
  8
DETAIL
  6
CONTINUOUS
 62
     5
 10
19.99998500000001
 20
155.9999999999999
 30
0.0
 11
19.99998500000001
 21
130.9999999999999
 31
0.0
  0
ARC
  5
143B
  8
DETAIL
  6
CONTINUOUS
 62
     5
 10
12.49998500000001
 20
155.9999999999999
 30
0.0
 40
7.5
 50
0.0
 51
180.0
  0
ARC
  5
143C
  8
DETAIL
  6
CONTINUOUS
 62
     5
 10
12.49998500000001
 20
130.9999999999999
 30
0.0
 40
7.5
 50
180.0
 51
0.0
  0
LINE
  5
143D
  8
DETAIL
  6
CONTINUOUS
 62
     5
 10
19.99998500000001
 20
155.9999999999999
 30
0.0
 11
19.99998500000001
 21
130.9999999999999
 31
0.0
  0
LINE
  5
143E
  8
DETAIL
  6
CONTINUOUS
 62
     5
 10
4.999984999999896
 20
155.9999999999999
 30
0.0
 11
4.999984999999896
 21
130.9999999999999
 31
0.0
  0
LINE
  5
143F
  8
DETAIL
  6
CONTINUOUS
 62
     5
 10
19.99998500000001
 20
111.9999999999999
 30
0.0
 11
19.99998500000001
 21
86.99999999999999
 31
0.0
  0
ARC
  5
1440
  8
DETAIL
  6
CONTINUOUS
 62
     5
 10
12.49998500000001
 20
111.9999999999999
 30
0.0
 40
7.5
 50
0.0
 51
180.0
  0
ARC
  5
1441
  8
DETAIL
  6
CONTINUOUS
 62
     5
 10
12.49998500000001
 20
86.99999999999999
 30
0.0
 40
7.5
 50
180.0
 51
0.0
  0
LINE
  5
1442
  8
DETAIL
  6
CONTINUOUS
 62
     5
 10
19.99998500000001
 20
111.9999999999999
 30
0.0
 11
19.99998500000001
 21
86.99999999999999
 31
0.0
  0
LINE
  5
1443
  8
DETAIL
  6
CONTINUOUS
 62
     5
 10
4.999984999999896
 20
111.9999999999999
 30
0.0
 11
4.999984999999896
 21
86.99999999999999
 31
0.0
  0
LINE
  5
1444
  8
DETAIL
  6
CONTINUOUS
 62
     5
 10
-55.00001499999999
 20
111.9999999999999
 30
0.0
 11
-55.00001499999999
 21
86.99999999999999
 31
0.0
  0
LINE
  5
1445
  8
DETAIL
  6
CONTINUOUS
 62
     5
 10
-40.00001499999999
 20
111.9999999999999
 30
0.0
 11
-40.00001499999999
 21
86.99999999999999
 31
0.0
  0
ARC
  5
1446
  8
DETAIL
  6
CONTINUOUS
 62
     5
 10
-47.5000150000001
 20
86.99999999999999
 30
0.0
 40
7.5
 50
180.0
 51
0.0
  0
ARC
  5
1447
  8
DETAIL
  6
CONTINUOUS
 62
     5
 10
-47.5000150000001
 20
111.9999999999999
 30
0.0
 40
7.5
 50
0.0
 51
180.0
  0
LINE
  5
1448
  8
DETAIL
  6
CONTINUOUS
 62
     5
 10
-40.00001499999999
 20
111.9999999999999
 30
0.0
 11
-40.00001499999999
 21
86.99999999999999
 31
0.0
  0
LINE
  5
1449
  8
DETAIL
  6
CONTINUOUS
 62
     5
 10
-55.00001499999999
 20
155.9999999999999
 30
0.0
 11
-55.00001499999999
 21
130.9999999999999
 31
0.0
  0
LINE
  5
144A
  8
DETAIL
  6
CONTINUOUS
 62
     5
 10
-40.00001499999999
 20
155.9999999999999
 30
0.0
 11
-40.00001499999999
 21
130.9999999999999
 31
0.0
  0
ARC
  5
144B
  8
DETAIL
  6
CONTINUOUS
 62
     5
 10
-47.5000150000001
 20
130.9999999999999
 30
0.0
 40
7.5
 50
180.0
 51
0.0
  0
ARC
  5
144C
  8
DETAIL
  6
CONTINUOUS
 62
     5
 10
-47.5000150000001
 20
155.9999999999999
 30
0.0
 40
7.5
 50
0.0
 51
180.0
  0
LINE
  5
144D
  8
DETAIL
  6
CONTINUOUS
 62
     5
 10
-40.00001499999999
 20
155.9999999999999
 30
0.0
 11
-40.00001499999999
 21
130.9999999999999
 31
0.0
  0
LINE
  5
144E
  8
DETAIL
  6
CONTINUOUS
 62
     5
 10
-40.00001499999999
 20
199.9999999999999
 30
0.0
 11
-40.00001499999999
 21
174.9999999999999
 31
0.0
  0
ARC
  5
144F
  8
DETAIL
  6
CONTINUOUS
 62
     5
 10
-47.5000150000001
 20
199.9999999999999
 30
0.0
 40
7.5
 50
0.0
 51
180.0
  0
ARC
  5
1450
  8
DETAIL
  6
CONTINUOUS
 62
     5
 10
-47.5000150000001
 20
174.9999999999999
 30
0.0
 40
7.5
 50
180.0
 51
0.0
  0
LINE
  5
1451
  8
DETAIL
  6
CONTINUOUS
 62
     5
 10
-40.00001499999999
 20
199.9999999999999
 30
0.0
 11
-40.00001499999999
 21
174.9999999999999
 31
0.0
  0
LINE
  5
1452
  8
DETAIL
  6
CONTINUOUS
 62
     5
 10
-55.00001499999999
 20
199.9999999999999
 30
0.0
 11
-55.00001499999999
 21
174.9999999999999
 31
0.0
  0
LINE
  5
1453
  8
DETAIL
  6
CONTINUOUS
 62
     5
 10
-35.00001500000019
 20
199.9999999999999
 30
0.0
 11
-35.00001500000019
 21
174.9999999999999
 31
0.0
  0
LINE
  5
1454
  8
DETAIL
  6
CONTINUOUS
 62
     5
 10
-20.00001499999999
 20
199.9999999999999
 30
0.0
 11
-20.00001499999999
 21
174.9999999999999
 31
0.0
  0
ARC
  5
1455
  8
DETAIL
  6
CONTINUOUS
 62
     5
 10
-27.50001500000019
 20
174.9999999999999
 30
0.0
 40
7.5
 50
180.0
 51
0.0
  0
ARC
  5
1456
  8
DETAIL
  6
CONTINUOUS
 62
     5
 10
-27.50001500000019
 20
199.9999999999999
 30
0.0
 40
7.5
 50
0.0
 51
180.0
  0
LINE
  5
1457
  8
DETAIL
  6
CONTINUOUS
 62
     5
 10
-20.00001499999999
 20
199.9999999999999
 30
0.0
 11
-20.00001499999999
 21
174.9999999999999
 31
0.0
  0
LINE
  5
1458
  8
DETAIL
  6
CONTINUOUS
 62
     5
 10
-20.00001499999999
 20
155.9999999999999
 30
0.0
 11
-20.00001499999999
 21
130.9999999999999
 31
0.0
  0
ARC
  5
1459
  8
DETAIL
  6
CONTINUOUS
 62
     5
 10
-27.50001500000019
 20
155.9999999999999
 30
0.0
 40
7.5
 50
0.0
 51
180.0
  0
ARC
  5
145A
  8
DETAIL
  6
CONTINUOUS
 62
     5
 10
-27.50001500000019
 20
130.9999999999999
 30
0.0
 40
7.5
 50
180.0
 51
0.0
  0
LINE
  5
145B
  8
DETAIL
  6
CONTINUOUS
 62
     5
 10
-20.00001499999999
 20
155.9999999999999
 30
0.0
 11
-20.00001499999999
 21
130.9999999999999
 31
0.0
  0
LINE
  5
145C
  8
DETAIL
  6
CONTINUOUS
 62
     5
 10
-35.00001500000019
 20
155.9999999999999
 30
0.0
 11
-35.00001500000019
 21
130.9999999999999
 31
0.0
  0
LINE
  5
145D
  8
DETAIL
  6
CONTINUOUS
 62
     5
 10
-20.00001499999999
 20
111.9999999999999
 30
0.0
 11
-20.00001499999999
 21
86.99999999999999
 31
0.0
  0
ARC
  5
145E
  8
DETAIL
  6
CONTINUOUS
 62
     5
 10
-27.50001500000019
 20
111.9999999999999
 30
0.0
 40
7.5
 50
0.0
 51
180.0
  0
ARC
  5
145F
  8
DETAIL
  6
CONTINUOUS
 62
     5
 10
-27.50001500000019
 20
86.99999999999999
 30
0.0
 40
7.5
 50
180.0
 51
0.0
  0
LINE
  5
1460
  8
DETAIL
  6
CONTINUOUS
 62
     5
 10
-20.00001499999999
 20
111.9999999999999
 30
0.0
 11
-20.00001499999999
 21
86.99999999999999
 31
0.0
  0
LINE
  5
1461
  8
DETAIL
  6
CONTINUOUS
 62
     5
 10
-35.00001500000019
 20
111.9999999999999
 30
0.0
 11
-35.00001500000019
 21
86.99999999999999
 31
0.0
  0
LINE
  5
1462
  8
DETAIL
  6
CONTINUOUS
 62
     5
 10
-75.00001499999999
 20
111.9999999999999
 30
0.0
 11
-75.00001499999999
 21
86.99999999999999
 31
0.0
  0
LINE
  5
1463
  8
DETAIL
  6
CONTINUOUS
 62
     5
 10
-60.0000150000001
 20
111.9999999999999
 30
0.0
 11
-60.0000150000001
 21
86.99999999999999
 31
0.0
  0
ARC
  5
1464
  8
DETAIL
  6
CONTINUOUS
 62
     5
 10
-67.50001499999999
 20
86.99999999999999
 30
0.0
 40
7.5
 50
180.0
 51
0.0
  0
ARC
  5
1465
  8
DETAIL
  6
CONTINUOUS
 62
     5
 10
-67.50001499999999
 20
111.9999999999999
 30
0.0
 40
7.5
 50
0.0
 51
180.0
  0
LINE
  5
1466
  8
DETAIL
  6
CONTINUOUS
 62
     5
 10
-60.0000150000001
 20
111.9999999999999
 30
0.0
 11
-60.0000150000001
 21
86.99999999999999
 31
0.0
  0
LINE
  5
1467
  8
DETAIL
  6
CONTINUOUS
 62
     5
 10
-75.00001499999999
 20
155.9999999999999
 30
0.0
 11
-75.00001499999999
 21
130.9999999999999
 31
0.0
  0
LINE
  5
1468
  8
DETAIL
  6
CONTINUOUS
 62
     5
 10
-60.0000150000001
 20
155.9999999999999
 30
0.0
 11
-60.0000150000001
 21
130.9999999999999
 31
0.0
  0
ARC
  5
1469
  8
DETAIL
  6
CONTINUOUS
 62
     5
 10
-67.50001499999999
 20
130.9999999999999
 30
0.0
 40
7.5
 50
180.0
 51
0.0
  0
ARC
  5
146A
  8
DETAIL
  6
CONTINUOUS
 62
     5
 10
-67.50001499999999
 20
155.9999999999999
 30
0.0
 40
7.5
 50
0.0
 51
180.0
  0
LINE
  5
146B
  8
DETAIL
  6
CONTINUOUS
 62
     5
 10
-60.0000150000001
 20
155.9999999999999
 30
0.0
 11
-60.0000150000001
 21
130.9999999999999
 31
0.0
  0
LINE
  5
146C
  8
DETAIL
  6
CONTINUOUS
 62
     5
 10
-60.0000150000001
 20
199.9999999999999
 30
0.0
 11
-60.0000150000001
 21
174.9999999999999
 31
0.0
  0
ARC
  5
146D
  8
DETAIL
  6
CONTINUOUS
 62
     5
 10
-67.50001499999999
 20
199.9999999999999
 30
0.0
 40
7.5
 50
0.0
 51
180.0
  0
ARC
  5
146E
  8
DETAIL
  6
CONTINUOUS
 62
     5
 10
-67.50001499999999
 20
174.9999999999999
 30
0.0
 40
7.5
 50
180.0
 51
0.0
  0
LINE
  5
146F
  8
DETAIL
  6
CONTINUOUS
 62
     5
 10
-60.0000150000001
 20
199.9999999999999
 30
0.0
 11
-60.0000150000001
 21
174.9999999999999
 31
0.0
  0
LINE
  5
1470
  8
DETAIL
  6
CONTINUOUS
 62
     5
 10
-75.00001499999999
 20
199.9999999999999
 30
0.0
 11
-75.00001499999999
 21
174.9999999999999
 31
0.0
  0
LINE
  5
1471
  8
DETAIL
  6
CONTINUOUS
 62
     5
 10
100.0208699999999
 20
199.9999999999999
 30
0.0
 11
100.0208699999999
 21
174.9999999999999
 31
0.0
  0
LINE
  5
1472
  8
DETAIL
  6
CONTINUOUS
 62
     5
 10
115.0208699999999
 20
199.9999999999999
 30
0.0
 11
115.0208699999999
 21
174.9999999999999
 31
0.0
  0
ARC
  5
1473
  8
DETAIL
  6
CONTINUOUS
 62
     5
 10
107.52087
 20
174.9999999999999
 30
0.0
 40
7.5
 50
180.0
 51
0.0
  0
ARC
  5
1474
  8
DETAIL
  6
CONTINUOUS
 62
     5
 10
107.52087
 20
199.9999999999999
 30
0.0
 40
7.5
 50
0.0
 51
180.0
  0
LINE
  5
1475
  8
DETAIL
  6
CONTINUOUS
 62
     5
 10
115.0208699999999
 20
199.9999999999999
 30
0.0
 11
115.0208699999999
 21
174.9999999999999
 31
0.0
  0
LINE
  5
1476
  8
DETAIL
  6
CONTINUOUS
 62
     5
 10
115.0208699999999
 20
155.9999999999999
 30
0.0
 11
115.0208699999999
 21
130.9999999999999
 31
0.0
  0
ARC
  5
1477
  8
DETAIL
  6
CONTINUOUS
 62
     5
 10
107.52087
 20
155.9999999999999
 30
0.0
 40
7.5
 50
0.0
 51
180.0
  0
ARC
  5
1478
  8
DETAIL
  6
CONTINUOUS
 62
     5
 10
107.52087
 20
130.9999999999999
 30
0.0
 40
7.5
 50
180.0
 51
0.0
  0
LINE
  5
1479
  8
DETAIL
  6
CONTINUOUS
 62
     5
 10
115.0208699999999
 20
155.9999999999999
 30
0.0
 11
115.0208699999999
 21
130.9999999999999
 31
0.0
  0
LINE
  5
147A
  8
DETAIL
  6
CONTINUOUS
 62
     5
 10
100.0208699999999
 20
155.9999999999999
 30
0.0
 11
100.0208699999999
 21
130.9999999999999
 31
0.0
  0
LINE
  5
147B
  8
DETAIL
  6
CONTINUOUS
 62
     5
 10
115.0208699999999
 20
111.9999999999999
 30
0.0
 11
115.0208699999999
 21
86.99999999999999
 31
0.0
  0
ARC
  5
147C
  8
DETAIL
  6
CONTINUOUS
 62
     5
 10
107.52087
 20
111.9999999999999
 30
0.0
 40
7.5
 50
0.0
 51
180.0
  0
ARC
  5
147D
  8
DETAIL
  6
CONTINUOUS
 62
     5
 10
107.52087
 20
86.99999999999999
 30
0.0
 40
7.5
 50
180.0
 51
0.0
  0
LINE
  5
147E
  8
DETAIL
  6
CONTINUOUS
 62
     5
 10
115.0208699999999
 20
111.9999999999999
 30
0.0
 11
115.0208699999999
 21
86.99999999999999
 31
0.0
  0
LINE
  5
147F
  8
DETAIL
  6
CONTINUOUS
 62
     5
 10
100.0208699999999
 20
111.9999999999999
 30
0.0
 11
100.0208699999999
 21
86.99999999999999
 31
0.0
  0
LINE
  5
1480
  8
DETAIL
  6
CONTINUOUS
 62
     5
 10
140.0208699999999
 20
111.9999999999999
 30
0.0
 11
140.0208699999999
 21
86.99999999999999
 31
0.0
  0
LINE
  5
1481
  8
DETAIL
  6
CONTINUOUS
 62
     5
 10
155.0208699999996
 20
111.9999999999999
 30
0.0
 11
155.0208699999996
 21
86.99999999999999
 31
0.0
  0
ARC
  5
1482
  8
DETAIL
  6
CONTINUOUS
 62
     5
 10
147.52087
 20
86.99999999999999
 30
0.0
 40
7.5
 50
180.0
 51
0.0
  0
ARC
  5
1483
  8
DETAIL
  6
CONTINUOUS
 62
     5
 10
147.52087
 20
111.9999999999999
 30
0.0
 40
7.5
 50
0.0
 51
180.0
  0
LINE
  5
1484
  8
DETAIL
  6
CONTINUOUS
 62
     5
 10
155.0208699999996
 20
111.9999999999999
 30
0.0
 11
155.0208699999996
 21
86.99999999999999
 31
0.0
  0
LINE
  5
1485
  8
DETAIL
  6
CONTINUOUS
 62
     5
 10
140.0208699999999
 20
155.9999999999999
 30
0.0
 11
140.0208699999999
 21
130.9999999999999
 31
0.0
  0
LINE
  5
1486
  8
DETAIL
  6
CONTINUOUS
 62
     5
 10
155.0208699999996
 20
155.9999999999999
 30
0.0
 11
155.0208699999996
 21
130.9999999999999
 31
0.0
  0
ARC
  5
1487
  8
DETAIL
  6
CONTINUOUS
 62
     5
 10
147.52087
 20
130.9999999999999
 30
0.0
 40
7.5
 50
180.0
 51
0.0
  0
ARC
  5
1488
  8
DETAIL
  6
CONTINUOUS
 62
     5
 10
147.52087
 20
155.9999999999999
 30
0.0
 40
7.5
 50
0.0
 51
180.0
  0
LINE
  5
1489
  8
DETAIL
  6
CONTINUOUS
 62
     5
 10
155.0208699999996
 20
155.9999999999999
 30
0.0
 11
155.0208699999996
 21
130.9999999999999
 31
0.0
  0
LINE
  5
148A
  8
DETAIL
  6
CONTINUOUS
 62
     5
 10
155.0208699999996
 20
199.9999999999999
 30
0.0
 11
155.0208699999996
 21
174.9999999999999
 31
0.0
  0
ARC
  5
148B
  8
DETAIL
  6
CONTINUOUS
 62
     5
 10
147.52087
 20
199.9999999999999
 30
0.0
 40
7.5
 50
0.0
 51
180.0
  0
ARC
  5
148C
  8
DETAIL
  6
CONTINUOUS
 62
     5
 10
147.52087
 20
174.9999999999999
 30
0.0
 40
7.5
 50
180.0
 51
0.0
  0
LINE
  5
148D
  8
DETAIL
  6
CONTINUOUS
 62
     5
 10
155.0208699999996
 20
199.9999999999999
 30
0.0
 11
155.0208699999996
 21
174.9999999999999
 31
0.0
  0
LINE
  5
148E
  8
DETAIL
  6
CONTINUOUS
 62
     5
 10
140.0208699999999
 20
199.9999999999999
 30
0.0
 11
140.0208699999999
 21
174.9999999999999
 31
0.0
  0
LINE
  5
148F
  8
DETAIL
  6
CONTINUOUS
 62
     5
 10
120.02087
 20
199.9999999999999
 30
0.0
 11
120.02087
 21
174.9999999999999
 31
0.0
  0
LINE
  5
1490
  8
DETAIL
  6
CONTINUOUS
 62
     5
 10
135.02087
 20
199.9999999999999
 30
0.0
 11
135.02087
 21
174.9999999999999
 31
0.0
  0
ARC
  5
1491
  8
DETAIL
  6
CONTINUOUS
 62
     5
 10
127.5208699999999
 20
174.9999999999999
 30
0.0
 40
7.5
 50
180.0
 51
0.0
  0
ARC
  5
1492
  8
DETAIL
  6
CONTINUOUS
 62
     5
 10
127.5208699999999
 20
199.9999999999999
 30
0.0
 40
7.5
 50
0.0
 51
180.0
  0
LINE
  5
1493
  8
DETAIL
  6
CONTINUOUS
 62
     5
 10
135.02087
 20
199.9999999999999
 30
0.0
 11
135.02087
 21
174.9999999999999
 31
0.0
  0
LINE
  5
1494
  8
DETAIL
  6
CONTINUOUS
 62
     5
 10
135.02087
 20
155.9999999999999
 30
0.0
 11
135.02087
 21
130.9999999999999
 31
0.0
  0
ARC
  5
1495
  8
DETAIL
  6
CONTINUOUS
 62
     5
 10
127.5208699999999
 20
155.9999999999999
 30
0.0
 40
7.5
 50
0.0
 51
180.0
  0
ARC
  5
1496
  8
DETAIL
  6
CONTINUOUS
 62
     5
 10
127.5208699999999
 20
130.9999999999999
 30
0.0
 40
7.5
 50
180.0
 51
0.0
  0
LINE
  5
1497
  8
DETAIL
  6
CONTINUOUS
 62
     5
 10
135.02087
 20
155.9999999999999
 30
0.0
 11
135.02087
 21
130.9999999999999
 31
0.0
  0
LINE
  5
1498
  8
DETAIL
  6
CONTINUOUS
 62
     5
 10
120.02087
 20
155.9999999999999
 30
0.0
 11
120.02087
 21
130.9999999999999
 31
0.0
  0
LINE
  5
1499
  8
DETAIL
  6
CONTINUOUS
 62
     5
 10
135.02087
 20
111.9999999999999
 30
0.0
 11
135.02087
 21
86.99999999999999
 31
0.0
  0
ARC
  5
149A
  8
DETAIL
  6
CONTINUOUS
 62
     5
 10
127.5208699999999
 20
111.9999999999999
 30
0.0
 40
7.5
 50
0.0
 51
180.0
  0
ARC
  5
149B
  8
DETAIL
  6
CONTINUOUS
 62
     5
 10
127.5208699999999
 20
86.99999999999999
 30
0.0
 40
7.5
 50
180.0
 51
0.0
  0
LINE
  5
149C
  8
DETAIL
  6
CONTINUOUS
 62
     5
 10
135.02087
 20
111.9999999999999
 30
0.0
 11
135.02087
 21
86.99999999999999
 31
0.0
  0
LINE
  5
149D
  8
DETAIL
  6
CONTINUOUS
 62
     5
 10
120.02087
 20
111.9999999999999
 30
0.0
 11
120.02087
 21
86.99999999999999
 31
0.0
  0
LINE
  5
149E
  8
DETAIL
  6
CONTINUOUS
 62
     5
 10
180.0208699999996
 20
111.9999999999999
 30
0.0
 11
180.0208699999996
 21
86.99999999999999
 31
0.0
  0
LINE
  5
149F
  8
DETAIL
  6
CONTINUOUS
 62
     5
 10
195.02087
 20
111.9999999999999
 30
0.0
 11
195.02087
 21
86.99999999999999
 31
0.0
  0
ARC
  5
14A0
  8
DETAIL
  6
CONTINUOUS
 62
     5
 10
187.5208699999996
 20
86.99999999999999
 30
0.0
 40
7.5
 50
180.0
 51
0.0
  0
ARC
  5
14A1
  8
DETAIL
  6
CONTINUOUS
 62
     5
 10
187.5208699999996
 20
111.9999999999999
 30
0.0
 40
7.5
 50
0.0
 51
180.0
  0
LINE
  5
14A2
  8
DETAIL
  6
CONTINUOUS
 62
     5
 10
195.02087
 20
111.9999999999999
 30
0.0
 11
195.02087
 21
86.99999999999999
 31
0.0
  0
LINE
  5
14A3
  8
DETAIL
  6
CONTINUOUS
 62
     5
 10
180.0208699999996
 20
155.9999999999999
 30
0.0
 11
180.0208699999996
 21
130.9999999999999
 31
0.0
  0
LINE
  5
14A4
  8
DETAIL
  6
CONTINUOUS
 62
     5
 10
195.02087
 20
155.9999999999999
 30
0.0
 11
195.02087
 21
130.9999999999999
 31
0.0
  0
ARC
  5
14A5
  8
DETAIL
  6
CONTINUOUS
 62
     5
 10
187.5208699999996
 20
130.9999999999999
 30
0.0
 40
7.5
 50
180.0
 51
0.0
  0
ARC
  5
14A6
  8
DETAIL
  6
CONTINUOUS
 62
     5
 10
187.5208699999996
 20
155.9999999999999
 30
0.0
 40
7.5
 50
0.0
 51
180.0
  0
LINE
  5
14A7
  8
DETAIL
  6
CONTINUOUS
 62
     5
 10
195.02087
 20
155.9999999999999
 30
0.0
 11
195.02087
 21
130.9999999999999
 31
0.0
  0
LINE
  5
14A8
  8
DETAIL
  6
CONTINUOUS
 62
     5
 10
195.02087
 20
199.9999999999999
 30
0.0
 11
195.02087
 21
174.9999999999999
 31
0.0
  0
ARC
  5
14A9
  8
DETAIL
  6
CONTINUOUS
 62
     5
 10
187.5208699999996
 20
199.9999999999999
 30
0.0
 40
7.5
 50
0.0
 51
180.0
  0
ARC
  5
14AA
  8
DETAIL
  6
CONTINUOUS
 62
     5
 10
187.5208699999996
 20
174.9999999999999
 30
0.0
 40
7.5
 50
180.0
 51
0.0
  0
LINE
  5
14AB
  8
DETAIL
  6
CONTINUOUS
 62
     5
 10
195.02087
 20
199.9999999999999
 30
0.0
 11
195.02087
 21
174.9999999999999
 31
0.0
  0
LINE
  5
14AC
  8
DETAIL
  6
CONTINUOUS
 62
     5
 10
180.0208699999996
 20
199.9999999999999
 30
0.0
 11
180.0208699999996
 21
174.9999999999999
 31
0.0
  0
LINE
  5
14AD
  8
DETAIL
  6
CONTINUOUS
 62
     5
 10
200.02087
 20
199.9999999999999
 30
0.0
 11
200.02087
 21
174.9999999999999
 31
0.0
  0
LINE
  5
14AE
  8
DETAIL
  6
CONTINUOUS
 62
     5
 10
215.02087
 20
199.9999999999999
 30
0.0
 11
215.02087
 21
174.9999999999999
 31
0.0
  0
ARC
  5
14AF
  8
DETAIL
  6
CONTINUOUS
 62
     5
 10
207.52087
 20
174.9999999999999
 30
0.0
 40
7.5
 50
180.0
 51
0.0
  0
ARC
  5
14B0
  8
DETAIL
  6
CONTINUOUS
 62
     5
 10
207.52087
 20
199.9999999999999
 30
0.0
 40
7.5
 50
0.0
 51
180.0
  0
LINE
  5
14B1
  8
DETAIL
  6
CONTINUOUS
 62
     5
 10
215.02087
 20
199.9999999999999
 30
0.0
 11
215.02087
 21
174.9999999999999
 31
0.0
  0
LINE
  5
14B2
  8
DETAIL
  6
CONTINUOUS
 62
     5
 10
215.02087
 20
155.9999999999999
 30
0.0
 11
215.02087
 21
130.9999999999999
 31
0.0
  0
ARC
  5
14B3
  8
DETAIL
  6
CONTINUOUS
 62
     5
 10
207.52087
 20
155.9999999999999
 30
0.0
 40
7.5
 50
0.0
 51
180.0
  0
ARC
  5
14B4
  8
DETAIL
  6
CONTINUOUS
 62
     5
 10
207.52087
 20
130.9999999999999
 30
0.0
 40
7.5
 50
180.0
 51
0.0
  0
LINE
  5
14B5
  8
DETAIL
  6
CONTINUOUS
 62
     5
 10
215.02087
 20
155.9999999999999
 30
0.0
 11
215.02087
 21
130.9999999999999
 31
0.0
  0
LINE
  5
14B6
  8
DETAIL
  6
CONTINUOUS
 62
     5
 10
200.02087
 20
155.9999999999999
 30
0.0
 11
200.02087
 21
130.9999999999999
 31
0.0
  0
LINE
  5
14B7
  8
DETAIL
  6
CONTINUOUS
 62
     5
 10
215.02087
 20
111.9999999999999
 30
0.0
 11
215.02087
 21
86.99999999999999
 31
0.0
  0
ARC
  5
14B8
  8
DETAIL
  6
CONTINUOUS
 62
     5
 10
207.52087
 20
111.9999999999999
 30
0.0
 40
7.5
 50
0.0
 51
180.0
  0
ARC
  5
14B9
  8
DETAIL
  6
CONTINUOUS
 62
     5
 10
207.52087
 20
86.99999999999999
 30
0.0
 40
7.5
 50
180.0
 51
0.0
  0
LINE
  5
14BA
  8
DETAIL
  6
CONTINUOUS
 62
     5
 10
215.02087
 20
111.9999999999999
 30
0.0
 11
215.02087
 21
86.99999999999999
 31
0.0
  0
LINE
  5
14BB
  8
DETAIL
  6
CONTINUOUS
 62
     5
 10
200.02087
 20
111.9999999999999
 30
0.0
 11
200.02087
 21
86.99999999999999
 31
0.0
  0
LINE
  5
14BC
  8
DETAIL
  6
CONTINUOUS
 62
     5
 10
160.02087
 20
111.9999999999999
 30
0.0
 11
160.02087
 21
86.99999999999999
 31
0.0
  0
LINE
  5
14BD
  8
DETAIL
  6
CONTINUOUS
 62
     5
 10
175.0208699999996
 20
111.9999999999999
 30
0.0
 11
175.0208699999996
 21
86.99999999999999
 31
0.0
  0
ARC
  5
14BE
  8
DETAIL
  6
CONTINUOUS
 62
     5
 10
167.5208699999996
 20
86.99999999999999
 30
0.0
 40
7.5
 50
180.0
 51
0.0
  0
ARC
  5
14BF
  8
DETAIL
  6
CONTINUOUS
 62
     5
 10
167.5208699999996
 20
111.9999999999999
 30
0.0
 40
7.5
 50
0.0
 51
180.0
  0
LINE
  5
14C0
  8
DETAIL
  6
CONTINUOUS
 62
     5
 10
175.0208699999996
 20
111.9999999999999
 30
0.0
 11
175.0208699999996
 21
86.99999999999999
 31
0.0
  0
LINE
  5
14C1
  8
DETAIL
  6
CONTINUOUS
 62
     5
 10
160.02087
 20
155.9999999999999
 30
0.0
 11
160.02087
 21
130.9999999999999
 31
0.0
  0
LINE
  5
14C2
  8
DETAIL
  6
CONTINUOUS
 62
     5
 10
175.0208699999996
 20
155.9999999999999
 30
0.0
 11
175.0208699999996
 21
130.9999999999999
 31
0.0
  0
ARC
  5
14C3
  8
DETAIL
  6
CONTINUOUS
 62
     5
 10
167.5208699999996
 20
130.9999999999999
 30
0.0
 40
7.5
 50
180.0
 51
0.0
  0
ARC
  5
14C4
  8
DETAIL
  6
CONTINUOUS
 62
     5
 10
167.5208699999996
 20
155.9999999999999
 30
0.0
 40
7.5
 50
0.0
 51
180.0
  0
LINE
  5
14C5
  8
DETAIL
  6
CONTINUOUS
 62
     5
 10
175.0208699999996
 20
155.9999999999999
 30
0.0
 11
175.0208699999996
 21
130.9999999999999
 31
0.0
  0
LINE
  5
14C6
  8
DETAIL
  6
CONTINUOUS
 62
     5
 10
175.0208699999996
 20
199.9999999999999
 30
0.0
 11
175.0208699999996
 21
174.9999999999999
 31
0.0
  0
ARC
  5
14C7
  8
DETAIL
  6
CONTINUOUS
 62
     5
 10
167.5208699999996
 20
199.9999999999999
 30
0.0
 40
7.5
 50
0.0
 51
180.0
  0
ARC
  5
14C8
  8
DETAIL
  6
CONTINUOUS
 62
     5
 10
167.5208699999996
 20
174.9999999999999
 30
0.0
 40
7.5
 50
180.0
 51
0.0
  0
LINE
  5
14C9
  8
DETAIL
  6
CONTINUOUS
 62
     5
 10
175.0208699999996
 20
199.9999999999999
 30
0.0
 11
175.0208699999996
 21
174.9999999999999
 31
0.0
  0
LINE
  5
14CA
  8
DETAIL
  6
CONTINUOUS
 62
     5
 10
160.02087
 20
199.9999999999999
 30
0.0
 11
160.02087
 21
174.9999999999999
 31
0.0
  0
LINE
  5
14CB
  8
DETAIL
  6
CONTINUOUS
 62
     5
 10
39.9999849999999
 20
199.9999999999999
 30
0.0
 11
39.9999849999999
 21
174.9999999999999
 31
0.0
  0
LINE
  5
14CC
  8
DETAIL
  6
CONTINUOUS
 62
     5
 10
54.99998499999992
 20
199.9999999999999
 30
0.0
 11
54.99998499999992
 21
174.9999999999999
 31
0.0
  0
ARC
  5
14CD
  8
DETAIL
  6
CONTINUOUS
 62
     5
 10
47.49998499999981
 20
174.9999999999999
 30
0.0
 40
7.5
 50
180.0
 51
0.0
  0
ARC
  5
14CE
  8
DETAIL
  6
CONTINUOUS
 62
     5
 10
47.49998499999981
 20
199.9999999999999
 30
0.0
 40
7.5
 50
0.0
 51
180.0
  0
LINE
  5
14CF
  8
DETAIL
  6
CONTINUOUS
 62
     5
 10
54.99998499999992
 20
199.9999999999999
 30
0.0
 11
54.99998499999992
 21
174.9999999999999
 31
0.0
  0
LINE
  5
14D0
  8
DETAIL
  6
CONTINUOUS
 62
     5
 10
54.99998499999992
 20
155.9999999999999
 30
0.0
 11
54.99998499999992
 21
130.9999999999999
 31
0.0
  0
ARC
  5
14D1
  8
DETAIL
  6
CONTINUOUS
 62
     5
 10
47.49998499999981
 20
155.9999999999999
 30
0.0
 40
7.5
 50
0.0
 51
180.0
  0
ARC
  5
14D2
  8
DETAIL
  6
CONTINUOUS
 62
     5
 10
47.49998499999981
 20
130.9999999999999
 30
0.0
 40
7.5
 50
180.0
 51
0.0
  0
LINE
  5
14D3
  8
DETAIL
  6
CONTINUOUS
 62
     5
 10
54.99998499999992
 20
155.9999999999999
 30
0.0
 11
54.99998499999992
 21
130.9999999999999
 31
0.0
  0
LINE
  5
14D4
  8
DETAIL
  6
CONTINUOUS
 62
     5
 10
39.9999849999999
 20
155.9999999999999
 30
0.0
 11
39.9999849999999
 21
130.9999999999999
 31
0.0
  0
LINE
  5
14D5
  8
DETAIL
  6
CONTINUOUS
 62
     5
 10
54.99998499999992
 20
111.9999999999999
 30
0.0
 11
54.99998499999992
 21
86.99999999999999
 31
0.0
  0
ARC
  5
14D6
  8
DETAIL
  6
CONTINUOUS
 62
     5
 10
47.49998499999981
 20
111.9999999999999
 30
0.0
 40
7.5
 50
0.0
 51
180.0
  0
ARC
  5
14D7
  8
DETAIL
  6
CONTINUOUS
 62
     5
 10
47.49998499999981
 20
86.99999999999999
 30
0.0
 40
7.5
 50
180.0
 51
0.0
  0
LINE
  5
14D8
  8
DETAIL
  6
CONTINUOUS
 62
     5
 10
54.99998499999992
 20
111.9999999999999
 30
0.0
 11
54.99998499999992
 21
86.99999999999999
 31
0.0
  0
LINE
  5
14D9
  8
DETAIL
  6
CONTINUOUS
 62
     5
 10
39.9999849999999
 20
111.9999999999999
 30
0.0
 11
39.9999849999999
 21
86.99999999999999
 31
0.0
  0
LINE
  5
14DA
  8
DETAIL
  6
CONTINUOUS
 62
     5
 10
79.99998499999992
 20
111.9999999999999
 30
0.0
 11
79.99998499999992
 21
86.99999999999999
 31
0.0
  0
LINE
  5
14DB
  8
DETAIL
  6
CONTINUOUS
 62
     5
 10
94.99998499999992
 20
111.9999999999999
 30
0.0
 11
94.99998499999992
 21
86.99999999999999
 31
0.0
  0
ARC
  5
14DC
  8
DETAIL
  6
CONTINUOUS
 62
     5
 10
87.49998499999992
 20
86.99999999999999
 30
0.0
 40
7.5
 50
180.0
 51
0.0
  0
ARC
  5
14DD
  8
DETAIL
  6
CONTINUOUS
 62
     5
 10
87.49998499999992
 20
111.9999999999999
 30
0.0
 40
7.5
 50
0.0
 51
180.0
  0
LINE
  5
14DE
  8
DETAIL
  6
CONTINUOUS
 62
     5
 10
94.99998499999992
 20
111.9999999999999
 30
0.0
 11
94.99998499999992
 21
86.99999999999999
 31
0.0
  0
LINE
  5
14DF
  8
DETAIL
  6
CONTINUOUS
 62
     5
 10
79.99998499999992
 20
155.9999999999999
 30
0.0
 11
79.99998499999992
 21
130.9999999999999
 31
0.0
  0
LINE
  5
14E0
  8
DETAIL
  6
CONTINUOUS
 62
     5
 10
94.99998499999992
 20
155.9999999999999
 30
0.0
 11
94.99998499999992
 21
130.9999999999999
 31
0.0
  0
ARC
  5
14E1
  8
DETAIL
  6
CONTINUOUS
 62
     5
 10
87.49998499999992
 20
130.9999999999999
 30
0.0
 40
7.5
 50
180.0
 51
0.0
  0
ARC
  5
14E2
  8
DETAIL
  6
CONTINUOUS
 62
     5
 10
87.49998499999992
 20
155.9999999999999
 30
0.0
 40
7.5
 50
0.0
 51
180.0
  0
LINE
  5
14E3
  8
DETAIL
  6
CONTINUOUS
 62
     5
 10
94.99998499999992
 20
155.9999999999999
 30
0.0
 11
94.99998499999992
 21
130.9999999999999
 31
0.0
  0
LINE
  5
14E4
  8
DETAIL
  6
CONTINUOUS
 62
     5
 10
94.99998499999992
 20
199.9999999999999
 30
0.0
 11
94.99998499999992
 21
174.9999999999999
 31
0.0
  0
ARC
  5
14E5
  8
DETAIL
  6
CONTINUOUS
 62
     5
 10
87.49998499999992
 20
199.9999999999999
 30
0.0
 40
7.5
 50
0.0
 51
180.0
  0
ARC
  5
14E6
  8
DETAIL
  6
CONTINUOUS
 62
     5
 10
87.49998499999992
 20
174.9999999999999
 30
0.0
 40
7.5
 50
180.0
 51
0.0
  0
LINE
  5
14E7
  8
DETAIL
  6
CONTINUOUS
 62
     5
 10
94.99998499999992
 20
199.9999999999999
 30
0.0
 11
94.99998499999992
 21
174.9999999999999
 31
0.0
  0
LINE
  5
14E8
  8
DETAIL
  6
CONTINUOUS
 62
     5
 10
79.99998499999992
 20
199.9999999999999
 30
0.0
 11
79.99998499999992
 21
174.9999999999999
 31
0.0
  0
LINE
  5
14E9
  8
DETAIL
  6
CONTINUOUS
 62
     5
 10
59.99998499999992
 20
199.9999999999999
 30
0.0
 11
59.99998499999992
 21
174.9999999999999
 31
0.0
  0
LINE
  5
14EA
  8
DETAIL
  6
CONTINUOUS
 62
     5
 10
74.99998499999992
 20
199.9999999999999
 30
0.0
 11
74.99998499999992
 21
174.9999999999999
 31
0.0
  0
ARC
  5
14EB
  8
DETAIL
  6
CONTINUOUS
 62
     5
 10
67.49998499999992
 20
174.9999999999999
 30
0.0
 40
7.5
 50
180.0
 51
0.0
  0
ARC
  5
14EC
  8
DETAIL
  6
CONTINUOUS
 62
     5
 10
67.49998499999992
 20
199.9999999999999
 30
0.0
 40
7.5
 50
0.0
 51
180.0
  0
LINE
  5
14ED
  8
DETAIL
  6
CONTINUOUS
 62
     5
 10
74.99998499999992
 20
199.9999999999999
 30
0.0
 11
74.99998499999992
 21
174.9999999999999
 31
0.0
  0
LINE
  5
14EE
  8
DETAIL
  6
CONTINUOUS
 62
     5
 10
74.99998499999992
 20
155.9999999999999
 30
0.0
 11
74.99998499999992
 21
130.9999999999999
 31
0.0
  0
ARC
  5
14EF
  8
DETAIL
  6
CONTINUOUS
 62
     5
 10
67.49998499999992
 20
155.9999999999999
 30
0.0
 40
7.5
 50
0.0
 51
180.0
  0
ARC
  5
14F0
  8
DETAIL
  6
CONTINUOUS
 62
     5
 10
67.49998499999992
 20
130.9999999999999
 30
0.0
 40
7.5
 50
180.0
 51
0.0
  0
LINE
  5
14F1
  8
DETAIL
  6
CONTINUOUS
 62
     5
 10
74.99998499999992
 20
155.9999999999999
 30
0.0
 11
74.99998499999992
 21
130.9999999999999
 31
0.0
  0
LINE
  5
14F2
  8
DETAIL
  6
CONTINUOUS
 62
     5
 10
59.99998499999992
 20
155.9999999999999
 30
0.0
 11
59.99998499999992
 21
130.9999999999999
 31
0.0
  0
LINE
  5
14F3
  8
DETAIL
  6
CONTINUOUS
 62
     5
 10
74.99998499999992
 20
111.9999999999999
 30
0.0
 11
74.99998499999992
 21
86.99999999999999
 31
0.0
  0
ARC
  5
14F4
  8
DETAIL
  6
CONTINUOUS
 62
     5
 10
67.49998499999992
 20
111.9999999999999
 30
0.0
 40
7.5
 50
0.0
 51
180.0
  0
ARC
  5
14F5
  8
DETAIL
  6
CONTINUOUS
 62
     5
 10
67.49998499999992
 20
86.99999999999999
 30
0.0
 40
7.5
 50
180.0
 51
0.0
  0
LINE
  5
14F6
  8
DETAIL
  6
CONTINUOUS
 62
     5
 10
74.99998499999992
 20
111.9999999999999
 30
0.0
 11
74.99998499999992
 21
86.99999999999999
 31
0.0
  0
LINE
  5
14F7
  8
DETAIL
  6
CONTINUOUS
 62
     5
 10
59.99998499999992
 20
111.9999999999999
 30
0.0
 11
59.99998499999992
 21
86.99999999999999
 31
0.0
  0
LINE
  5
14F8
  8
DETAIL
  6
CONTINUOUS
 62
     5
 10
-215.0209
 20
199.9999999999999
 30
0.0
 11
-215.0209
 21
174.9999999999999
 31
0.0
  0
LINE
  5
14F9
  8
DETAIL
  6
CONTINUOUS
 62
     5
 10
-215.0209
 20
155.9999999999999
 30
0.0
 11
-215.0209
 21
130.9999999999999
 31
0.0
  0
LINE
  5
14FA
  8
DETAIL
  6
CONTINUOUS
 62
     5
 10
-215.0209
 20
111.9999999999999
 30
0.0
 11
-215.0209
 21
86.99999999999999
 31
0.0
  0
LINE
  5
14FB
  8
DETAIL
  6
CONTINUOUS
 62
     5
 10
-215.0209
 20
-30.99999999999999
 30
0.0
 11
-215.0209
 21
-56.0
 31
0.0
  0
LINE
  5
14FC
  8
DETAIL
  6
CONTINUOUS
 62
     5
 10
-215.0209
 20
13.0
 30
0.0
 11
-215.0209
 21
-11.99999999999998
 31
0.0
  0
LINE
  5
14FD
  8
DETAIL
  6
CONTINUOUS
 62
     5
 10
-215.0209
 20
57.0
 30
0.0
 11
-215.0209
 21
31.99999999999999
 31
0.0
  0
LINE
  5
14FE
  8
DETAIL
  6
CONTINUOUS
 62
     5
 10
59.99998499999992
 20
-30.99999999999999
 30
0.0
 11
59.99998499999992
 21
-56.0
 31
0.0
  0
LINE
  5
14FF
  8
DETAIL
  6
CONTINUOUS
 62
     5
 10
74.99998499999992
 20
-30.99999999999999
 30
0.0
 11
74.99998499999992
 21
-56.0
 31
0.0
  0
ARC
  5
1500
  8
DETAIL
  6
CONTINUOUS
 62
     5
 10
67.49998499999992
 20
-56.0
 30
0.0
 40
7.5
 50
180.0
 51
0.0
  0
ARC
  5
1501
  8
DETAIL
  6
CONTINUOUS
 62
     5
 10
67.49998499999992
 20
-30.99999999999999
 30
0.0
 40
7.5
 50
0.0
 51
180.0
  0
LINE
  5
1502
  8
DETAIL
  6
CONTINUOUS
 62
     5
 10
74.99998499999992
 20
-30.99999999999999
 30
0.0
 11
74.99998499999992
 21
-56.0
 31
0.0
  0
LINE
  5
1503
  8
DETAIL
  6
CONTINUOUS
 62
     5
 10
59.99998499999992
 20
13.0
 30
0.0
 11
59.99998499999992
 21
-11.99999999999998
 31
0.0
  0
LINE
  5
1504
  8
DETAIL
  6
CONTINUOUS
 62
     5
 10
74.99998499999992
 20
13.0
 30
0.0
 11
74.99998499999992
 21
-11.99999999999998
 31
0.0
  0
ARC
  5
1505
  8
DETAIL
  6
CONTINUOUS
 62
     5
 10
67.49998499999992
 20
-11.99999999999998
 30
0.0
 40
7.5
 50
180.0
 51
0.0
  0
ARC
  5
1506
  8
DETAIL
  6
CONTINUOUS
 62
     5
 10
67.49998499999992
 20
13.0
 30
0.0
 40
7.5
 50
0.0
 51
180.0
  0
LINE
  5
1507
  8
DETAIL
  6
CONTINUOUS
 62
     5
 10
74.99998499999992
 20
13.0
 30
0.0
 11
74.99998499999992
 21
-11.99999999999998
 31
0.0
  0
LINE
  5
1508
  8
DETAIL
  6
CONTINUOUS
 62
     5
 10
74.99998499999992
 20
57.0
 30
0.0
 11
74.99998499999992
 21
31.99999999999999
 31
0.0
  0
ARC
  5
1509
  8
DETAIL
  6
CONTINUOUS
 62
     5
 10
67.49998499999992
 20
57.0
 30
0.0
 40
7.5
 50
0.0
 51
180.0
  0
ARC
  5
150A
  8
DETAIL
  6
CONTINUOUS
 62
     5
 10
67.49998499999992
 20
31.99999999999999
 30
0.0
 40
7.5
 50
180.0
 51
0.0
  0
LINE
  5
150B
  8
DETAIL
  6
CONTINUOUS
 62
     5
 10
74.99998499999992
 20
57.0
 30
0.0
 11
74.99998499999992
 21
31.99999999999999
 31
0.0
  0
LINE
  5
150C
  8
DETAIL
  6
CONTINUOUS
 62
     5
 10
59.99998499999992
 20
57.0
 30
0.0
 11
59.99998499999992
 21
31.99999999999999
 31
0.0
  0
LINE
  5
150D
  8
DETAIL
  6
CONTINUOUS
 62
     5
 10
79.99998499999992
 20
57.0
 30
0.0
 11
79.99998499999992
 21
31.99999999999999
 31
0.0
  0
LINE
  5
150E
  8
DETAIL
  6
CONTINUOUS
 62
     5
 10
94.99998499999992
 20
57.0
 30
0.0
 11
94.99998499999992
 21
31.99999999999999
 31
0.0
  0
ARC
  5
150F
  8
DETAIL
  6
CONTINUOUS
 62
     5
 10
87.49998499999992
 20
31.99999999999999
 30
0.0
 40
7.5
 50
180.0
 51
0.0
  0
ARC
  5
1510
  8
DETAIL
  6
CONTINUOUS
 62
     5
 10
87.49998499999992
 20
57.0
 30
0.0
 40
7.5
 50
0.0
 51
180.0
  0
LINE
  5
1511
  8
DETAIL
  6
CONTINUOUS
 62
     5
 10
94.99998499999992
 20
57.0
 30
0.0
 11
94.99998499999992
 21
31.99999999999999
 31
0.0
  0
LINE
  5
1512
  8
DETAIL
  6
CONTINUOUS
 62
     5
 10
94.99998499999992
 20
13.0
 30
0.0
 11
94.99998499999992
 21
-11.99999999999998
 31
0.0
  0
ARC
  5
1513
  8
DETAIL
  6
CONTINUOUS
 62
     5
 10
87.49998499999992
 20
13.0
 30
0.0
 40
7.5
 50
0.0
 51
180.0
  0
ARC
  5
1514
  8
DETAIL
  6
CONTINUOUS
 62
     5
 10
87.49998499999992
 20
-11.99999999999998
 30
0.0
 40
7.5
 50
180.0
 51
0.0
  0
LINE
  5
1515
  8
DETAIL
  6
CONTINUOUS
 62
     5
 10
94.99998499999992
 20
13.0
 30
0.0
 11
94.99998499999992
 21
-11.99999999999998
 31
0.0
  0
LINE
  5
1516
  8
DETAIL
  6
CONTINUOUS
 62
     5
 10
79.99998499999992
 20
13.0
 30
0.0
 11
79.99998499999992
 21
-11.99999999999998
 31
0.0
  0
LINE
  5
1517
  8
DETAIL
  6
CONTINUOUS
 62
     5
 10
94.99998499999992
 20
-30.99999999999999
 30
0.0
 11
94.99998499999992
 21
-56.0
 31
0.0
  0
ARC
  5
1518
  8
DETAIL
  6
CONTINUOUS
 62
     5
 10
87.49998499999992
 20
-30.99999999999999
 30
0.0
 40
7.5
 50
0.0
 51
180.0
  0
ARC
  5
1519
  8
DETAIL
  6
CONTINUOUS
 62
     5
 10
87.49998499999992
 20
-56.0
 30
0.0
 40
7.5
 50
180.0
 51
0.0
  0
LINE
  5
151A
  8
DETAIL
  6
CONTINUOUS
 62
     5
 10
94.99998499999992
 20
-30.99999999999999
 30
0.0
 11
94.99998499999992
 21
-56.0
 31
0.0
  0
LINE
  5
151B
  8
DETAIL
  6
CONTINUOUS
 62
     5
 10
79.99998499999992
 20
-30.99999999999999
 30
0.0
 11
79.99998499999992
 21
-56.0
 31
0.0
  0
LINE
  5
151C
  8
DETAIL
  6
CONTINUOUS
 62
     5
 10
39.9999849999999
 20
-30.99999999999999
 30
0.0
 11
39.9999849999999
 21
-56.0
 31
0.0
  0
LINE
  5
151D
  8
DETAIL
  6
CONTINUOUS
 62
     5
 10
54.99998499999992
 20
-30.99999999999999
 30
0.0
 11
54.99998499999992
 21
-56.0
 31
0.0
  0
ARC
  5
151E
  8
DETAIL
  6
CONTINUOUS
 62
     5
 10
47.49998499999981
 20
-56.0
 30
0.0
 40
7.5
 50
180.0
 51
0.0
  0
ARC
  5
151F
  8
DETAIL
  6
CONTINUOUS
 62
     5
 10
47.49998499999981
 20
-30.99999999999999
 30
0.0
 40
7.5
 50
0.0
 51
180.0
  0
LINE
  5
1520
  8
DETAIL
  6
CONTINUOUS
 62
     5
 10
54.99998499999992
 20
-30.99999999999999
 30
0.0
 11
54.99998499999992
 21
-56.0
 31
0.0
  0
LINE
  5
1521
  8
DETAIL
  6
CONTINUOUS
 62
     5
 10
39.9999849999999
 20
13.0
 30
0.0
 11
39.9999849999999
 21
-11.99999999999998
 31
0.0
  0
LINE
  5
1522
  8
DETAIL
  6
CONTINUOUS
 62
     5
 10
54.99998499999992
 20
13.0
 30
0.0
 11
54.99998499999992
 21
-11.99999999999998
 31
0.0
  0
ARC
  5
1523
  8
DETAIL
  6
CONTINUOUS
 62
     5
 10
47.49998499999981
 20
-11.99999999999998
 30
0.0
 40
7.5
 50
180.0
 51
0.0
  0
ARC
  5
1524
  8
DETAIL
  6
CONTINUOUS
 62
     5
 10
47.49998499999981
 20
13.0
 30
0.0
 40
7.5
 50
0.0
 51
180.0
  0
LINE
  5
1525
  8
DETAIL
  6
CONTINUOUS
 62
     5
 10
54.99998499999992
 20
13.0
 30
0.0
 11
54.99998499999992
 21
-11.99999999999998
 31
0.0
  0
LINE
  5
1526
  8
DETAIL
  6
CONTINUOUS
 62
     5
 10
54.99998499999992
 20
57.0
 30
0.0
 11
54.99998499999992
 21
31.99999999999999
 31
0.0
  0
ARC
  5
1527
  8
DETAIL
  6
CONTINUOUS
 62
     5
 10
47.49998499999981
 20
57.0
 30
0.0
 40
7.5
 50
0.0
 51
180.0
  0
ARC
  5
1528
  8
DETAIL
  6
CONTINUOUS
 62
     5
 10
47.49998499999981
 20
31.99999999999999
 30
0.0
 40
7.5
 50
180.0
 51
0.0
  0
LINE
  5
1529
  8
DETAIL
  6
CONTINUOUS
 62
     5
 10
54.99998499999992
 20
57.0
 30
0.0
 11
54.99998499999992
 21
31.99999999999999
 31
0.0
  0
LINE
  5
152A
  8
DETAIL
  6
CONTINUOUS
 62
     5
 10
39.9999849999999
 20
57.0
 30
0.0
 11
39.9999849999999
 21
31.99999999999999
 31
0.0
  0
LINE
  5
152B
  8
DETAIL
  6
CONTINUOUS
 62
     5
 10
160.02087
 20
57.0
 30
0.0
 11
160.02087
 21
31.99999999999999
 31
0.0
  0
LINE
  5
152C
  8
DETAIL
  6
CONTINUOUS
 62
     5
 10
175.0208699999996
 20
57.0
 30
0.0
 11
175.0208699999996
 21
31.99999999999999
 31
0.0
  0
ARC
  5
152D
  8
DETAIL
  6
CONTINUOUS
 62
     5
 10
167.5208699999996
 20
31.99999999999999
 30
0.0
 40
7.5
 50
180.0
 51
0.0
  0
ARC
  5
152E
  8
DETAIL
  6
CONTINUOUS
 62
     5
 10
167.5208699999996
 20
57.0
 30
0.0
 40
7.5
 50
0.0
 51
180.0
  0
LINE
  5
152F
  8
DETAIL
  6
CONTINUOUS
 62
     5
 10
175.0208699999996
 20
57.0
 30
0.0
 11
175.0208699999996
 21
31.99999999999999
 31
0.0
  0
LINE
  5
1530
  8
DETAIL
  6
CONTINUOUS
 62
     5
 10
175.0208699999996
 20
13.0
 30
0.0
 11
175.0208699999996
 21
-11.99999999999998
 31
0.0
  0
ARC
  5
1531
  8
DETAIL
  6
CONTINUOUS
 62
     5
 10
167.5208699999996
 20
13.0
 30
0.0
 40
7.5
 50
0.0
 51
180.0
  0
ARC
  5
1532
  8
DETAIL
  6
CONTINUOUS
 62
     5
 10
167.5208699999996
 20
-11.99999999999998
 30
0.0
 40
7.5
 50
180.0
 51
0.0
  0
LINE
  5
1533
  8
DETAIL
  6
CONTINUOUS
 62
     5
 10
175.0208699999996
 20
13.0
 30
0.0
 11
175.0208699999996
 21
-11.99999999999998
 31
0.0
  0
LINE
  5
1534
  8
DETAIL
  6
CONTINUOUS
 62
     5
 10
160.02087
 20
13.0
 30
0.0
 11
160.02087
 21
-11.99999999999998
 31
0.0
  0
LINE
  5
1535
  8
DETAIL
  6
CONTINUOUS
 62
     5
 10
175.0208699999996
 20
-30.99999999999999
 30
0.0
 11
175.0208699999996
 21
-56.0
 31
0.0
  0
ARC
  5
1536
  8
DETAIL
  6
CONTINUOUS
 62
     5
 10
167.5208699999996
 20
-30.99999999999999
 30
0.0
 40
7.5
 50
0.0
 51
180.0
  0
ARC
  5
1537
  8
DETAIL
  6
CONTINUOUS
 62
     5
 10
167.5208699999996
 20
-56.0
 30
0.0
 40
7.5
 50
180.0
 51
0.0
  0
LINE
  5
1538
  8
DETAIL
  6
CONTINUOUS
 62
     5
 10
175.0208699999996
 20
-30.99999999999999
 30
0.0
 11
175.0208699999996
 21
-56.0
 31
0.0
  0
LINE
  5
1539
  8
DETAIL
  6
CONTINUOUS
 62
     5
 10
160.02087
 20
-30.99999999999999
 30
0.0
 11
160.02087
 21
-56.0
 31
0.0
  0
LINE
  5
153A
  8
DETAIL
  6
CONTINUOUS
 62
     5
 10
200.02087
 20
-30.99999999999999
 30
0.0
 11
200.02087
 21
-56.0
 31
0.0
  0
LINE
  5
153B
  8
DETAIL
  6
CONTINUOUS
 62
     5
 10
215.02087
 20
-30.99999999999999
 30
0.0
 11
215.02087
 21
-56.0
 31
0.0
  0
ARC
  5
153C
  8
DETAIL
  6
CONTINUOUS
 62
     5
 10
207.52087
 20
-56.0
 30
0.0
 40
7.5
 50
180.0
 51
0.0
  0
ARC
  5
153D
  8
DETAIL
  6
CONTINUOUS
 62
     5
 10
207.52087
 20
-30.99999999999999
 30
0.0
 40
7.5
 50
0.0
 51
180.0
  0
LINE
  5
153E
  8
DETAIL
  6
CONTINUOUS
 62
     5
 10
215.02087
 20
-30.99999999999999
 30
0.0
 11
215.02087
 21
-56.0
 31
0.0
  0
LINE
  5
153F
  8
DETAIL
  6
CONTINUOUS
 62
     5
 10
200.02087
 20
13.0
 30
0.0
 11
200.02087
 21
-11.99999999999998
 31
0.0
  0
LINE
  5
1540
  8
DETAIL
  6
CONTINUOUS
 62
     5
 10
215.02087
 20
13.0
 30
0.0
 11
215.02087
 21
-11.99999999999998
 31
0.0
  0
ARC
  5
1541
  8
DETAIL
  6
CONTINUOUS
 62
     5
 10
207.52087
 20
-11.99999999999998
 30
0.0
 40
7.5
 50
180.0
 51
0.0
  0
ARC
  5
1542
  8
DETAIL
  6
CONTINUOUS
 62
     5
 10
207.52087
 20
13.0
 30
0.0
 40
7.5
 50
0.0
 51
180.0
  0
LINE
  5
1543
  8
DETAIL
  6
CONTINUOUS
 62
     5
 10
215.02087
 20
13.0
 30
0.0
 11
215.02087
 21
-11.99999999999998
 31
0.0
  0
LINE
  5
1544
  8
DETAIL
  6
CONTINUOUS
 62
     5
 10
215.02087
 20
57.0
 30
0.0
 11
215.02087
 21
31.99999999999999
 31
0.0
  0
ARC
  5
1545
  8
DETAIL
  6
CONTINUOUS
 62
     5
 10
207.52087
 20
57.0
 30
0.0
 40
7.5
 50
0.0
 51
180.0
  0
ARC
  5
1546
  8
DETAIL
  6
CONTINUOUS
 62
     5
 10
207.52087
 20
31.99999999999999
 30
0.0
 40
7.5
 50
180.0
 51
0.0
  0
LINE
  5
1547
  8
DETAIL
  6
CONTINUOUS
 62
     5
 10
215.02087
 20
57.0
 30
0.0
 11
215.02087
 21
31.99999999999999
 31
0.0
  0
LINE
  5
1548
  8
DETAIL
  6
CONTINUOUS
 62
     5
 10
200.02087
 20
57.0
 30
0.0
 11
200.02087
 21
31.99999999999999
 31
0.0
  0
LINE
  5
1549
  8
DETAIL
  6
CONTINUOUS
 62
     5
 10
180.0208699999996
 20
57.0
 30
0.0
 11
180.0208699999996
 21
31.99999999999999
 31
0.0
  0
LINE
  5
154A
  8
DETAIL
  6
CONTINUOUS
 62
     5
 10
195.02087
 20
57.0
 30
0.0
 11
195.02087
 21
31.99999999999999
 31
0.0
  0
ARC
  5
154B
  8
DETAIL
  6
CONTINUOUS
 62
     5
 10
187.5208699999996
 20
31.99999999999999
 30
0.0
 40
7.5
 50
180.0
 51
0.0
  0
ARC
  5
154C
  8
DETAIL
  6
CONTINUOUS
 62
     5
 10
187.5208699999996
 20
57.0
 30
0.0
 40
7.5
 50
0.0
 51
180.0
  0
LINE
  5
154D
  8
DETAIL
  6
CONTINUOUS
 62
     5
 10
195.02087
 20
57.0
 30
0.0
 11
195.02087
 21
31.99999999999999
 31
0.0
  0
LINE
  5
154E
  8
DETAIL
  6
CONTINUOUS
 62
     5
 10
195.02087
 20
13.0
 30
0.0
 11
195.02087
 21
-11.99999999999998
 31
0.0
  0
ARC
  5
154F
  8
DETAIL
  6
CONTINUOUS
 62
     5
 10
187.5208699999996
 20
13.0
 30
0.0
 40
7.5
 50
0.0
 51
180.0
  0
ARC
  5
1550
  8
DETAIL
  6
CONTINUOUS
 62
     5
 10
187.5208699999996
 20
-11.99999999999998
 30
0.0
 40
7.5
 50
180.0
 51
0.0
  0
LINE
  5
1551
  8
DETAIL
  6
CONTINUOUS
 62
     5
 10
195.02087
 20
13.0
 30
0.0
 11
195.02087
 21
-11.99999999999998
 31
0.0
  0
LINE
  5
1552
  8
DETAIL
  6
CONTINUOUS
 62
     5
 10
180.0208699999996
 20
13.0
 30
0.0
 11
180.0208699999996
 21
-11.99999999999998
 31
0.0
  0
LINE
  5
1553
  8
DETAIL
  6
CONTINUOUS
 62
     5
 10
195.02087
 20
-30.99999999999999
 30
0.0
 11
195.02087
 21
-56.0
 31
0.0
  0
ARC
  5
1554
  8
DETAIL
  6
CONTINUOUS
 62
     5
 10
187.5208699999996
 20
-30.99999999999999
 30
0.0
 40
7.5
 50
0.0
 51
180.0
  0
ARC
  5
1555
  8
DETAIL
  6
CONTINUOUS
 62
     5
 10
187.5208699999996
 20
-56.0
 30
0.0
 40
7.5
 50
180.0
 51
0.0
  0
LINE
  5
1556
  8
DETAIL
  6
CONTINUOUS
 62
     5
 10
195.02087
 20
-30.99999999999999
 30
0.0
 11
195.02087
 21
-56.0
 31
0.0
  0
LINE
  5
1557
  8
DETAIL
  6
CONTINUOUS
 62
     5
 10
180.0208699999996
 20
-30.99999999999999
 30
0.0
 11
180.0208699999996
 21
-56.0
 31
0.0
  0
LINE
  5
1558
  8
DETAIL
  6
CONTINUOUS
 62
     5
 10
120.02087
 20
-30.99999999999999
 30
0.0
 11
120.02087
 21
-56.0
 31
0.0
  0
LINE
  5
1559
  8
DETAIL
  6
CONTINUOUS
 62
     5
 10
135.02087
 20
-30.99999999999999
 30
0.0
 11
135.02087
 21
-56.0
 31
0.0
  0
ARC
  5
155A
  8
DETAIL
  6
CONTINUOUS
 62
     5
 10
127.5208699999999
 20
-56.0
 30
0.0
 40
7.5
 50
180.0
 51
0.0
  0
ARC
  5
155B
  8
DETAIL
  6
CONTINUOUS
 62
     5
 10
127.5208699999999
 20
-30.99999999999999
 30
0.0
 40
7.5
 50
0.0
 51
180.0
  0
LINE
  5
155C
  8
DETAIL
  6
CONTINUOUS
 62
     5
 10
135.02087
 20
-30.99999999999999
 30
0.0
 11
135.02087
 21
-56.0
 31
0.0
  0
LINE
  5
155D
  8
DETAIL
  6
CONTINUOUS
 62
     5
 10
120.02087
 20
13.0
 30
0.0
 11
120.02087
 21
-11.99999999999998
 31
0.0
  0
LINE
  5
155E
  8
DETAIL
  6
CONTINUOUS
 62
     5
 10
135.02087
 20
13.0
 30
0.0
 11
135.02087
 21
-11.99999999999998
 31
0.0
  0
ARC
  5
155F
  8
DETAIL
  6
CONTINUOUS
 62
     5
 10
127.5208699999999
 20
-11.99999999999998
 30
0.0
 40
7.5
 50
180.0
 51
0.0
  0
ARC
  5
1560
  8
DETAIL
  6
CONTINUOUS
 62
     5
 10
127.5208699999999
 20
13.0
 30
0.0
 40
7.5
 50
0.0
 51
180.0
  0
LINE
  5
1561
  8
DETAIL
  6
CONTINUOUS
 62
     5
 10
135.02087
 20
13.0
 30
0.0
 11
135.02087
 21
-11.99999999999998
 31
0.0
  0
LINE
  5
1562
  8
DETAIL
  6
CONTINUOUS
 62
     5
 10
135.02087
 20
57.0
 30
0.0
 11
135.02087
 21
31.99999999999999
 31
0.0
  0
ARC
  5
1563
  8
DETAIL
  6
CONTINUOUS
 62
     5
 10
127.5208699999999
 20
57.0
 30
0.0
 40
7.5
 50
0.0
 51
180.0
  0
ARC
  5
1564
  8
DETAIL
  6
CONTINUOUS
 62
     5
 10
127.5208699999999
 20
31.99999999999999
 30
0.0
 40
7.5
 50
180.0
 51
0.0
  0
LINE
  5
1565
  8
DETAIL
  6
CONTINUOUS
 62
     5
 10
135.02087
 20
57.0
 30
0.0
 11
135.02087
 21
31.99999999999999
 31
0.0
  0
LINE
  5
1566
  8
DETAIL
  6
CONTINUOUS
 62
     5
 10
120.02087
 20
57.0
 30
0.0
 11
120.02087
 21
31.99999999999999
 31
0.0
  0
LINE
  5
1567
  8
DETAIL
  6
CONTINUOUS
 62
     5
 10
140.0208699999999
 20
57.0
 30
0.0
 11
140.0208699999999
 21
31.99999999999999
 31
0.0
  0
LINE
  5
1568
  8
DETAIL
  6
CONTINUOUS
 62
     5
 10
155.0208699999996
 20
57.0
 30
0.0
 11
155.0208699999996
 21
31.99999999999999
 31
0.0
  0
ARC
  5
1569
  8
DETAIL
  6
CONTINUOUS
 62
     5
 10
147.52087
 20
31.99999999999999
 30
0.0
 40
7.5
 50
180.0
 51
0.0
  0
ARC
  5
156A
  8
DETAIL
  6
CONTINUOUS
 62
     5
 10
147.52087
 20
57.0
 30
0.0
 40
7.5
 50
0.0
 51
180.0
  0
LINE
  5
156B
  8
DETAIL
  6
CONTINUOUS
 62
     5
 10
155.0208699999996
 20
57.0
 30
0.0
 11
155.0208699999996
 21
31.99999999999999
 31
0.0
  0
LINE
  5
156C
  8
DETAIL
  6
CONTINUOUS
 62
     5
 10
155.0208699999996
 20
13.0
 30
0.0
 11
155.0208699999996
 21
-11.99999999999998
 31
0.0
  0
ARC
  5
156D
  8
DETAIL
  6
CONTINUOUS
 62
     5
 10
147.52087
 20
13.0
 30
0.0
 40
7.5
 50
0.0
 51
180.0
  0
ARC
  5
156E
  8
DETAIL
  6
CONTINUOUS
 62
     5
 10
147.52087
 20
-11.99999999999998
 30
0.0
 40
7.5
 50
180.0
 51
0.0
  0
LINE
  5
156F
  8
DETAIL
  6
CONTINUOUS
 62
     5
 10
155.0208699999996
 20
13.0
 30
0.0
 11
155.0208699999996
 21
-11.99999999999998
 31
0.0
  0
LINE
  5
1570
  8
DETAIL
  6
CONTINUOUS
 62
     5
 10
140.0208699999999
 20
13.0
 30
0.0
 11
140.0208699999999
 21
-11.99999999999998
 31
0.0
  0
LINE
  5
1571
  8
DETAIL
  6
CONTINUOUS
 62
     5
 10
155.0208699999996
 20
-30.99999999999999
 30
0.0
 11
155.0208699999996
 21
-56.0
 31
0.0
  0
ARC
  5
1572
  8
DETAIL
  6
CONTINUOUS
 62
     5
 10
147.52087
 20
-30.99999999999999
 30
0.0
 40
7.5
 50
0.0
 51
180.0
  0
ARC
  5
1573
  8
DETAIL
  6
CONTINUOUS
 62
     5
 10
147.52087
 20
-56.0
 30
0.0
 40
7.5
 50
180.0
 51
0.0
  0
LINE
  5
1574
  8
DETAIL
  6
CONTINUOUS
 62
     5
 10
155.0208699999996
 20
-30.99999999999999
 30
0.0
 11
155.0208699999996
 21
-56.0
 31
0.0
  0
LINE
  5
1575
  8
DETAIL
  6
CONTINUOUS
 62
     5
 10
140.0208699999999
 20
-30.99999999999999
 30
0.0
 11
140.0208699999999
 21
-56.0
 31
0.0
  0
LINE
  5
1576
  8
DETAIL
  6
CONTINUOUS
 62
     5
 10
100.0208699999999
 20
-30.99999999999999
 30
0.0
 11
100.0208699999999
 21
-56.0
 31
0.0
  0
LINE
  5
1577
  8
DETAIL
  6
CONTINUOUS
 62
     5
 10
115.0208699999999
 20
-30.99999999999999
 30
0.0
 11
115.0208699999999
 21
-56.0
 31
0.0
  0
ARC
  5
1578
  8
DETAIL
  6
CONTINUOUS
 62
     5
 10
107.52087
 20
-56.0
 30
0.0
 40
7.5
 50
180.0
 51
0.0
  0
ARC
  5
1579
  8
DETAIL
  6
CONTINUOUS
 62
     5
 10
107.52087
 20
-30.99999999999999
 30
0.0
 40
7.5
 50
0.0
 51
180.0
  0
LINE
  5
157A
  8
DETAIL
  6
CONTINUOUS
 62
     5
 10
115.0208699999999
 20
-30.99999999999999
 30
0.0
 11
115.0208699999999
 21
-56.0
 31
0.0
  0
LINE
  5
157B
  8
DETAIL
  6
CONTINUOUS
 62
     5
 10
100.0208699999999
 20
13.0
 30
0.0
 11
100.0208699999999
 21
-11.99999999999998
 31
0.0
  0
LINE
  5
157C
  8
DETAIL
  6
CONTINUOUS
 62
     5
 10
115.0208699999999
 20
13.0
 30
0.0
 11
115.0208699999999
 21
-11.99999999999998
 31
0.0
  0
ARC
  5
157D
  8
DETAIL
  6
CONTINUOUS
 62
     5
 10
107.52087
 20
-11.99999999999998
 30
0.0
 40
7.5
 50
180.0
 51
0.0
  0
ARC
  5
157E
  8
DETAIL
  6
CONTINUOUS
 62
     5
 10
107.52087
 20
13.0
 30
0.0
 40
7.5
 50
0.0
 51
180.0
  0
LINE
  5
157F
  8
DETAIL
  6
CONTINUOUS
 62
     5
 10
115.0208699999999
 20
13.0
 30
0.0
 11
115.0208699999999
 21
-11.99999999999998
 31
0.0
  0
LINE
  5
1580
  8
DETAIL
  6
CONTINUOUS
 62
     5
 10
115.0208699999999
 20
57.0
 30
0.0
 11
115.0208699999999
 21
31.99999999999999
 31
0.0
  0
ARC
  5
1581
  8
DETAIL
  6
CONTINUOUS
 62
     5
 10
107.52087
 20
57.0
 30
0.0
 40
7.5
 50
0.0
 51
180.0
  0
ARC
  5
1582
  8
DETAIL
  6
CONTINUOUS
 62
     5
 10
107.52087
 20
31.99999999999999
 30
0.0
 40
7.5
 50
180.0
 51
0.0
  0
LINE
  5
1583
  8
DETAIL
  6
CONTINUOUS
 62
     5
 10
115.0208699999999
 20
57.0
 30
0.0
 11
115.0208699999999
 21
31.99999999999999
 31
0.0
  0
LINE
  5
1584
  8
DETAIL
  6
CONTINUOUS
 62
     5
 10
100.0208699999999
 20
57.0
 30
0.0
 11
100.0208699999999
 21
31.99999999999999
 31
0.0
  0
LINE
  5
1585
  8
DETAIL
  6
CONTINUOUS
 62
     5
 10
-75.00001499999999
 20
57.0
 30
0.0
 11
-75.00001499999999
 21
31.99999999999999
 31
0.0
  0
LINE
  5
1586
  8
DETAIL
  6
CONTINUOUS
 62
     5
 10
-60.0000150000001
 20
57.0
 30
0.0
 11
-60.0000150000001
 21
31.99999999999999
 31
0.0
  0
ARC
  5
1587
  8
DETAIL
  6
CONTINUOUS
 62
     5
 10
-67.50001499999999
 20
31.99999999999999
 30
0.0
 40
7.5
 50
180.0
 51
0.0
  0
ARC
  5
1588
  8
DETAIL
  6
CONTINUOUS
 62
     5
 10
-67.50001499999999
 20
57.0
 30
0.0
 40
7.5
 50
0.0
 51
180.0
  0
LINE
  5
1589
  8
DETAIL
  6
CONTINUOUS
 62
     5
 10
-60.0000150000001
 20
57.0
 30
0.0
 11
-60.0000150000001
 21
31.99999999999999
 31
0.0
  0
LINE
  5
158A
  8
DETAIL
  6
CONTINUOUS
 62
     5
 10
-60.0000150000001
 20
13.0
 30
0.0
 11
-60.0000150000001
 21
-11.99999999999998
 31
0.0
  0
ARC
  5
158B
  8
DETAIL
  6
CONTINUOUS
 62
     5
 10
-67.50001499999999
 20
13.0
 30
0.0
 40
7.5
 50
0.0
 51
180.0
  0
ARC
  5
158C
  8
DETAIL
  6
CONTINUOUS
 62
     5
 10
-67.50001499999999
 20
-11.99999999999998
 30
0.0
 40
7.5
 50
180.0
 51
0.0
  0
LINE
  5
158D
  8
DETAIL
  6
CONTINUOUS
 62
     5
 10
-60.0000150000001
 20
13.0
 30
0.0
 11
-60.0000150000001
 21
-11.99999999999998
 31
0.0
  0
LINE
  5
158E
  8
DETAIL
  6
CONTINUOUS
 62
     5
 10
-75.00001499999999
 20
13.0
 30
0.0
 11
-75.00001499999999
 21
-11.99999999999998
 31
0.0
  0
LINE
  5
158F
  8
DETAIL
  6
CONTINUOUS
 62
     5
 10
-60.0000150000001
 20
-30.99999999999999
 30
0.0
 11
-60.0000150000001
 21
-56.0
 31
0.0
  0
ARC
  5
1590
  8
DETAIL
  6
CONTINUOUS
 62
     5
 10
-67.50001499999999
 20
-30.99999999999999
 30
0.0
 40
7.5
 50
0.0
 51
180.0
  0
ARC
  5
1591
  8
DETAIL
  6
CONTINUOUS
 62
     5
 10
-67.50001499999999
 20
-56.0
 30
0.0
 40
7.5
 50
180.0
 51
0.0
  0
LINE
  5
1592
  8
DETAIL
  6
CONTINUOUS
 62
     5
 10
-60.0000150000001
 20
-30.99999999999999
 30
0.0
 11
-60.0000150000001
 21
-56.0
 31
0.0
  0
LINE
  5
1593
  8
DETAIL
  6
CONTINUOUS
 62
     5
 10
-75.00001499999999
 20
-30.99999999999999
 30
0.0
 11
-75.00001499999999
 21
-56.0
 31
0.0
  0
LINE
  5
1594
  8
DETAIL
  6
CONTINUOUS
 62
     5
 10
-35.00001500000019
 20
-30.99999999999999
 30
0.0
 11
-35.00001500000019
 21
-56.0
 31
0.0
  0
LINE
  5
1595
  8
DETAIL
  6
CONTINUOUS
 62
     5
 10
-20.00001499999999
 20
-30.99999999999999
 30
0.0
 11
-20.00001499999999
 21
-56.0
 31
0.0
  0
ARC
  5
1596
  8
DETAIL
  6
CONTINUOUS
 62
     5
 10
-27.50001500000019
 20
-56.0
 30
0.0
 40
7.5
 50
180.0
 51
0.0
  0
ARC
  5
1597
  8
DETAIL
  6
CONTINUOUS
 62
     5
 10
-27.50001500000019
 20
-30.99999999999999
 30
0.0
 40
7.5
 50
0.0
 51
180.0
  0
LINE
  5
1598
  8
DETAIL
  6
CONTINUOUS
 62
     5
 10
-20.00001499999999
 20
-30.99999999999999
 30
0.0
 11
-20.00001499999999
 21
-56.0
 31
0.0
  0
LINE
  5
1599
  8
DETAIL
  6
CONTINUOUS
 62
     5
 10
-35.00001500000019
 20
13.0
 30
0.0
 11
-35.00001500000019
 21
-11.99999999999998
 31
0.0
  0
LINE
  5
159A
  8
DETAIL
  6
CONTINUOUS
 62
     5
 10
-20.00001499999999
 20
13.0
 30
0.0
 11
-20.00001499999999
 21
-11.99999999999998
 31
0.0
  0
ARC
  5
159B
  8
DETAIL
  6
CONTINUOUS
 62
     5
 10
-27.50001500000019
 20
-11.99999999999998
 30
0.0
 40
7.5
 50
180.0
 51
0.0
  0
ARC
  5
159C
  8
DETAIL
  6
CONTINUOUS
 62
     5
 10
-27.50001500000019
 20
13.0
 30
0.0
 40
7.5
 50
0.0
 51
180.0
  0
LINE
  5
159D
  8
DETAIL
  6
CONTINUOUS
 62
     5
 10
-20.00001499999999
 20
13.0
 30
0.0
 11
-20.00001499999999
 21
-11.99999999999998
 31
0.0
  0
LINE
  5
159E
  8
DETAIL
  6
CONTINUOUS
 62
     5
 10
-20.00001499999999
 20
57.0
 30
0.0
 11
-20.00001499999999
 21
31.99999999999999
 31
0.0
  0
ARC
  5
159F
  8
DETAIL
  6
CONTINUOUS
 62
     5
 10
-27.50001500000019
 20
57.0
 30
0.0
 40
7.5
 50
0.0
 51
180.0
  0
ARC
  5
15A0
  8
DETAIL
  6
CONTINUOUS
 62
     5
 10
-27.50001500000019
 20
31.99999999999999
 30
0.0
 40
7.5
 50
180.0
 51
0.0
  0
LINE
  5
15A1
  8
DETAIL
  6
CONTINUOUS
 62
     5
 10
-20.00001499999999
 20
57.0
 30
0.0
 11
-20.00001499999999
 21
31.99999999999999
 31
0.0
  0
LINE
  5
15A2
  8
DETAIL
  6
CONTINUOUS
 62
     5
 10
-35.00001500000019
 20
57.0
 30
0.0
 11
-35.00001500000019
 21
31.99999999999999
 31
0.0
  0
LINE
  5
15A3
  8
DETAIL
  6
CONTINUOUS
 62
     5
 10
-55.00001499999999
 20
57.0
 30
0.0
 11
-55.00001499999999
 21
31.99999999999999
 31
0.0
  0
LINE
  5
15A4
  8
DETAIL
  6
CONTINUOUS
 62
     5
 10
-40.00001499999999
 20
57.0
 30
0.0
 11
-40.00001499999999
 21
31.99999999999999
 31
0.0
  0
ARC
  5
15A5
  8
DETAIL
  6
CONTINUOUS
 62
     5
 10
-47.5000150000001
 20
31.99999999999999
 30
0.0
 40
7.5
 50
180.0
 51
0.0
  0
ARC
  5
15A6
  8
DETAIL
  6
CONTINUOUS
 62
     5
 10
-47.5000150000001
 20
57.0
 30
0.0
 40
7.5
 50
0.0
 51
180.0
  0
LINE
  5
15A7
  8
DETAIL
  6
CONTINUOUS
 62
     5
 10
-40.00001499999999
 20
57.0
 30
0.0
 11
-40.00001499999999
 21
31.99999999999999
 31
0.0
  0
LINE
  5
15A8
  8
DETAIL
  6
CONTINUOUS
 62
     5
 10
-40.00001499999999
 20
13.0
 30
0.0
 11
-40.00001499999999
 21
-11.99999999999998
 31
0.0
  0
ARC
  5
15A9
  8
DETAIL
  6
CONTINUOUS
 62
     5
 10
-47.5000150000001
 20
13.0
 30
0.0
 40
7.5
 50
0.0
 51
180.0
  0
ARC
  5
15AA
  8
DETAIL
  6
CONTINUOUS
 62
     5
 10
-47.5000150000001
 20
-11.99999999999998
 30
0.0
 40
7.5
 50
180.0
 51
0.0
  0
LINE
  5
15AB
  8
DETAIL
  6
CONTINUOUS
 62
     5
 10
-40.00001499999999
 20
13.0
 30
0.0
 11
-40.00001499999999
 21
-11.99999999999998
 31
0.0
  0
LINE
  5
15AC
  8
DETAIL
  6
CONTINUOUS
 62
     5
 10
-55.00001499999999
 20
13.0
 30
0.0
 11
-55.00001499999999
 21
-11.99999999999998
 31
0.0
  0
LINE
  5
15AD
  8
DETAIL
  6
CONTINUOUS
 62
     5
 10
-40.00001499999999
 20
-30.99999999999999
 30
0.0
 11
-40.00001499999999
 21
-56.0
 31
0.0
  0
ARC
  5
15AE
  8
DETAIL
  6
CONTINUOUS
 62
     5
 10
-47.5000150000001
 20
-30.99999999999999
 30
0.0
 40
7.5
 50
0.0
 51
180.0
  0
ARC
  5
15AF
  8
DETAIL
  6
CONTINUOUS
 62
     5
 10
-47.5000150000001
 20
-56.0
 30
0.0
 40
7.5
 50
180.0
 51
0.0
  0
LINE
  5
15B0
  8
DETAIL
  6
CONTINUOUS
 62
     5
 10
-40.00001499999999
 20
-30.99999999999999
 30
0.0
 11
-40.00001499999999
 21
-56.0
 31
0.0
  0
LINE
  5
15B1
  8
DETAIL
  6
CONTINUOUS
 62
     5
 10
-55.00001499999999
 20
-30.99999999999999
 30
0.0
 11
-55.00001499999999
 21
-56.0
 31
0.0
  0
LINE
  5
15B2
  8
DETAIL
  6
CONTINUOUS
 62
     5
 10
4.999984999999896
 20
-30.99999999999999
 30
0.0
 11
4.999984999999896
 21
-56.0
 31
0.0
  0
LINE
  5
15B3
  8
DETAIL
  6
CONTINUOUS
 62
     5
 10
19.99998500000001
 20
-30.99999999999999
 30
0.0
 11
19.99998500000001
 21
-56.0
 31
0.0
  0
ARC
  5
15B4
  8
DETAIL
  6
CONTINUOUS
 62
     5
 10
12.49998500000001
 20
-56.0
 30
0.0
 40
7.5
 50
180.0
 51
0.0
  0
ARC
  5
15B5
  8
DETAIL
  6
CONTINUOUS
 62
     5
 10
12.49998500000001
 20
-30.99999999999999
 30
0.0
 40
7.5
 50
0.0
 51
180.0
  0
LINE
  5
15B6
  8
DETAIL
  6
CONTINUOUS
 62
     5
 10
19.99998500000001
 20
-30.99999999999999
 30
0.0
 11
19.99998500000001
 21
-56.0
 31
0.0
  0
LINE
  5
15B7
  8
DETAIL
  6
CONTINUOUS
 62
     5
 10
4.999984999999896
 20
13.0
 30
0.0
 11
4.999984999999896
 21
-11.99999999999998
 31
0.0
  0
LINE
  5
15B8
  8
DETAIL
  6
CONTINUOUS
 62
     5
 10
19.99998500000001
 20
13.0
 30
0.0
 11
19.99998500000001
 21
-11.99999999999998
 31
0.0
  0
ARC
  5
15B9
  8
DETAIL
  6
CONTINUOUS
 62
     5
 10
12.49998500000001
 20
-11.99999999999998
 30
0.0
 40
7.5
 50
180.0
 51
0.0
  0
ARC
  5
15BA
  8
DETAIL
  6
CONTINUOUS
 62
     5
 10
12.49998500000001
 20
13.0
 30
0.0
 40
7.5
 50
0.0
 51
180.0
  0
LINE
  5
15BB
  8
DETAIL
  6
CONTINUOUS
 62
     5
 10
19.99998500000001
 20
13.0
 30
0.0
 11
19.99998500000001
 21
-11.99999999999998
 31
0.0
  0
LINE
  5
15BC
  8
DETAIL
  6
CONTINUOUS
 62
     5
 10
19.99998500000001
 20
57.0
 30
0.0
 11
19.99998500000001
 21
31.99999999999999
 31
0.0
  0
ARC
  5
15BD
  8
DETAIL
  6
CONTINUOUS
 62
     5
 10
12.49998500000001
 20
57.0
 30
0.0
 40
7.5
 50
0.0
 51
180.0
  0
ARC
  5
15BE
  8
DETAIL
  6
CONTINUOUS
 62
     5
 10
12.49998500000001
 20
31.99999999999999
 30
0.0
 40
7.5
 50
180.0
 51
0.0
  0
LINE
  5
15BF
  8
DETAIL
  6
CONTINUOUS
 62
     5
 10
19.99998500000001
 20
57.0
 30
0.0
 11
19.99998500000001
 21
31.99999999999999
 31
0.0
  0
LINE
  5
15C0
  8
DETAIL
  6
CONTINUOUS
 62
     5
 10
4.999984999999896
 20
57.0
 30
0.0
 11
4.999984999999896
 21
31.99999999999999
 31
0.0
  0
LINE
  5
15C1
  8
DETAIL
  6
CONTINUOUS
 62
     5
 10
24.99998500000001
 20
57.0
 30
0.0
 11
24.99998500000001
 21
31.99999999999999
 31
0.0
  0
LINE
  5
15C2
  8
DETAIL
  6
CONTINUOUS
 62
     5
 10
39.9999849999999
 20
57.0
 30
0.0
 11
39.9999849999999
 21
31.99999999999999
 31
0.0
  0
ARC
  5
15C3
  8
DETAIL
  6
CONTINUOUS
 62
     5
 10
32.49998500000001
 20
31.99999999999999
 30
0.0
 40
7.5
 50
180.0
 51
0.0
  0
ARC
  5
15C4
  8
DETAIL
  6
CONTINUOUS
 62
     5
 10
32.49998500000001
 20
57.0
 30
0.0
 40
7.5
 50
0.0
 51
180.0
  0
LINE
  5
15C5
  8
DETAIL
  6
CONTINUOUS
 62
     5
 10
39.9999849999999
 20
57.0
 30
0.0
 11
39.9999849999999
 21
31.99999999999999
 31
0.0
  0
LINE
  5
15C6
  8
DETAIL
  6
CONTINUOUS
 62
     5
 10
39.9999849999999
 20
13.0
 30
0.0
 11
39.9999849999999
 21
-11.99999999999998
 31
0.0
  0
ARC
  5
15C7
  8
DETAIL
  6
CONTINUOUS
 62
     5
 10
32.49998500000001
 20
13.0
 30
0.0
 40
7.5
 50
0.0
 51
180.0
  0
ARC
  5
15C8
  8
DETAIL
  6
CONTINUOUS
 62
     5
 10
32.49998500000001
 20
-11.99999999999998
 30
0.0
 40
7.5
 50
180.0
 51
0.0
  0
LINE
  5
15C9
  8
DETAIL
  6
CONTINUOUS
 62
     5
 10
39.9999849999999
 20
13.0
 30
0.0
 11
39.9999849999999
 21
-11.99999999999998
 31
0.0
  0
LINE
  5
15CA
  8
DETAIL
  6
CONTINUOUS
 62
     5
 10
24.99998500000001
 20
13.0
 30
0.0
 11
24.99998500000001
 21
-11.99999999999998
 31
0.0
  0
LINE
  5
15CB
  8
DETAIL
  6
CONTINUOUS
 62
     5
 10
39.9999849999999
 20
-30.99999999999999
 30
0.0
 11
39.9999849999999
 21
-56.0
 31
0.0
  0
ARC
  5
15CC
  8
DETAIL
  6
CONTINUOUS
 62
     5
 10
32.49998500000001
 20
-30.99999999999999
 30
0.0
 40
7.5
 50
0.0
 51
180.0
  0
ARC
  5
15CD
  8
DETAIL
  6
CONTINUOUS
 62
     5
 10
32.49998500000001
 20
-56.0
 30
0.0
 40
7.5
 50
180.0
 51
0.0
  0
LINE
  5
15CE
  8
DETAIL
  6
CONTINUOUS
 62
     5
 10
39.9999849999999
 20
-30.99999999999999
 30
0.0
 11
39.9999849999999
 21
-56.0
 31
0.0
  0
LINE
  5
15CF
  8
DETAIL
  6
CONTINUOUS
 62
     5
 10
24.99998500000001
 20
-30.99999999999999
 30
0.0
 11
24.99998500000001
 21
-56.0
 31
0.0
  0
LINE
  5
15D0
  8
DETAIL
  6
CONTINUOUS
 62
     5
 10
-15.0000150000001
 20
-30.99999999999999
 30
0.0
 11
-15.0000150000001
 21
-56.0
 31
0.0
  0
LINE
  5
15D1
  8
DETAIL
  6
CONTINUOUS
 62
     5
 10
-0.0000149999999906
 20
-30.99999999999999
 30
0.0
 11
-0.0000149999999906
 21
-56.0
 31
0.0
  0
ARC
  5
15D2
  8
DETAIL
  6
CONTINUOUS
 62
     5
 10
-7.500015000000104
 20
-56.0
 30
0.0
 40
7.5
 50
180.0
 51
0.0
  0
ARC
  5
15D3
  8
DETAIL
  6
CONTINUOUS
 62
     5
 10
-7.500015000000104
 20
-30.99999999999999
 30
0.0
 40
7.5
 50
0.0
 51
180.0
  0
LINE
  5
15D4
  8
DETAIL
  6
CONTINUOUS
 62
     5
 10
-0.0000149999999906
 20
-30.99999999999999
 30
0.0
 11
-0.0000149999999906
 21
-56.0
 31
0.0
  0
LINE
  5
15D5
  8
DETAIL
  6
CONTINUOUS
 62
     5
 10
-15.0000150000001
 20
13.0
 30
0.0
 11
-15.0000150000001
 21
-11.99999999999998
 31
0.0
  0
LINE
  5
15D6
  8
DETAIL
  6
CONTINUOUS
 62
     5
 10
-0.0000149999999906
 20
13.0
 30
0.0
 11
-0.0000149999999906
 21
-11.99999999999998
 31
0.0
  0
ARC
  5
15D7
  8
DETAIL
  6
CONTINUOUS
 62
     5
 10
-7.500015000000104
 20
-11.99999999999998
 30
0.0
 40
7.5
 50
180.0
 51
0.0
  0
ARC
  5
15D8
  8
DETAIL
  6
CONTINUOUS
 62
     5
 10
-7.500015000000104
 20
13.0
 30
0.0
 40
7.5
 50
0.0
 51
180.0
  0
LINE
  5
15D9
  8
DETAIL
  6
CONTINUOUS
 62
     5
 10
-0.0000149999999906
 20
13.0
 30
0.0
 11
-0.0000149999999906
 21
-11.99999999999998
 31
0.0
  0
LINE
  5
15DA
  8
DETAIL
  6
CONTINUOUS
 62
     5
 10
-0.0000149999999906
 20
57.0
 30
0.0
 11
-0.0000149999999906
 21
31.99999999999999
 31
0.0
  0
ARC
  5
15DB
  8
DETAIL
  6
CONTINUOUS
 62
     5
 10
-7.500015000000104
 20
57.0
 30
0.0
 40
7.5
 50
0.0
 51
180.0
  0
ARC
  5
15DC
  8
DETAIL
  6
CONTINUOUS
 62
     5
 10
-7.500015000000104
 20
31.99999999999999
 30
0.0
 40
7.5
 50
180.0
 51
0.0
  0
LINE
  5
15DD
  8
DETAIL
  6
CONTINUOUS
 62
     5
 10
-0.0000149999999906
 20
57.0
 30
0.0
 11
-0.0000149999999906
 21
31.99999999999999
 31
0.0
  0
LINE
  5
15DE
  8
DETAIL
  6
CONTINUOUS
 62
     5
 10
-15.0000150000001
 20
57.0
 30
0.0
 11
-15.0000150000001
 21
31.99999999999999
 31
0.0
  0
LINE
  5
15DF
  8
DETAIL
  6
CONTINUOUS
 62
     5
 10
-135.0209
 20
57.0
 30
0.0
 11
-135.0209
 21
31.99999999999999
 31
0.0
  0
LINE
  5
15E0
  8
DETAIL
  6
CONTINUOUS
 62
     5
 10
-120.0208999999999
 20
57.0
 30
0.0
 11
-120.0208999999999
 21
31.99999999999999
 31
0.0
  0
ARC
  5
15E1
  8
DETAIL
  6
CONTINUOUS
 62
     5
 10
-127.5208999999999
 20
31.99999999999999
 30
0.0
 40
7.5
 50
180.0
 51
0.0
  0
ARC
  5
15E2
  8
DETAIL
  6
CONTINUOUS
 62
     5
 10
-127.5208999999999
 20
57.0
 30
0.0
 40
7.5
 50
0.0
 51
180.0
  0
LINE
  5
15E3
  8
DETAIL
  6
CONTINUOUS
 62
     5
 10
-120.0208999999999
 20
57.0
 30
0.0
 11
-120.0208999999999
 21
31.99999999999999
 31
0.0
  0
LINE
  5
15E4
  8
DETAIL
  6
CONTINUOUS
 62
     5
 10
-120.0208999999999
 20
13.0
 30
0.0
 11
-120.0208999999999
 21
-11.99999999999998
 31
0.0
  0
ARC
  5
15E5
  8
DETAIL
  6
CONTINUOUS
 62
     5
 10
-127.5208999999999
 20
13.0
 30
0.0
 40
7.5
 50
0.0
 51
180.0
  0
ARC
  5
15E6
  8
DETAIL
  6
CONTINUOUS
 62
     5
 10
-127.5208999999999
 20
-11.99999999999998
 30
0.0
 40
7.5
 50
180.0
 51
0.0
  0
LINE
  5
15E7
  8
DETAIL
  6
CONTINUOUS
 62
     5
 10
-120.0208999999999
 20
13.0
 30
0.0
 11
-120.0208999999999
 21
-11.99999999999998
 31
0.0
  0
LINE
  5
15E8
  8
DETAIL
  6
CONTINUOUS
 62
     5
 10
-135.0209
 20
13.0
 30
0.0
 11
-135.0209
 21
-11.99999999999998
 31
0.0
  0
LINE
  5
15E9
  8
DETAIL
  6
CONTINUOUS
 62
     5
 10
-120.0208999999999
 20
-30.99999999999999
 30
0.0
 11
-120.0208999999999
 21
-56.0
 31
0.0
  0
ARC
  5
15EA
  8
DETAIL
  6
CONTINUOUS
 62
     5
 10
-127.5208999999999
 20
-30.99999999999999
 30
0.0
 40
7.5
 50
0.0
 51
180.0
  0
ARC
  5
15EB
  8
DETAIL
  6
CONTINUOUS
 62
     5
 10
-127.5208999999999
 20
-56.0
 30
0.0
 40
7.5
 50
180.0
 51
0.0
  0
LINE
  5
15EC
  8
DETAIL
  6
CONTINUOUS
 62
     5
 10
-120.0208999999999
 20
-30.99999999999999
 30
0.0
 11
-120.0208999999999
 21
-56.0
 31
0.0
  0
LINE
  5
15ED
  8
DETAIL
  6
CONTINUOUS
 62
     5
 10
-135.0209
 20
-30.99999999999999
 30
0.0
 11
-135.0209
 21
-56.0
 31
0.0
  0
LINE
  5
15EE
  8
DETAIL
  6
CONTINUOUS
 62
     5
 10
-95.0209000000001
 20
-30.99999999999999
 30
0.0
 11
-95.0209000000001
 21
-56.0
 31
0.0
  0
LINE
  5
15EF
  8
DETAIL
  6
CONTINUOUS
 62
     5
 10
-80.02089999999998
 20
-30.99999999999999
 30
0.0
 11
-80.02089999999998
 21
-56.0
 31
0.0
  0
ARC
  5
15F0
  8
DETAIL
  6
CONTINUOUS
 62
     5
 10
-87.5209000000001
 20
-56.0
 30
0.0
 40
7.5
 50
180.0
 51
0.0
  0
ARC
  5
15F1
  8
DETAIL
  6
CONTINUOUS
 62
     5
 10
-87.5209000000001
 20
-30.99999999999999
 30
0.0
 40
7.5
 50
0.0
 51
180.0
  0
LINE
  5
15F2
  8
DETAIL
  6
CONTINUOUS
 62
     5
 10
-80.02089999999998
 20
-30.99999999999999
 30
0.0
 11
-80.02089999999998
 21
-56.0
 31
0.0
  0
LINE
  5
15F3
  8
DETAIL
  6
CONTINUOUS
 62
     5
 10
-95.0209000000001
 20
13.0
 30
0.0
 11
-95.0209000000001
 21
-11.99999999999998
 31
0.0
  0
LINE
  5
15F4
  8
DETAIL
  6
CONTINUOUS
 62
     5
 10
-80.02089999999998
 20
13.0
 30
0.0
 11
-80.02089999999998
 21
-11.99999999999998
 31
0.0
  0
ARC
  5
15F5
  8
DETAIL
  6
CONTINUOUS
 62
     5
 10
-87.5209000000001
 20
-11.99999999999998
 30
0.0
 40
7.5
 50
180.0
 51
0.0
  0
ARC
  5
15F6
  8
DETAIL
  6
CONTINUOUS
 62
     5
 10
-87.5209000000001
 20
13.0
 30
0.0
 40
7.5
 50
0.0
 51
180.0
  0
LINE
  5
15F7
  8
DETAIL
  6
CONTINUOUS
 62
     5
 10
-80.02089999999998
 20
13.0
 30
0.0
 11
-80.02089999999998
 21
-11.99999999999998
 31
0.0
  0
LINE
  5
15F8
  8
DETAIL
  6
CONTINUOUS
 62
     5
 10
-80.02089999999998
 20
57.0
 30
0.0
 11
-80.02089999999998
 21
31.99999999999999
 31
0.0
  0
ARC
  5
15F9
  8
DETAIL
  6
CONTINUOUS
 62
     5
 10
-87.5209000000001
 20
57.0
 30
0.0
 40
7.5
 50
0.0
 51
180.0
  0
ARC
  5
15FA
  8
DETAIL
  6
CONTINUOUS
 62
     5
 10
-87.5209000000001
 20
31.99999999999999
 30
0.0
 40
7.5
 50
180.0
 51
0.0
  0
LINE
  5
15FB
  8
DETAIL
  6
CONTINUOUS
 62
     5
 10
-80.02089999999998
 20
57.0
 30
0.0
 11
-80.02089999999998
 21
31.99999999999999
 31
0.0
  0
LINE
  5
15FC
  8
DETAIL
  6
CONTINUOUS
 62
     5
 10
-95.0209000000001
 20
57.0
 30
0.0
 11
-95.0209000000001
 21
31.99999999999999
 31
0.0
  0
LINE
  5
15FD
  8
DETAIL
  6
CONTINUOUS
 62
     5
 10
-115.0208999999999
 20
57.0
 30
0.0
 11
-115.0208999999999
 21
31.99999999999999
 31
0.0
  0
LINE
  5
15FE
  8
DETAIL
  6
CONTINUOUS
 62
     5
 10
-100.0208999999999
 20
57.0
 30
0.0
 11
-100.0208999999999
 21
31.99999999999999
 31
0.0
  0
ARC
  5
15FF
  8
DETAIL
  6
CONTINUOUS
 62
     5
 10
-107.5209000000001
 20
31.99999999999999
 30
0.0
 40
7.5
 50
180.0
 51
0.0
  0
ARC
  5
1600
  8
DETAIL
  6
CONTINUOUS
 62
     5
 10
-107.5209000000001
 20
57.0
 30
0.0
 40
7.5
 50
0.0
 51
180.0
  0
LINE
  5
1601
  8
DETAIL
  6
CONTINUOUS
 62
     5
 10
-100.0208999999999
 20
57.0
 30
0.0
 11
-100.0208999999999
 21
31.99999999999999
 31
0.0
  0
LINE
  5
1602
  8
DETAIL
  6
CONTINUOUS
 62
     5
 10
-100.0208999999999
 20
13.0
 30
0.0
 11
-100.0208999999999
 21
-11.99999999999998
 31
0.0
  0
ARC
  5
1603
  8
DETAIL
  6
CONTINUOUS
 62
     5
 10
-107.5209000000001
 20
13.0
 30
0.0
 40
7.5
 50
0.0
 51
180.0
  0
ARC
  5
1604
  8
DETAIL
  6
CONTINUOUS
 62
     5
 10
-107.5209000000001
 20
-11.99999999999998
 30
0.0
 40
7.5
 50
180.0
 51
0.0
  0
LINE
  5
1605
  8
DETAIL
  6
CONTINUOUS
 62
     5
 10
-100.0208999999999
 20
13.0
 30
0.0
 11
-100.0208999999999
 21
-11.99999999999998
 31
0.0
  0
LINE
  5
1606
  8
DETAIL
  6
CONTINUOUS
 62
     5
 10
-115.0208999999999
 20
13.0
 30
0.0
 11
-115.0208999999999
 21
-11.99999999999998
 31
0.0
  0
LINE
  5
1607
  8
DETAIL
  6
CONTINUOUS
 62
     5
 10
-100.0208999999999
 20
-30.99999999999999
 30
0.0
 11
-100.0208999999999
 21
-56.0
 31
0.0
  0
ARC
  5
1608
  8
DETAIL
  6
CONTINUOUS
 62
     5
 10
-107.5209000000001
 20
-30.99999999999999
 30
0.0
 40
7.5
 50
0.0
 51
180.0
  0
ARC
  5
1609
  8
DETAIL
  6
CONTINUOUS
 62
     5
 10
-107.5209000000001
 20
-56.0
 30
0.0
 40
7.5
 50
180.0
 51
0.0
  0
LINE
  5
160A
  8
DETAIL
  6
CONTINUOUS
 62
     5
 10
-100.0208999999999
 20
-30.99999999999999
 30
0.0
 11
-100.0208999999999
 21
-56.0
 31
0.0
  0
LINE
  5
160B
  8
DETAIL
  6
CONTINUOUS
 62
     5
 10
-115.0208999999999
 20
-30.99999999999999
 30
0.0
 11
-115.0208999999999
 21
-56.0
 31
0.0
  0
LINE
  5
160C
  8
DETAIL
  6
CONTINUOUS
 62
     5
 10
-175.0209
 20
-30.99999999999999
 30
0.0
 11
-175.0209
 21
-56.0
 31
0.0
  0
LINE
  5
160D
  8
DETAIL
  6
CONTINUOUS
 62
     5
 10
-160.0209
 20
-30.99999999999999
 30
0.0
 11
-160.0209
 21
-56.0
 31
0.0
  0
ARC
  5
160E
  8
DETAIL
  6
CONTINUOUS
 62
     5
 10
-167.5209
 20
-56.0
 30
0.0
 40
7.5
 50
180.0
 51
0.0
  0
ARC
  5
160F
  8
DETAIL
  6
CONTINUOUS
 62
     5
 10
-167.5209
 20
-30.99999999999999
 30
0.0
 40
7.5
 50
0.0
 51
180.0
  0
LINE
  5
1610
  8
DETAIL
  6
CONTINUOUS
 62
     5
 10
-160.0209
 20
-30.99999999999999
 30
0.0
 11
-160.0209
 21
-56.0
 31
0.0
  0
LINE
  5
1611
  8
DETAIL
  6
CONTINUOUS
 62
     5
 10
-175.0209
 20
13.0
 30
0.0
 11
-175.0209
 21
-11.99999999999998
 31
0.0
  0
LINE
  5
1612
  8
DETAIL
  6
CONTINUOUS
 62
     5
 10
-160.0209
 20
13.0
 30
0.0
 11
-160.0209
 21
-11.99999999999998
 31
0.0
  0
ARC
  5
1613
  8
DETAIL
  6
CONTINUOUS
 62
     5
 10
-167.5209
 20
-11.99999999999998
 30
0.0
 40
7.5
 50
180.0
 51
0.0
  0
ARC
  5
1614
  8
DETAIL
  6
CONTINUOUS
 62
     5
 10
-167.5209
 20
13.0
 30
0.0
 40
7.5
 50
0.0
 51
180.0
  0
LINE
  5
1615
  8
DETAIL
  6
CONTINUOUS
 62
     5
 10
-160.0209
 20
13.0
 30
0.0
 11
-160.0209
 21
-11.99999999999998
 31
0.0
  0
LINE
  5
1616
  8
DETAIL
  6
CONTINUOUS
 62
     5
 10
-160.0209
 20
57.0
 30
0.0
 11
-160.0209
 21
31.99999999999999
 31
0.0
  0
ARC
  5
1617
  8
DETAIL
  6
CONTINUOUS
 62
     5
 10
-167.5209
 20
57.0
 30
0.0
 40
7.5
 50
0.0
 51
180.0
  0
ARC
  5
1618
  8
DETAIL
  6
CONTINUOUS
 62
     5
 10
-167.5209
 20
31.99999999999999
 30
0.0
 40
7.5
 50
180.0
 51
0.0
  0
LINE
  5
1619
  8
DETAIL
  6
CONTINUOUS
 62
     5
 10
-160.0209
 20
57.0
 30
0.0
 11
-160.0209
 21
31.99999999999999
 31
0.0
  0
LINE
  5
161A
  8
DETAIL
  6
CONTINUOUS
 62
     5
 10
-175.0209
 20
57.0
 30
0.0
 11
-175.0209
 21
31.99999999999999
 31
0.0
  0
LINE
  5
161B
  8
DETAIL
  6
CONTINUOUS
 62
     5
 10
-155.0209
 20
57.0
 30
0.0
 11
-155.0209
 21
31.99999999999999
 31
0.0
  0
LINE
  5
161C
  8
DETAIL
  6
CONTINUOUS
 62
     5
 10
-140.0209
 20
57.0
 30
0.0
 11
-140.0209
 21
31.99999999999999
 31
0.0
  0
ARC
  5
161D
  8
DETAIL
  6
CONTINUOUS
 62
     5
 10
-147.5209
 20
31.99999999999999
 30
0.0
 40
7.5
 50
180.0
 51
0.0
  0
ARC
  5
161E
  8
DETAIL
  6
CONTINUOUS
 62
     5
 10
-147.5209
 20
57.0
 30
0.0
 40
7.5
 50
0.0
 51
180.0
  0
LINE
  5
161F
  8
DETAIL
  6
CONTINUOUS
 62
     5
 10
-140.0209
 20
57.0
 30
0.0
 11
-140.0209
 21
31.99999999999999
 31
0.0
  0
LINE
  5
1620
  8
DETAIL
  6
CONTINUOUS
 62
     5
 10
-140.0209
 20
13.0
 30
0.0
 11
-140.0209
 21
-11.99999999999998
 31
0.0
  0
ARC
  5
1621
  8
DETAIL
  6
CONTINUOUS
 62
     5
 10
-147.5209
 20
13.0
 30
0.0
 40
7.5
 50
0.0
 51
180.0
  0
ARC
  5
1622
  8
DETAIL
  6
CONTINUOUS
 62
     5
 10
-147.5209
 20
-11.99999999999998
 30
0.0
 40
7.5
 50
180.0
 51
0.0
  0
LINE
  5
1623
  8
DETAIL
  6
CONTINUOUS
 62
     5
 10
-140.0209
 20
13.0
 30
0.0
 11
-140.0209
 21
-11.99999999999998
 31
0.0
  0
LINE
  5
1624
  8
DETAIL
  6
CONTINUOUS
 62
     5
 10
-155.0209
 20
13.0
 30
0.0
 11
-155.0209
 21
-11.99999999999998
 31
0.0
  0
LINE
  5
1625
  8
DETAIL
  6
CONTINUOUS
 62
     5
 10
-140.0209
 20
-30.99999999999999
 30
0.0
 11
-140.0209
 21
-56.0
 31
0.0
  0
ARC
  5
1626
  8
DETAIL
  6
CONTINUOUS
 62
     5
 10
-147.5209
 20
-30.99999999999999
 30
0.0
 40
7.5
 50
0.0
 51
180.0
  0
ARC
  5
1627
  8
DETAIL
  6
CONTINUOUS
 62
     5
 10
-147.5209
 20
-56.0
 30
0.0
 40
7.5
 50
180.0
 51
0.0
  0
LINE
  5
1628
  8
DETAIL
  6
CONTINUOUS
 62
     5
 10
-140.0209
 20
-30.99999999999999
 30
0.0
 11
-140.0209
 21
-56.0
 31
0.0
  0
LINE
  5
1629
  8
DETAIL
  6
CONTINUOUS
 62
     5
 10
-155.0209
 20
-30.99999999999999
 30
0.0
 11
-155.0209
 21
-56.0
 31
0.0
  0
LINE
  5
162A
  8
DETAIL
  6
CONTINUOUS
 62
     5
 10
-195.0209
 20
-30.99999999999999
 30
0.0
 11
-195.0209
 21
-56.0
 31
0.0
  0
LINE
  5
162B
  8
DETAIL
  6
CONTINUOUS
 62
     5
 10
-180.0209
 20
-30.99999999999999
 30
0.0
 11
-180.0209
 21
-56.0
 31
0.0
  0
ARC
  5
162C
  8
DETAIL
  6
CONTINUOUS
 62
     5
 10
-187.5209
 20
-56.0
 30
0.0
 40
7.5
 50
180.0
 51
0.0
  0
ARC
  5
162D
  8
DETAIL
  6
CONTINUOUS
 62
     5
 10
-187.5209
 20
-30.99999999999999
 30
0.0
 40
7.5
 50
0.0
 51
180.0
  0
LINE
  5
162E
  8
DETAIL
  6
CONTINUOUS
 62
     5
 10
-180.0209
 20
-30.99999999999999
 30
0.0
 11
-180.0209
 21
-56.0
 31
0.0
  0
LINE
  5
162F
  8
DETAIL
  6
CONTINUOUS
 62
     5
 10
-195.0209
 20
13.0
 30
0.0
 11
-195.0209
 21
-11.99999999999998
 31
0.0
  0
LINE
  5
1630
  8
DETAIL
  6
CONTINUOUS
 62
     5
 10
-180.0209
 20
13.0
 30
0.0
 11
-180.0209
 21
-11.99999999999998
 31
0.0
  0
ARC
  5
1631
  8
DETAIL
  6
CONTINUOUS
 62
     5
 10
-187.5209
 20
-11.99999999999998
 30
0.0
 40
7.5
 50
180.0
 51
0.0
  0
ARC
  5
1632
  8
DETAIL
  6
CONTINUOUS
 62
     5
 10
-187.5209
 20
13.0
 30
0.0
 40
7.5
 50
0.0
 51
180.0
  0
LINE
  5
1633
  8
DETAIL
  6
CONTINUOUS
 62
     5
 10
-180.0209
 20
13.0
 30
0.0
 11
-180.0209
 21
-11.99999999999998
 31
0.0
  0
ARC
  5
1634
  8
DETAIL
  6
CONTINUOUS
 62
     5
 10
-207.5209
 20
-56.0
 30
0.0
 40
7.5
 50
180.0
 51
0.0
  0
ARC
  5
1635
  8
DETAIL
  6
CONTINUOUS
 62
     5
 10
-207.5209
 20
-30.99999999999999
 30
0.0
 40
7.5
 50
0.0
 51
180.0
  0
LINE
  5
1636
  8
DETAIL
  6
CONTINUOUS
 62
     5
 10
-200.0209
 20
-30.99999999999999
 30
0.0
 11
-200.0209
 21
-56.0
 31
0.0
  0
LINE
  5
1637
  8
DETAIL
  6
CONTINUOUS
 62
     5
 10
-200.0209
 20
13.0
 30
0.0
 11
-200.0209
 21
-11.99999999999998
 31
0.0
  0
ARC
  5
1638
  8
DETAIL
  6
CONTINUOUS
 62
     5
 10
-207.5209
 20
13.0
 30
0.0
 40
7.5
 50
0.0
 51
180.0
  0
ARC
  5
1639
  8
DETAIL
  6
CONTINUOUS
 62
     5
 10
-207.5209
 20
-11.99999999999998
 30
0.0
 40
7.5
 50
180.0
 51
0.0
  0
LINE
  5
163A
  8
DETAIL
  6
CONTINUOUS
 62
     5
 10
-180.0209
 20
57.0
 30
0.0
 11
-180.0209
 21
31.99999999999999
 31
0.0
  0
ARC
  5
163B
  8
DETAIL
  6
CONTINUOUS
 62
     5
 10
-187.5209
 20
57.0
 30
0.0
 40
7.5
 50
0.0
 51
180.0
  0
ARC
  5
163C
  8
DETAIL
  6
CONTINUOUS
 62
     5
 10
-187.5209
 20
31.99999999999999
 30
0.0
 40
7.5
 50
180.0
 51
0.0
  0
ARC
  5
163D
  8
DETAIL
  6
CONTINUOUS
 62
     5
 10
-207.5209
 20
31.99999999999999
 30
0.0
 40
7.5
 50
180.0
 51
0.0
  0
ARC
  5
163E
  8
DETAIL
  6
CONTINUOUS
 62
     5
 10
-207.5209
 20
57.0
 30
0.0
 40
7.5
 50
0.0
 51
180.0
  0
LINE
  5
163F
  8
DETAIL
  6
CONTINUOUS
 62
     5
 10
-180.0209
 20
57.0
 30
0.0
 11
-180.0209
 21
31.99999999999999
 31
0.0
  0
LINE
  5
1640
  8
DETAIL
  6
CONTINUOUS
 62
     5
 10
-195.0209
 20
57.0
 30
0.0
 11
-195.0209
 21
31.99999999999999
 31
0.0
  0
LINE
  5
1641
  8
DETAIL
  6
CONTINUOUS
 62
     5
 10
-200.0209
 20
57.0
 30
0.0
 11
-200.0209
 21
31.99999999999999
 31
0.0
  0
LINE
  5
1642
  8
DETAIL
  6
CONTINUOUS
 62
     5
 10
-200.0209
 20
-86.0
 30
0.0
 11
-200.0209
 21
-110.9999999999999
 31
0.0
  0
LINE
  5
1643
  8
DETAIL
  6
CONTINUOUS
 62
     5
 10
-195.0209
 20
-86.0
 30
0.0
 11
-195.0209
 21
-110.9999999999999
 31
0.0
  0
LINE
  5
1644
  8
DETAIL
  6
CONTINUOUS
 62
     5
 10
-180.0209
 20
-86.0
 30
0.0
 11
-180.0209
 21
-110.9999999999999
 31
0.0
  0
ARC
  5
1645
  8
DETAIL
  6
CONTINUOUS
 62
     5
 10
-207.5209
 20
-86.0
 30
0.0
 40
7.5
 50
0.0
 51
180.0
  0
ARC
  5
1646
  8
DETAIL
  6
CONTINUOUS
 62
     5
 10
-207.5209
 20
-110.9999999999999
 30
0.0
 40
7.5
 50
180.0
 51
0.0
  0
ARC
  5
1647
  8
DETAIL
  6
CONTINUOUS
 62
     5
 10
-187.5209
 20
-110.9999999999999
 30
0.0
 40
7.5
 50
180.0
 51
0.0
  0
ARC
  5
1648
  8
DETAIL
  6
CONTINUOUS
 62
     5
 10
-187.5209
 20
-86.0
 30
0.0
 40
7.5
 50
0.0
 51
180.0
  0
LINE
  5
1649
  8
DETAIL
  6
CONTINUOUS
 62
     5
 10
-180.0209
 20
-86.0
 30
0.0
 11
-180.0209
 21
-110.9999999999999
 31
0.0
  0
ARC
  5
164A
  8
DETAIL
  6
CONTINUOUS
 62
     5
 10
-207.5209
 20
-154.9999999999999
 30
0.0
 40
7.5
 50
180.0
 51
0.0
  0
ARC
  5
164B
  8
DETAIL
  6
CONTINUOUS
 62
     5
 10
-207.5209
 20
-129.9999999999999
 30
0.0
 40
7.5
 50
0.0
 51
180.0
  0
LINE
  5
164C
  8
DETAIL
  6
CONTINUOUS
 62
     5
 10
-200.0209
 20
-129.9999999999999
 30
0.0
 11
-200.0209
 21
-154.9999999999999
 31
0.0
  0
LINE
  5
164D
  8
DETAIL
  6
CONTINUOUS
 62
     5
 10
-200.0209
 20
-173.9999999999999
 30
0.0
 11
-200.0209
 21
-198.9999999999999
 31
0.0
  0
ARC
  5
164E
  8
DETAIL
  6
CONTINUOUS
 62
     5
 10
-207.5209
 20
-173.9999999999999
 30
0.0
 40
7.5
 50
0.0
 51
180.0
  0
ARC
  5
164F
  8
DETAIL
  6
CONTINUOUS
 62
     5
 10
-207.5209
 20
-198.9999999999999
 30
0.0
 40
7.5
 50
180.0
 51
0.0
  0
LINE
  5
1650
  8
DETAIL
  6
CONTINUOUS
 62
     5
 10
-180.0209
 20
-129.9999999999999
 30
0.0
 11
-180.0209
 21
-154.9999999999999
 31
0.0
  0
ARC
  5
1651
  8
DETAIL
  6
CONTINUOUS
 62
     5
 10
-187.5209
 20
-129.9999999999999
 30
0.0
 40
7.5
 50
0.0
 51
180.0
  0
ARC
  5
1652
  8
DETAIL
  6
CONTINUOUS
 62
     5
 10
-187.5209
 20
-154.9999999999999
 30
0.0
 40
7.5
 50
180.0
 51
0.0
  0
LINE
  5
1653
  8
DETAIL
  6
CONTINUOUS
 62
     5
 10
-180.0209
 20
-129.9999999999999
 30
0.0
 11
-180.0209
 21
-154.9999999999999
 31
0.0
  0
LINE
  5
1654
  8
DETAIL
  6
CONTINUOUS
 62
     5
 10
-195.0209
 20
-129.9999999999999
 30
0.0
 11
-195.0209
 21
-154.9999999999999
 31
0.0
  0
LINE
  5
1655
  8
DETAIL
  6
CONTINUOUS
 62
     5
 10
-180.0209
 20
-173.9999999999999
 30
0.0
 11
-180.0209
 21
-198.9999999999999
 31
0.0
  0
ARC
  5
1656
  8
DETAIL
  6
CONTINUOUS
 62
     5
 10
-187.5209
 20
-173.9999999999999
 30
0.0
 40
7.5
 50
0.0
 51
180.0
  0
ARC
  5
1657
  8
DETAIL
  6
CONTINUOUS
 62
     5
 10
-187.5209
 20
-198.9999999999999
 30
0.0
 40
7.5
 50
180.0
 51
0.0
  0
LINE
  5
1658
  8
DETAIL
  6
CONTINUOUS
 62
     5
 10
-180.0209
 20
-173.9999999999999
 30
0.0
 11
-180.0209
 21
-198.9999999999999
 31
0.0
  0
LINE
  5
1659
  8
DETAIL
  6
CONTINUOUS
 62
     5
 10
-195.0209
 20
-173.9999999999999
 30
0.0
 11
-195.0209
 21
-198.9999999999999
 31
0.0
  0
LINE
  5
165A
  8
DETAIL
  6
CONTINUOUS
 62
     5
 10
-155.0209
 20
-173.9999999999999
 30
0.0
 11
-155.0209
 21
-198.9999999999999
 31
0.0
  0
LINE
  5
165B
  8
DETAIL
  6
CONTINUOUS
 62
     5
 10
-140.0209
 20
-173.9999999999999
 30
0.0
 11
-140.0209
 21
-198.9999999999999
 31
0.0
  0
ARC
  5
165C
  8
DETAIL
  6
CONTINUOUS
 62
     5
 10
-147.5209
 20
-198.9999999999999
 30
0.0
 40
7.5
 50
180.0
 51
0.0
  0
ARC
  5
165D
  8
DETAIL
  6
CONTINUOUS
 62
     5
 10
-147.5209
 20
-173.9999999999999
 30
0.0
 40
7.5
 50
0.0
 51
180.0
  0
LINE
  5
165E
  8
DETAIL
  6
CONTINUOUS
 62
     5
 10
-140.0209
 20
-173.9999999999999
 30
0.0
 11
-140.0209
 21
-198.9999999999999
 31
0.0
  0
LINE
  5
165F
  8
DETAIL
  6
CONTINUOUS
 62
     5
 10
-155.0209
 20
-129.9999999999999
 30
0.0
 11
-155.0209
 21
-154.9999999999999
 31
0.0
  0
LINE
  5
1660
  8
DETAIL
  6
CONTINUOUS
 62
     5
 10
-140.0209
 20
-129.9999999999999
 30
0.0
 11
-140.0209
 21
-154.9999999999999
 31
0.0
  0
ARC
  5
1661
  8
DETAIL
  6
CONTINUOUS
 62
     5
 10
-147.5209
 20
-154.9999999999999
 30
0.0
 40
7.5
 50
180.0
 51
0.0
  0
ARC
  5
1662
  8
DETAIL
  6
CONTINUOUS
 62
     5
 10
-147.5209
 20
-129.9999999999999
 30
0.0
 40
7.5
 50
0.0
 51
180.0
  0
LINE
  5
1663
  8
DETAIL
  6
CONTINUOUS
 62
     5
 10
-140.0209
 20
-129.9999999999999
 30
0.0
 11
-140.0209
 21
-154.9999999999999
 31
0.0
  0
LINE
  5
1664
  8
DETAIL
  6
CONTINUOUS
 62
     5
 10
-140.0209
 20
-86.0
 30
0.0
 11
-140.0209
 21
-110.9999999999999
 31
0.0
  0
ARC
  5
1665
  8
DETAIL
  6
CONTINUOUS
 62
     5
 10
-147.5209
 20
-86.0
 30
0.0
 40
7.5
 50
0.0
 51
180.0
  0
ARC
  5
1666
  8
DETAIL
  6
CONTINUOUS
 62
     5
 10
-147.5209
 20
-110.9999999999999
 30
0.0
 40
7.5
 50
180.0
 51
0.0
  0
LINE
  5
1667
  8
DETAIL
  6
CONTINUOUS
 62
     5
 10
-140.0209
 20
-86.0
 30
0.0
 11
-140.0209
 21
-110.9999999999999
 31
0.0
  0
LINE
  5
1668
  8
DETAIL
  6
CONTINUOUS
 62
     5
 10
-155.0209
 20
-86.0
 30
0.0
 11
-155.0209
 21
-110.9999999999999
 31
0.0
  0
LINE
  5
1669
  8
DETAIL
  6
CONTINUOUS
 62
     5
 10
-175.0209
 20
-86.0
 30
0.0
 11
-175.0209
 21
-110.9999999999999
 31
0.0
  0
LINE
  5
166A
  8
DETAIL
  6
CONTINUOUS
 62
     5
 10
-160.0209
 20
-86.0
 30
0.0
 11
-160.0209
 21
-110.9999999999999
 31
0.0
  0
ARC
  5
166B
  8
DETAIL
  6
CONTINUOUS
 62
     5
 10
-167.5209
 20
-110.9999999999999
 30
0.0
 40
7.5
 50
180.0
 51
0.0
  0
ARC
  5
166C
  8
DETAIL
  6
CONTINUOUS
 62
     5
 10
-167.5209
 20
-86.0
 30
0.0
 40
7.5
 50
0.0
 51
180.0
  0
LINE
  5
166D
  8
DETAIL
  6
CONTINUOUS
 62
     5
 10
-160.0209
 20
-86.0
 30
0.0
 11
-160.0209
 21
-110.9999999999999
 31
0.0
  0
LINE
  5
166E
  8
DETAIL
  6
CONTINUOUS
 62
     5
 10
-160.0209
 20
-129.9999999999999
 30
0.0
 11
-160.0209
 21
-154.9999999999999
 31
0.0
  0
ARC
  5
166F
  8
DETAIL
  6
CONTINUOUS
 62
     5
 10
-167.5209
 20
-129.9999999999999
 30
0.0
 40
7.5
 50
0.0
 51
180.0
  0
ARC
  5
1670
  8
DETAIL
  6
CONTINUOUS
 62
     5
 10
-167.5209
 20
-154.9999999999999
 30
0.0
 40
7.5
 50
180.0
 51
0.0
  0
LINE
  5
1671
  8
DETAIL
  6
CONTINUOUS
 62
     5
 10
-160.0209
 20
-129.9999999999999
 30
0.0
 11
-160.0209
 21
-154.9999999999999
 31
0.0
  0
LINE
  5
1672
  8
DETAIL
  6
CONTINUOUS
 62
     5
 10
-175.0209
 20
-129.9999999999999
 30
0.0
 11
-175.0209
 21
-154.9999999999999
 31
0.0
  0
LINE
  5
1673
  8
DETAIL
  6
CONTINUOUS
 62
     5
 10
-160.0209
 20
-173.9999999999999
 30
0.0
 11
-160.0209
 21
-198.9999999999999
 31
0.0
  0
ARC
  5
1674
  8
DETAIL
  6
CONTINUOUS
 62
     5
 10
-167.5209
 20
-173.9999999999999
 30
0.0
 40
7.5
 50
0.0
 51
180.0
  0
ARC
  5
1675
  8
DETAIL
  6
CONTINUOUS
 62
     5
 10
-167.5209
 20
-198.9999999999999
 30
0.0
 40
7.5
 50
180.0
 51
0.0
  0
LINE
  5
1676
  8
DETAIL
  6
CONTINUOUS
 62
     5
 10
-160.0209
 20
-173.9999999999999
 30
0.0
 11
-160.0209
 21
-198.9999999999999
 31
0.0
  0
LINE
  5
1677
  8
DETAIL
  6
CONTINUOUS
 62
     5
 10
-175.0209
 20
-173.9999999999999
 30
0.0
 11
-175.0209
 21
-198.9999999999999
 31
0.0
  0
LINE
  5
1678
  8
DETAIL
  6
CONTINUOUS
 62
     5
 10
-115.0208999999999
 20
-173.9999999999999
 30
0.0
 11
-115.0208999999999
 21
-198.9999999999999
 31
0.0
  0
LINE
  5
1679
  8
DETAIL
  6
CONTINUOUS
 62
     5
 10
-100.0208999999999
 20
-173.9999999999999
 30
0.0
 11
-100.0208999999999
 21
-198.9999999999999
 31
0.0
  0
ARC
  5
167A
  8
DETAIL
  6
CONTINUOUS
 62
     5
 10
-107.5209000000001
 20
-198.9999999999999
 30
0.0
 40
7.5
 50
180.0
 51
0.0
  0
ARC
  5
167B
  8
DETAIL
  6
CONTINUOUS
 62
     5
 10
-107.5209000000001
 20
-173.9999999999999
 30
0.0
 40
7.5
 50
0.0
 51
180.0
  0
LINE
  5
167C
  8
DETAIL
  6
CONTINUOUS
 62
     5
 10
-100.0208999999999
 20
-173.9999999999999
 30
0.0
 11
-100.0208999999999
 21
-198.9999999999999
 31
0.0
  0
LINE
  5
167D
  8
DETAIL
  6
CONTINUOUS
 62
     5
 10
-115.0208999999999
 20
-129.9999999999999
 30
0.0
 11
-115.0208999999999
 21
-154.9999999999999
 31
0.0
  0
LINE
  5
167E
  8
DETAIL
  6
CONTINUOUS
 62
     5
 10
-100.0208999999999
 20
-129.9999999999999
 30
0.0
 11
-100.0208999999999
 21
-154.9999999999999
 31
0.0
  0
ARC
  5
167F
  8
DETAIL
  6
CONTINUOUS
 62
     5
 10
-107.5209000000001
 20
-154.9999999999999
 30
0.0
 40
7.5
 50
180.0
 51
0.0
  0
ARC
  5
1680
  8
DETAIL
  6
CONTINUOUS
 62
     5
 10
-107.5209000000001
 20
-129.9999999999999
 30
0.0
 40
7.5
 50
0.0
 51
180.0
  0
LINE
  5
1681
  8
DETAIL
  6
CONTINUOUS
 62
     5
 10
-100.0208999999999
 20
-129.9999999999999
 30
0.0
 11
-100.0208999999999
 21
-154.9999999999999
 31
0.0
  0
LINE
  5
1682
  8
DETAIL
  6
CONTINUOUS
 62
     5
 10
-100.0208999999999
 20
-86.0
 30
0.0
 11
-100.0208999999999
 21
-110.9999999999999
 31
0.0
  0
ARC
  5
1683
  8
DETAIL
  6
CONTINUOUS
 62
     5
 10
-107.5209000000001
 20
-86.0
 30
0.0
 40
7.5
 50
0.0
 51
180.0
  0
ARC
  5
1684
  8
DETAIL
  6
CONTINUOUS
 62
     5
 10
-107.5209000000001
 20
-110.9999999999999
 30
0.0
 40
7.5
 50
180.0
 51
0.0
  0
LINE
  5
1685
  8
DETAIL
  6
CONTINUOUS
 62
     5
 10
-100.0208999999999
 20
-86.0
 30
0.0
 11
-100.0208999999999
 21
-110.9999999999999
 31
0.0
  0
LINE
  5
1686
  8
DETAIL
  6
CONTINUOUS
 62
     5
 10
-115.0208999999999
 20
-86.0
 30
0.0
 11
-115.0208999999999
 21
-110.9999999999999
 31
0.0
  0
LINE
  5
1687
  8
DETAIL
  6
CONTINUOUS
 62
     5
 10
-95.0209000000001
 20
-86.0
 30
0.0
 11
-95.0209000000001
 21
-110.9999999999999
 31
0.0
  0
LINE
  5
1688
  8
DETAIL
  6
CONTINUOUS
 62
     5
 10
-80.02089999999998
 20
-86.0
 30
0.0
 11
-80.02089999999998
 21
-110.9999999999999
 31
0.0
  0
ARC
  5
1689
  8
DETAIL
  6
CONTINUOUS
 62
     5
 10
-87.5209000000001
 20
-110.9999999999999
 30
0.0
 40
7.5
 50
180.0
 51
0.0
  0
ARC
  5
168A
  8
DETAIL
  6
CONTINUOUS
 62
     5
 10
-87.5209000000001
 20
-86.0
 30
0.0
 40
7.5
 50
0.0
 51
180.0
  0
LINE
  5
168B
  8
DETAIL
  6
CONTINUOUS
 62
     5
 10
-80.02089999999998
 20
-86.0
 30
0.0
 11
-80.02089999999998
 21
-110.9999999999999
 31
0.0
  0
LINE
  5
168C
  8
DETAIL
  6
CONTINUOUS
 62
     5
 10
-80.02089999999998
 20
-129.9999999999999
 30
0.0
 11
-80.02089999999998
 21
-154.9999999999999
 31
0.0
  0
ARC
  5
168D
  8
DETAIL
  6
CONTINUOUS
 62
     5
 10
-87.5209000000001
 20
-129.9999999999999
 30
0.0
 40
7.5
 50
0.0
 51
180.0
  0
ARC
  5
168E
  8
DETAIL
  6
CONTINUOUS
 62
     5
 10
-87.5209000000001
 20
-154.9999999999999
 30
0.0
 40
7.5
 50
180.0
 51
0.0
  0
LINE
  5
168F
  8
DETAIL
  6
CONTINUOUS
 62
     5
 10
-80.02089999999998
 20
-129.9999999999999
 30
0.0
 11
-80.02089999999998
 21
-154.9999999999999
 31
0.0
  0
LINE
  5
1690
  8
DETAIL
  6
CONTINUOUS
 62
     5
 10
-95.0209000000001
 20
-129.9999999999999
 30
0.0
 11
-95.0209000000001
 21
-154.9999999999999
 31
0.0
  0
LINE
  5
1691
  8
DETAIL
  6
CONTINUOUS
 62
     5
 10
-80.02089999999998
 20
-173.9999999999999
 30
0.0
 11
-80.02089999999998
 21
-198.9999999999999
 31
0.0
  0
ARC
  5
1692
  8
DETAIL
  6
CONTINUOUS
 62
     5
 10
-87.5209000000001
 20
-173.9999999999999
 30
0.0
 40
7.5
 50
0.0
 51
180.0
  0
ARC
  5
1693
  8
DETAIL
  6
CONTINUOUS
 62
     5
 10
-87.5209000000001
 20
-198.9999999999999
 30
0.0
 40
7.5
 50
180.0
 51
0.0
  0
LINE
  5
1694
  8
DETAIL
  6
CONTINUOUS
 62
     5
 10
-80.02089999999998
 20
-173.9999999999999
 30
0.0
 11
-80.02089999999998
 21
-198.9999999999999
 31
0.0
  0
LINE
  5
1695
  8
DETAIL
  6
CONTINUOUS
 62
     5
 10
-95.0209000000001
 20
-173.9999999999999
 30
0.0
 11
-95.0209000000001
 21
-198.9999999999999
 31
0.0
  0
LINE
  5
1696
  8
DETAIL
  6
CONTINUOUS
 62
     5
 10
-135.0209
 20
-173.9999999999999
 30
0.0
 11
-135.0209
 21
-198.9999999999999
 31
0.0
  0
LINE
  5
1697
  8
DETAIL
  6
CONTINUOUS
 62
     5
 10
-120.0208999999999
 20
-173.9999999999999
 30
0.0
 11
-120.0208999999999
 21
-198.9999999999999
 31
0.0
  0
ARC
  5
1698
  8
DETAIL
  6
CONTINUOUS
 62
     5
 10
-127.5208999999999
 20
-198.9999999999999
 30
0.0
 40
7.5
 50
180.0
 51
0.0
  0
ARC
  5
1699
  8
DETAIL
  6
CONTINUOUS
 62
     5
 10
-127.5208999999999
 20
-173.9999999999999
 30
0.0
 40
7.5
 50
0.0
 51
180.0
  0
LINE
  5
169A
  8
DETAIL
  6
CONTINUOUS
 62
     5
 10
-120.0208999999999
 20
-173.9999999999999
 30
0.0
 11
-120.0208999999999
 21
-198.9999999999999
 31
0.0
  0
LINE
  5
169B
  8
DETAIL
  6
CONTINUOUS
 62
     5
 10
-135.0209
 20
-129.9999999999999
 30
0.0
 11
-135.0209
 21
-154.9999999999999
 31
0.0
  0
LINE
  5
169C
  8
DETAIL
  6
CONTINUOUS
 62
     5
 10
-120.0208999999999
 20
-129.9999999999999
 30
0.0
 11
-120.0208999999999
 21
-154.9999999999999
 31
0.0
  0
ARC
  5
169D
  8
DETAIL
  6
CONTINUOUS
 62
     5
 10
-127.5208999999999
 20
-154.9999999999999
 30
0.0
 40
7.5
 50
180.0
 51
0.0
  0
ARC
  5
169E
  8
DETAIL
  6
CONTINUOUS
 62
     5
 10
-127.5208999999999
 20
-129.9999999999999
 30
0.0
 40
7.5
 50
0.0
 51
180.0
  0
LINE
  5
169F
  8
DETAIL
  6
CONTINUOUS
 62
     5
 10
-120.0208999999999
 20
-129.9999999999999
 30
0.0
 11
-120.0208999999999
 21
-154.9999999999999
 31
0.0
  0
LINE
  5
16A0
  8
DETAIL
  6
CONTINUOUS
 62
     5
 10
-120.0208999999999
 20
-86.0
 30
0.0
 11
-120.0208999999999
 21
-110.9999999999999
 31
0.0
  0
ARC
  5
16A1
  8
DETAIL
  6
CONTINUOUS
 62
     5
 10
-127.5208999999999
 20
-86.0
 30
0.0
 40
7.5
 50
0.0
 51
180.0
  0
ARC
  5
16A2
  8
DETAIL
  6
CONTINUOUS
 62
     5
 10
-127.5208999999999
 20
-110.9999999999999
 30
0.0
 40
7.5
 50
180.0
 51
0.0
  0
LINE
  5
16A3
  8
DETAIL
  6
CONTINUOUS
 62
     5
 10
-120.0208999999999
 20
-86.0
 30
0.0
 11
-120.0208999999999
 21
-110.9999999999999
 31
0.0
  0
LINE
  5
16A4
  8
DETAIL
  6
CONTINUOUS
 62
     5
 10
-135.0209
 20
-86.0
 30
0.0
 11
-135.0209
 21
-110.9999999999999
 31
0.0
  0
LINE
  5
16A5
  8
DETAIL
  6
CONTINUOUS
 62
     5
 10
-15.0000150000001
 20
-86.0
 30
0.0
 11
-15.0000150000001
 21
-110.9999999999999
 31
0.0
  0
LINE
  5
16A6
  8
DETAIL
  6
CONTINUOUS
 62
     5
 10
-0.0000149999999906
 20
-86.0
 30
0.0
 11
-0.0000149999999906
 21
-110.9999999999999
 31
0.0
  0
ARC
  5
16A7
  8
DETAIL
  6
CONTINUOUS
 62
     5
 10
-7.500015000000104
 20
-110.9999999999999
 30
0.0
 40
7.5
 50
180.0
 51
0.0
  0
ARC
  5
16A8
  8
DETAIL
  6
CONTINUOUS
 62
     5
 10
-7.500015000000104
 20
-86.0
 30
0.0
 40
7.5
 50
0.0
 51
180.0
  0
LINE
  5
16A9
  8
DETAIL
  6
CONTINUOUS
 62
     5
 10
-0.0000149999999906
 20
-86.0
 30
0.0
 11
-0.0000149999999906
 21
-110.9999999999999
 31
0.0
  0
LINE
  5
16AA
  8
DETAIL
  6
CONTINUOUS
 62
     5
 10
-0.0000149999999906
 20
-129.9999999999999
 30
0.0
 11
-0.0000149999999906
 21
-154.9999999999999
 31
0.0
  0
ARC
  5
16AB
  8
DETAIL
  6
CONTINUOUS
 62
     5
 10
-7.500015000000104
 20
-129.9999999999999
 30
0.0
 40
7.5
 50
0.0
 51
180.0
  0
ARC
  5
16AC
  8
DETAIL
  6
CONTINUOUS
 62
     5
 10
-7.500015000000104
 20
-154.9999999999999
 30
0.0
 40
7.5
 50
180.0
 51
0.0
  0
LINE
  5
16AD
  8
DETAIL
  6
CONTINUOUS
 62
     5
 10
-0.0000149999999906
 20
-129.9999999999999
 30
0.0
 11
-0.0000149999999906
 21
-154.9999999999999
 31
0.0
  0
LINE
  5
16AE
  8
DETAIL
  6
CONTINUOUS
 62
     5
 10
-15.0000150000001
 20
-129.9999999999999
 30
0.0
 11
-15.0000150000001
 21
-154.9999999999999
 31
0.0
  0
LINE
  5
16AF
  8
DETAIL
  6
CONTINUOUS
 62
     5
 10
-0.0000149999999906
 20
-173.9999999999999
 30
0.0
 11
-0.0000149999999906
 21
-198.9999999999999
 31
0.0
  0
ARC
  5
16B0
  8
DETAIL
  6
CONTINUOUS
 62
     5
 10
-7.500015000000104
 20
-173.9999999999999
 30
0.0
 40
7.5
 50
0.0
 51
180.0
  0
ARC
  5
16B1
  8
DETAIL
  6
CONTINUOUS
 62
     5
 10
-7.500015000000104
 20
-198.9999999999999
 30
0.0
 40
7.5
 50
180.0
 51
0.0
  0
LINE
  5
16B2
  8
DETAIL
  6
CONTINUOUS
 62
     5
 10
-0.0000149999999906
 20
-173.9999999999999
 30
0.0
 11
-0.0000149999999906
 21
-198.9999999999999
 31
0.0
  0
LINE
  5
16B3
  8
DETAIL
  6
CONTINUOUS
 62
     5
 10
-15.0000150000001
 20
-173.9999999999999
 30
0.0
 11
-15.0000150000001
 21
-198.9999999999999
 31
0.0
  0
LINE
  5
16B4
  8
DETAIL
  6
CONTINUOUS
 62
     5
 10
24.99998500000001
 20
-173.9999999999999
 30
0.0
 11
24.99998500000001
 21
-198.9999999999999
 31
0.0
  0
LINE
  5
16B5
  8
DETAIL
  6
CONTINUOUS
 62
     5
 10
39.9999849999999
 20
-173.9999999999999
 30
0.0
 11
39.9999849999999
 21
-198.9999999999999
 31
0.0
  0
ARC
  5
16B6
  8
DETAIL
  6
CONTINUOUS
 62
     5
 10
32.49998500000001
 20
-198.9999999999999
 30
0.0
 40
7.5
 50
180.0
 51
0.0
  0
ARC
  5
16B7
  8
DETAIL
  6
CONTINUOUS
 62
     5
 10
32.49998500000001
 20
-173.9999999999999
 30
0.0
 40
7.5
 50
0.0
 51
180.0
  0
LINE
  5
16B8
  8
DETAIL
  6
CONTINUOUS
 62
     5
 10
39.9999849999999
 20
-173.9999999999999
 30
0.0
 11
39.9999849999999
 21
-198.9999999999999
 31
0.0
  0
LINE
  5
16B9
  8
DETAIL
  6
CONTINUOUS
 62
     5
 10
24.99998500000001
 20
-129.9999999999999
 30
0.0
 11
24.99998500000001
 21
-154.9999999999999
 31
0.0
  0
LINE
  5
16BA
  8
DETAIL
  6
CONTINUOUS
 62
     5
 10
39.9999849999999
 20
-129.9999999999999
 30
0.0
 11
39.9999849999999
 21
-154.9999999999999
 31
0.0
  0
ARC
  5
16BB
  8
DETAIL
  6
CONTINUOUS
 62
     5
 10
32.49998500000001
 20
-154.9999999999999
 30
0.0
 40
7.5
 50
180.0
 51
0.0
  0
ARC
  5
16BC
  8
DETAIL
  6
CONTINUOUS
 62
     5
 10
32.49998500000001
 20
-129.9999999999999
 30
0.0
 40
7.5
 50
0.0
 51
180.0
  0
LINE
  5
16BD
  8
DETAIL
  6
CONTINUOUS
 62
     5
 10
39.9999849999999
 20
-129.9999999999999
 30
0.0
 11
39.9999849999999
 21
-154.9999999999999
 31
0.0
  0
LINE
  5
16BE
  8
DETAIL
  6
CONTINUOUS
 62
     5
 10
39.9999849999999
 20
-86.0
 30
0.0
 11
39.9999849999999
 21
-110.9999999999999
 31
0.0
  0
ARC
  5
16BF
  8
DETAIL
  6
CONTINUOUS
 62
     5
 10
32.49998500000001
 20
-86.0
 30
0.0
 40
7.5
 50
0.0
 51
180.0
  0
ARC
  5
16C0
  8
DETAIL
  6
CONTINUOUS
 62
     5
 10
32.49998500000001
 20
-110.9999999999999
 30
0.0
 40
7.5
 50
180.0
 51
0.0
  0
LINE
  5
16C1
  8
DETAIL
  6
CONTINUOUS
 62
     5
 10
39.9999849999999
 20
-86.0
 30
0.0
 11
39.9999849999999
 21
-110.9999999999999
 31
0.0
  0
LINE
  5
16C2
  8
DETAIL
  6
CONTINUOUS
 62
     5
 10
24.99998500000001
 20
-86.0
 30
0.0
 11
24.99998500000001
 21
-110.9999999999999
 31
0.0
  0
LINE
  5
16C3
  8
DETAIL
  6
CONTINUOUS
 62
     5
 10
4.999984999999896
 20
-86.0
 30
0.0
 11
4.999984999999896
 21
-110.9999999999999
 31
0.0
  0
LINE
  5
16C4
  8
DETAIL
  6
CONTINUOUS
 62
     5
 10
19.99998500000001
 20
-86.0
 30
0.0
 11
19.99998500000001
 21
-110.9999999999999
 31
0.0
  0
ARC
  5
16C5
  8
DETAIL
  6
CONTINUOUS
 62
     5
 10
12.49998500000001
 20
-110.9999999999999
 30
0.0
 40
7.5
 50
180.0
 51
0.0
  0
ARC
  5
16C6
  8
DETAIL
  6
CONTINUOUS
 62
     5
 10
12.49998500000001
 20
-86.0
 30
0.0
 40
7.5
 50
0.0
 51
180.0
  0
LINE
  5
16C7
  8
DETAIL
  6
CONTINUOUS
 62
     5
 10
19.99998500000001
 20
-86.0
 30
0.0
 11
19.99998500000001
 21
-110.9999999999999
 31
0.0
  0
LINE
  5
16C8
  8
DETAIL
  6
CONTINUOUS
 62
     5
 10
19.99998500000001
 20
-129.9999999999999
 30
0.0
 11
19.99998500000001
 21
-154.9999999999999
 31
0.0
  0
ARC
  5
16C9
  8
DETAIL
  6
CONTINUOUS
 62
     5
 10
12.49998500000001
 20
-129.9999999999999
 30
0.0
 40
7.5
 50
0.0
 51
180.0
  0
ARC
  5
16CA
  8
DETAIL
  6
CONTINUOUS
 62
     5
 10
12.49998500000001
 20
-154.9999999999999
 30
0.0
 40
7.5
 50
180.0
 51
0.0
  0
LINE
  5
16CB
  8
DETAIL
  6
CONTINUOUS
 62
     5
 10
19.99998500000001
 20
-129.9999999999999
 30
0.0
 11
19.99998500000001
 21
-154.9999999999999
 31
0.0
  0
LINE
  5
16CC
  8
DETAIL
  6
CONTINUOUS
 62
     5
 10
4.999984999999896
 20
-129.9999999999999
 30
0.0
 11
4.999984999999896
 21
-154.9999999999999
 31
0.0
  0
LINE
  5
16CD
  8
DETAIL
  6
CONTINUOUS
 62
     5
 10
19.99998500000001
 20
-173.9999999999999
 30
0.0
 11
19.99998500000001
 21
-198.9999999999999
 31
0.0
  0
ARC
  5
16CE
  8
DETAIL
  6
CONTINUOUS
 62
     5
 10
12.49998500000001
 20
-173.9999999999999
 30
0.0
 40
7.5
 50
0.0
 51
180.0
  0
ARC
  5
16CF
  8
DETAIL
  6
CONTINUOUS
 62
     5
 10
12.49998500000001
 20
-198.9999999999999
 30
0.0
 40
7.5
 50
180.0
 51
0.0
  0
LINE
  5
16D0
  8
DETAIL
  6
CONTINUOUS
 62
     5
 10
19.99998500000001
 20
-173.9999999999999
 30
0.0
 11
19.99998500000001
 21
-198.9999999999999
 31
0.0
  0
LINE
  5
16D1
  8
DETAIL
  6
CONTINUOUS
 62
     5
 10
4.999984999999896
 20
-173.9999999999999
 30
0.0
 11
4.999984999999896
 21
-198.9999999999999
 31
0.0
  0
LINE
  5
16D2
  8
DETAIL
  6
CONTINUOUS
 62
     5
 10
-55.00001499999999
 20
-173.9999999999999
 30
0.0
 11
-55.00001499999999
 21
-198.9999999999999
 31
0.0
  0
LINE
  5
16D3
  8
DETAIL
  6
CONTINUOUS
 62
     5
 10
-40.00001499999999
 20
-173.9999999999999
 30
0.0
 11
-40.00001499999999
 21
-198.9999999999999
 31
0.0
  0
ARC
  5
16D4
  8
DETAIL
  6
CONTINUOUS
 62
     5
 10
-47.5000150000001
 20
-198.9999999999999
 30
0.0
 40
7.5
 50
180.0
 51
0.0
  0
ARC
  5
16D5
  8
DETAIL
  6
CONTINUOUS
 62
     5
 10
-47.5000150000001
 20
-173.9999999999999
 30
0.0
 40
7.5
 50
0.0
 51
180.0
  0
LINE
  5
16D6
  8
DETAIL
  6
CONTINUOUS
 62
     5
 10
-40.00001499999999
 20
-173.9999999999999
 30
0.0
 11
-40.00001499999999
 21
-198.9999999999999
 31
0.0
  0
LINE
  5
16D7
  8
DETAIL
  6
CONTINUOUS
 62
     5
 10
-55.00001499999999
 20
-129.9999999999999
 30
0.0
 11
-55.00001499999999
 21
-154.9999999999999
 31
0.0
  0
LINE
  5
16D8
  8
DETAIL
  6
CONTINUOUS
 62
     5
 10
-40.00001499999999
 20
-129.9999999999999
 30
0.0
 11
-40.00001499999999
 21
-154.9999999999999
 31
0.0
  0
ARC
  5
16D9
  8
DETAIL
  6
CONTINUOUS
 62
     5
 10
-47.5000150000001
 20
-154.9999999999999
 30
0.0
 40
7.5
 50
180.0
 51
0.0
  0
ARC
  5
16DA
  8
DETAIL
  6
CONTINUOUS
 62
     5
 10
-47.5000150000001
 20
-129.9999999999999
 30
0.0
 40
7.5
 50
0.0
 51
180.0
  0
LINE
  5
16DB
  8
DETAIL
  6
CONTINUOUS
 62
     5
 10
-40.00001499999999
 20
-129.9999999999999
 30
0.0
 11
-40.00001499999999
 21
-154.9999999999999
 31
0.0
  0
LINE
  5
16DC
  8
DETAIL
  6
CONTINUOUS
 62
     5
 10
-40.00001499999999
 20
-86.0
 30
0.0
 11
-40.00001499999999
 21
-110.9999999999999
 31
0.0
  0
ARC
  5
16DD
  8
DETAIL
  6
CONTINUOUS
 62
     5
 10
-47.5000150000001
 20
-86.0
 30
0.0
 40
7.5
 50
0.0
 51
180.0
  0
ARC
  5
16DE
  8
DETAIL
  6
CONTINUOUS
 62
     5
 10
-47.5000150000001
 20
-110.9999999999999
 30
0.0
 40
7.5
 50
180.0
 51
0.0
  0
LINE
  5
16DF
  8
DETAIL
  6
CONTINUOUS
 62
     5
 10
-40.00001499999999
 20
-86.0
 30
0.0
 11
-40.00001499999999
 21
-110.9999999999999
 31
0.0
  0
LINE
  5
16E0
  8
DETAIL
  6
CONTINUOUS
 62
     5
 10
-55.00001499999999
 20
-86.0
 30
0.0
 11
-55.00001499999999
 21
-110.9999999999999
 31
0.0
  0
LINE
  5
16E1
  8
DETAIL
  6
CONTINUOUS
 62
     5
 10
-35.00001500000019
 20
-86.0
 30
0.0
 11
-35.00001500000019
 21
-110.9999999999999
 31
0.0
  0
LINE
  5
16E2
  8
DETAIL
  6
CONTINUOUS
 62
     5
 10
-20.00001499999999
 20
-86.0
 30
0.0
 11
-20.00001499999999
 21
-110.9999999999999
 31
0.0
  0
ARC
  5
16E3
  8
DETAIL
  6
CONTINUOUS
 62
     5
 10
-27.50001500000019
 20
-110.9999999999999
 30
0.0
 40
7.5
 50
180.0
 51
0.0
  0
ARC
  5
16E4
  8
DETAIL
  6
CONTINUOUS
 62
     5
 10
-27.50001500000019
 20
-86.0
 30
0.0
 40
7.5
 50
0.0
 51
180.0
  0
LINE
  5
16E5
  8
DETAIL
  6
CONTINUOUS
 62
     5
 10
-20.00001499999999
 20
-86.0
 30
0.0
 11
-20.00001499999999
 21
-110.9999999999999
 31
0.0
  0
LINE
  5
16E6
  8
DETAIL
  6
CONTINUOUS
 62
     5
 10
-20.00001499999999
 20
-129.9999999999999
 30
0.0
 11
-20.00001499999999
 21
-154.9999999999999
 31
0.0
  0
ARC
  5
16E7
  8
DETAIL
  6
CONTINUOUS
 62
     5
 10
-27.50001500000019
 20
-129.9999999999999
 30
0.0
 40
7.5
 50
0.0
 51
180.0
  0
ARC
  5
16E8
  8
DETAIL
  6
CONTINUOUS
 62
     5
 10
-27.50001500000019
 20
-154.9999999999999
 30
0.0
 40
7.5
 50
180.0
 51
0.0
  0
LINE
  5
16E9
  8
DETAIL
  6
CONTINUOUS
 62
     5
 10
-20.00001499999999
 20
-129.9999999999999
 30
0.0
 11
-20.00001499999999
 21
-154.9999999999999
 31
0.0
  0
LINE
  5
16EA
  8
DETAIL
  6
CONTINUOUS
 62
     5
 10
-35.00001500000019
 20
-129.9999999999999
 30
0.0
 11
-35.00001500000019
 21
-154.9999999999999
 31
0.0
  0
LINE
  5
16EB
  8
DETAIL
  6
CONTINUOUS
 62
     5
 10
-20.00001499999999
 20
-173.9999999999999
 30
0.0
 11
-20.00001499999999
 21
-198.9999999999999
 31
0.0
  0
ARC
  5
16EC
  8
DETAIL
  6
CONTINUOUS
 62
     5
 10
-27.50001500000019
 20
-173.9999999999999
 30
0.0
 40
7.5
 50
0.0
 51
180.0
  0
ARC
  5
16ED
  8
DETAIL
  6
CONTINUOUS
 62
     5
 10
-27.50001500000019
 20
-198.9999999999999
 30
0.0
 40
7.5
 50
180.0
 51
0.0
  0
LINE
  5
16EE
  8
DETAIL
  6
CONTINUOUS
 62
     5
 10
-20.00001499999999
 20
-173.9999999999999
 30
0.0
 11
-20.00001499999999
 21
-198.9999999999999
 31
0.0
  0
LINE
  5
16EF
  8
DETAIL
  6
CONTINUOUS
 62
     5
 10
-35.00001500000019
 20
-173.9999999999999
 30
0.0
 11
-35.00001500000019
 21
-198.9999999999999
 31
0.0
  0
LINE
  5
16F0
  8
DETAIL
  6
CONTINUOUS
 62
     5
 10
-75.00001499999999
 20
-173.9999999999999
 30
0.0
 11
-75.00001499999999
 21
-198.9999999999999
 31
0.0
  0
LINE
  5
16F1
  8
DETAIL
  6
CONTINUOUS
 62
     5
 10
-60.0000150000001
 20
-173.9999999999999
 30
0.0
 11
-60.0000150000001
 21
-198.9999999999999
 31
0.0
  0
ARC
  5
16F2
  8
DETAIL
  6
CONTINUOUS
 62
     5
 10
-67.50001499999999
 20
-198.9999999999999
 30
0.0
 40
7.5
 50
180.0
 51
0.0
  0
ARC
  5
16F3
  8
DETAIL
  6
CONTINUOUS
 62
     5
 10
-67.50001499999999
 20
-173.9999999999999
 30
0.0
 40
7.5
 50
0.0
 51
180.0
  0
LINE
  5
16F4
  8
DETAIL
  6
CONTINUOUS
 62
     5
 10
-60.0000150000001
 20
-173.9999999999999
 30
0.0
 11
-60.0000150000001
 21
-198.9999999999999
 31
0.0
  0
LINE
  5
16F5
  8
DETAIL
  6
CONTINUOUS
 62
     5
 10
-75.00001499999999
 20
-129.9999999999999
 30
0.0
 11
-75.00001499999999
 21
-154.9999999999999
 31
0.0
  0
LINE
  5
16F6
  8
DETAIL
  6
CONTINUOUS
 62
     5
 10
-60.0000150000001
 20
-129.9999999999999
 30
0.0
 11
-60.0000150000001
 21
-154.9999999999999
 31
0.0
  0
ARC
  5
16F7
  8
DETAIL
  6
CONTINUOUS
 62
     5
 10
-67.50001499999999
 20
-154.9999999999999
 30
0.0
 40
7.5
 50
180.0
 51
0.0
  0
ARC
  5
16F8
  8
DETAIL
  6
CONTINUOUS
 62
     5
 10
-67.50001499999999
 20
-129.9999999999999
 30
0.0
 40
7.5
 50
0.0
 51
180.0
  0
LINE
  5
16F9
  8
DETAIL
  6
CONTINUOUS
 62
     5
 10
-60.0000150000001
 20
-129.9999999999999
 30
0.0
 11
-60.0000150000001
 21
-154.9999999999999
 31
0.0
  0
LINE
  5
16FA
  8
DETAIL
  6
CONTINUOUS
 62
     5
 10
-60.0000150000001
 20
-86.0
 30
0.0
 11
-60.0000150000001
 21
-110.9999999999999
 31
0.0
  0
ARC
  5
16FB
  8
DETAIL
  6
CONTINUOUS
 62
     5
 10
-67.50001499999999
 20
-86.0
 30
0.0
 40
7.5
 50
0.0
 51
180.0
  0
ARC
  5
16FC
  8
DETAIL
  6
CONTINUOUS
 62
     5
 10
-67.50001499999999
 20
-110.9999999999999
 30
0.0
 40
7.5
 50
180.0
 51
0.0
  0
LINE
  5
16FD
  8
DETAIL
  6
CONTINUOUS
 62
     5
 10
-60.0000150000001
 20
-86.0
 30
0.0
 11
-60.0000150000001
 21
-110.9999999999999
 31
0.0
  0
LINE
  5
16FE
  8
DETAIL
  6
CONTINUOUS
 62
     5
 10
-75.00001499999999
 20
-86.0
 30
0.0
 11
-75.00001499999999
 21
-110.9999999999999
 31
0.0
  0
LINE
  5
16FF
  8
DETAIL
  6
CONTINUOUS
 62
     5
 10
100.0208699999999
 20
-86.0
 30
0.0
 11
100.0208699999999
 21
-110.9999999999999
 31
0.0
  0
LINE
  5
1700
  8
DETAIL
  6
CONTINUOUS
 62
     5
 10
115.0208699999999
 20
-86.0
 30
0.0
 11
115.0208699999999
 21
-110.9999999999999
 31
0.0
  0
ARC
  5
1701
  8
DETAIL
  6
CONTINUOUS
 62
     5
 10
107.52087
 20
-110.9999999999999
 30
0.0
 40
7.5
 50
180.0
 51
0.0
  0
ARC
  5
1702
  8
DETAIL
  6
CONTINUOUS
 62
     5
 10
107.52087
 20
-86.0
 30
0.0
 40
7.5
 50
0.0
 51
180.0
  0
LINE
  5
1703
  8
DETAIL
  6
CONTINUOUS
 62
     5
 10
115.0208699999999
 20
-86.0
 30
0.0
 11
115.0208699999999
 21
-110.9999999999999
 31
0.0
  0
LINE
  5
1704
  8
DETAIL
  6
CONTINUOUS
 62
     5
 10
115.0208699999999
 20
-129.9999999999999
 30
0.0
 11
115.0208699999999
 21
-154.9999999999999
 31
0.0
  0
ARC
  5
1705
  8
DETAIL
  6
CONTINUOUS
 62
     5
 10
107.52087
 20
-129.9999999999999
 30
0.0
 40
7.5
 50
0.0
 51
180.0
  0
ARC
  5
1706
  8
DETAIL
  6
CONTINUOUS
 62
     5
 10
107.52087
 20
-154.9999999999999
 30
0.0
 40
7.5
 50
180.0
 51
0.0
  0
LINE
  5
1707
  8
DETAIL
  6
CONTINUOUS
 62
     5
 10
115.0208699999999
 20
-129.9999999999999
 30
0.0
 11
115.0208699999999
 21
-154.9999999999999
 31
0.0
  0
LINE
  5
1708
  8
DETAIL
  6
CONTINUOUS
 62
     5
 10
100.0208699999999
 20
-129.9999999999999
 30
0.0
 11
100.0208699999999
 21
-154.9999999999999
 31
0.0
  0
LINE
  5
1709
  8
DETAIL
  6
CONTINUOUS
 62
     5
 10
115.0208699999999
 20
-173.9999999999999
 30
0.0
 11
115.0208699999999
 21
-198.9999999999999
 31
0.0
  0
ARC
  5
170A
  8
DETAIL
  6
CONTINUOUS
 62
     5
 10
107.52087
 20
-173.9999999999999
 30
0.0
 40
7.5
 50
0.0
 51
180.0
  0
ARC
  5
170B
  8
DETAIL
  6
CONTINUOUS
 62
     5
 10
107.52087
 20
-198.9999999999999
 30
0.0
 40
7.5
 50
180.0
 51
0.0
  0
LINE
  5
170C
  8
DETAIL
  6
CONTINUOUS
 62
     5
 10
115.0208699999999
 20
-173.9999999999999
 30
0.0
 11
115.0208699999999
 21
-198.9999999999999
 31
0.0
  0
LINE
  5
170D
  8
DETAIL
  6
CONTINUOUS
 62
     5
 10
100.0208699999999
 20
-173.9999999999999
 30
0.0
 11
100.0208699999999
 21
-198.9999999999999
 31
0.0
  0
LINE
  5
170E
  8
DETAIL
  6
CONTINUOUS
 62
     5
 10
140.0208699999999
 20
-173.9999999999999
 30
0.0
 11
140.0208699999999
 21
-198.9999999999999
 31
0.0
  0
LINE
  5
170F
  8
DETAIL
  6
CONTINUOUS
 62
     5
 10
155.0208699999996
 20
-173.9999999999999
 30
0.0
 11
155.0208699999996
 21
-198.9999999999999
 31
0.0
  0
ARC
  5
1710
  8
DETAIL
  6
CONTINUOUS
 62
     5
 10
147.52087
 20
-198.9999999999999
 30
0.0
 40
7.5
 50
180.0
 51
0.0
  0
ARC
  5
1711
  8
DETAIL
  6
CONTINUOUS
 62
     5
 10
147.52087
 20
-173.9999999999999
 30
0.0
 40
7.5
 50
0.0
 51
180.0
  0
LINE
  5
1712
  8
DETAIL
  6
CONTINUOUS
 62
     5
 10
155.0208699999996
 20
-173.9999999999999
 30
0.0
 11
155.0208699999996
 21
-198.9999999999999
 31
0.0
  0
LINE
  5
1713
  8
DETAIL
  6
CONTINUOUS
 62
     5
 10
140.0208699999999
 20
-129.9999999999999
 30
0.0
 11
140.0208699999999
 21
-154.9999999999999
 31
0.0
  0
LINE
  5
1714
  8
DETAIL
  6
CONTINUOUS
 62
     5
 10
155.0208699999996
 20
-129.9999999999999
 30
0.0
 11
155.0208699999996
 21
-154.9999999999999
 31
0.0
  0
ARC
  5
1715
  8
DETAIL
  6
CONTINUOUS
 62
     5
 10
147.52087
 20
-154.9999999999999
 30
0.0
 40
7.5
 50
180.0
 51
0.0
  0
ARC
  5
1716
  8
DETAIL
  6
CONTINUOUS
 62
     5
 10
147.52087
 20
-129.9999999999999
 30
0.0
 40
7.5
 50
0.0
 51
180.0
  0
LINE
  5
1717
  8
DETAIL
  6
CONTINUOUS
 62
     5
 10
155.0208699999996
 20
-129.9999999999999
 30
0.0
 11
155.0208699999996
 21
-154.9999999999999
 31
0.0
  0
LINE
  5
1718
  8
DETAIL
  6
CONTINUOUS
 62
     5
 10
155.0208699999996
 20
-86.0
 30
0.0
 11
155.0208699999996
 21
-110.9999999999999
 31
0.0
  0
ARC
  5
1719
  8
DETAIL
  6
CONTINUOUS
 62
     5
 10
147.52087
 20
-86.0
 30
0.0
 40
7.5
 50
0.0
 51
180.0
  0
ARC
  5
171A
  8
DETAIL
  6
CONTINUOUS
 62
     5
 10
147.52087
 20
-110.9999999999999
 30
0.0
 40
7.5
 50
180.0
 51
0.0
  0
LINE
  5
171B
  8
DETAIL
  6
CONTINUOUS
 62
     5
 10
155.0208699999996
 20
-86.0
 30
0.0
 11
155.0208699999996
 21
-110.9999999999999
 31
0.0
  0
LINE
  5
171C
  8
DETAIL
  6
CONTINUOUS
 62
     5
 10
140.0208699999999
 20
-86.0
 30
0.0
 11
140.0208699999999
 21
-110.9999999999999
 31
0.0
  0
LINE
  5
171D
  8
DETAIL
  6
CONTINUOUS
 62
     5
 10
120.02087
 20
-86.0
 30
0.0
 11
120.02087
 21
-110.9999999999999
 31
0.0
  0
LINE
  5
171E
  8
DETAIL
  6
CONTINUOUS
 62
     5
 10
135.02087
 20
-86.0
 30
0.0
 11
135.02087
 21
-110.9999999999999
 31
0.0
  0
ARC
  5
171F
  8
DETAIL
  6
CONTINUOUS
 62
     5
 10
127.5208699999999
 20
-110.9999999999999
 30
0.0
 40
7.5
 50
180.0
 51
0.0
  0
ARC
  5
1720
  8
DETAIL
  6
CONTINUOUS
 62
     5
 10
127.5208699999999
 20
-86.0
 30
0.0
 40
7.5
 50
0.0
 51
180.0
  0
LINE
  5
1721
  8
DETAIL
  6
CONTINUOUS
 62
     5
 10
135.02087
 20
-86.0
 30
0.0
 11
135.02087
 21
-110.9999999999999
 31
0.0
  0
LINE
  5
1722
  8
DETAIL
  6
CONTINUOUS
 62
     5
 10
135.02087
 20
-129.9999999999999
 30
0.0
 11
135.02087
 21
-154.9999999999999
 31
0.0
  0
ARC
  5
1723
  8
DETAIL
  6
CONTINUOUS
 62
     5
 10
127.5208699999999
 20
-129.9999999999999
 30
0.0
 40
7.5
 50
0.0
 51
180.0
  0
ARC
  5
1724
  8
DETAIL
  6
CONTINUOUS
 62
     5
 10
127.5208699999999
 20
-154.9999999999999
 30
0.0
 40
7.5
 50
180.0
 51
0.0
  0
LINE
  5
1725
  8
DETAIL
  6
CONTINUOUS
 62
     5
 10
135.02087
 20
-129.9999999999999
 30
0.0
 11
135.02087
 21
-154.9999999999999
 31
0.0
  0
LINE
  5
1726
  8
DETAIL
  6
CONTINUOUS
 62
     5
 10
120.02087
 20
-129.9999999999999
 30
0.0
 11
120.02087
 21
-154.9999999999999
 31
0.0
  0
LINE
  5
1727
  8
DETAIL
  6
CONTINUOUS
 62
     5
 10
135.02087
 20
-173.9999999999999
 30
0.0
 11
135.02087
 21
-198.9999999999999
 31
0.0
  0
ARC
  5
1728
  8
DETAIL
  6
CONTINUOUS
 62
     5
 10
127.5208699999999
 20
-173.9999999999999
 30
0.0
 40
7.5
 50
0.0
 51
180.0
  0
ARC
  5
1729
  8
DETAIL
  6
CONTINUOUS
 62
     5
 10
127.5208699999999
 20
-198.9999999999999
 30
0.0
 40
7.5
 50
180.0
 51
0.0
  0
LINE
  5
172A
  8
DETAIL
  6
CONTINUOUS
 62
     5
 10
135.02087
 20
-173.9999999999999
 30
0.0
 11
135.02087
 21
-198.9999999999999
 31
0.0
  0
LINE
  5
172B
  8
DETAIL
  6
CONTINUOUS
 62
     5
 10
120.02087
 20
-173.9999999999999
 30
0.0
 11
120.02087
 21
-198.9999999999999
 31
0.0
  0
LINE
  5
172C
  8
DETAIL
  6
CONTINUOUS
 62
     5
 10
180.0208699999996
 20
-173.9999999999999
 30
0.0
 11
180.0208699999996
 21
-198.9999999999999
 31
0.0
  0
LINE
  5
172D
  8
DETAIL
  6
CONTINUOUS
 62
     5
 10
195.02087
 20
-173.9999999999999
 30
0.0
 11
195.02087
 21
-198.9999999999999
 31
0.0
  0
ARC
  5
172E
  8
DETAIL
  6
CONTINUOUS
 62
     5
 10
187.5208699999996
 20
-198.9999999999999
 30
0.0
 40
7.5
 50
180.0
 51
0.0
  0
ARC
  5
172F
  8
DETAIL
  6
CONTINUOUS
 62
     5
 10
187.5208699999996
 20
-173.9999999999999
 30
0.0
 40
7.5
 50
0.0
 51
180.0
  0
LINE
  5
1730
  8
DETAIL
  6
CONTINUOUS
 62
     5
 10
195.02087
 20
-173.9999999999999
 30
0.0
 11
195.02087
 21
-198.9999999999999
 31
0.0
  0
LINE
  5
1731
  8
DETAIL
  6
CONTINUOUS
 62
     5
 10
180.0208699999996
 20
-129.9999999999999
 30
0.0
 11
180.0208699999996
 21
-154.9999999999999
 31
0.0
  0
LINE
  5
1732
  8
DETAIL
  6
CONTINUOUS
 62
     5
 10
195.02087
 20
-129.9999999999999
 30
0.0
 11
195.02087
 21
-154.9999999999999
 31
0.0
  0
ARC
  5
1733
  8
DETAIL
  6
CONTINUOUS
 62
     5
 10
187.5208699999996
 20
-154.9999999999999
 30
0.0
 40
7.5
 50
180.0
 51
0.0
  0
ARC
  5
1734
  8
DETAIL
  6
CONTINUOUS
 62
     5
 10
187.5208699999996
 20
-129.9999999999999
 30
0.0
 40
7.5
 50
0.0
 51
180.0
  0
LINE
  5
1735
  8
DETAIL
  6
CONTINUOUS
 62
     5
 10
195.02087
 20
-129.9999999999999
 30
0.0
 11
195.02087
 21
-154.9999999999999
 31
0.0
  0
LINE
  5
1736
  8
DETAIL
  6
CONTINUOUS
 62
     5
 10
195.02087
 20
-86.0
 30
0.0
 11
195.02087
 21
-110.9999999999999
 31
0.0
  0
ARC
  5
1737
  8
DETAIL
  6
CONTINUOUS
 62
     5
 10
187.5208699999996
 20
-86.0
 30
0.0
 40
7.5
 50
0.0
 51
180.0
  0
ARC
  5
1738
  8
DETAIL
  6
CONTINUOUS
 62
     5
 10
187.5208699999996
 20
-110.9999999999999
 30
0.0
 40
7.5
 50
180.0
 51
0.0
  0
LINE
  5
1739
  8
DETAIL
  6
CONTINUOUS
 62
     5
 10
195.02087
 20
-86.0
 30
0.0
 11
195.02087
 21
-110.9999999999999
 31
0.0
  0
LINE
  5
173A
  8
DETAIL
  6
CONTINUOUS
 62
     5
 10
180.0208699999996
 20
-86.0
 30
0.0
 11
180.0208699999996
 21
-110.9999999999999
 31
0.0
  0
LINE
  5
173B
  8
DETAIL
  6
CONTINUOUS
 62
     5
 10
200.02087
 20
-86.0
 30
0.0
 11
200.02087
 21
-110.9999999999999
 31
0.0
  0
LINE
  5
173C
  8
DETAIL
  6
CONTINUOUS
 62
     5
 10
215.02087
 20
-86.0
 30
0.0
 11
215.02087
 21
-110.9999999999999
 31
0.0
  0
ARC
  5
173D
  8
DETAIL
  6
CONTINUOUS
 62
     5
 10
207.52087
 20
-110.9999999999999
 30
0.0
 40
7.5
 50
180.0
 51
0.0
  0
ARC
  5
173E
  8
DETAIL
  6
CONTINUOUS
 62
     5
 10
207.52087
 20
-86.0
 30
0.0
 40
7.5
 50
0.0
 51
180.0
  0
LINE
  5
173F
  8
DETAIL
  6
CONTINUOUS
 62
     5
 10
215.02087
 20
-86.0
 30
0.0
 11
215.02087
 21
-110.9999999999999
 31
0.0
  0
LINE
  5
1740
  8
DETAIL
  6
CONTINUOUS
 62
     5
 10
215.02087
 20
-129.9999999999999
 30
0.0
 11
215.02087
 21
-154.9999999999999
 31
0.0
  0
ARC
  5
1741
  8
DETAIL
  6
CONTINUOUS
 62
     5
 10
207.52087
 20
-129.9999999999999
 30
0.0
 40
7.5
 50
0.0
 51
180.0
  0
ARC
  5
1742
  8
DETAIL
  6
CONTINUOUS
 62
     5
 10
207.52087
 20
-154.9999999999999
 30
0.0
 40
7.5
 50
180.0
 51
0.0
  0
LINE
  5
1743
  8
DETAIL
  6
CONTINUOUS
 62
     5
 10
215.02087
 20
-129.9999999999999
 30
0.0
 11
215.02087
 21
-154.9999999999999
 31
0.0
  0
LINE
  5
1744
  8
DETAIL
  6
CONTINUOUS
 62
     5
 10
200.02087
 20
-129.9999999999999
 30
0.0
 11
200.02087
 21
-154.9999999999999
 31
0.0
  0
LINE
  5
1745
  8
DETAIL
  6
CONTINUOUS
 62
     5
 10
215.02087
 20
-173.9999999999999
 30
0.0
 11
215.02087
 21
-198.9999999999999
 31
0.0
  0
ARC
  5
1746
  8
DETAIL
  6
CONTINUOUS
 62
     5
 10
207.52087
 20
-173.9999999999999
 30
0.0
 40
7.5
 50
0.0
 51
180.0
  0
ARC
  5
1747
  8
DETAIL
  6
CONTINUOUS
 62
     5
 10
207.52087
 20
-198.9999999999999
 30
0.0
 40
7.5
 50
180.0
 51
0.0
  0
LINE
  5
1748
  8
DETAIL
  6
CONTINUOUS
 62
     5
 10
215.02087
 20
-173.9999999999999
 30
0.0
 11
215.02087
 21
-198.9999999999999
 31
0.0
  0
LINE
  5
1749
  8
DETAIL
  6
CONTINUOUS
 62
     5
 10
200.02087
 20
-173.9999999999999
 30
0.0
 11
200.02087
 21
-198.9999999999999
 31
0.0
  0
LINE
  5
174A
  8
DETAIL
  6
CONTINUOUS
 62
     5
 10
160.02087
 20
-173.9999999999999
 30
0.0
 11
160.02087
 21
-198.9999999999999
 31
0.0
  0
LINE
  5
174B
  8
DETAIL
  6
CONTINUOUS
 62
     5
 10
175.0208699999996
 20
-173.9999999999999
 30
0.0
 11
175.0208699999996
 21
-198.9999999999999
 31
0.0
  0
ARC
  5
174C
  8
DETAIL
  6
CONTINUOUS
 62
     5
 10
167.5208699999996
 20
-198.9999999999999
 30
0.0
 40
7.5
 50
180.0
 51
0.0
  0
ARC
  5
174D
  8
DETAIL
  6
CONTINUOUS
 62
     5
 10
167.5208699999996
 20
-173.9999999999999
 30
0.0
 40
7.5
 50
0.0
 51
180.0
  0
LINE
  5
174E
  8
DETAIL
  6
CONTINUOUS
 62
     5
 10
175.0208699999996
 20
-173.9999999999999
 30
0.0
 11
175.0208699999996
 21
-198.9999999999999
 31
0.0
  0
LINE
  5
174F
  8
DETAIL
  6
CONTINUOUS
 62
     5
 10
160.02087
 20
-129.9999999999999
 30
0.0
 11
160.02087
 21
-154.9999999999999
 31
0.0
  0
LINE
  5
1750
  8
DETAIL
  6
CONTINUOUS
 62
     5
 10
175.0208699999996
 20
-129.9999999999999
 30
0.0
 11
175.0208699999996
 21
-154.9999999999999
 31
0.0
  0
ARC
  5
1751
  8
DETAIL
  6
CONTINUOUS
 62
     5
 10
167.5208699999996
 20
-154.9999999999999
 30
0.0
 40
7.5
 50
180.0
 51
0.0
  0
ARC
  5
1752
  8
DETAIL
  6
CONTINUOUS
 62
     5
 10
167.5208699999996
 20
-129.9999999999999
 30
0.0
 40
7.5
 50
0.0
 51
180.0
  0
LINE
  5
1753
  8
DETAIL
  6
CONTINUOUS
 62
     5
 10
175.0208699999996
 20
-129.9999999999999
 30
0.0
 11
175.0208699999996
 21
-154.9999999999999
 31
0.0
  0
LINE
  5
1754
  8
DETAIL
  6
CONTINUOUS
 62
     5
 10
175.0208699999996
 20
-86.0
 30
0.0
 11
175.0208699999996
 21
-110.9999999999999
 31
0.0
  0
ARC
  5
1755
  8
DETAIL
  6
CONTINUOUS
 62
     5
 10
167.5208699999996
 20
-86.0
 30
0.0
 40
7.5
 50
0.0
 51
180.0
  0
ARC
  5
1756
  8
DETAIL
  6
CONTINUOUS
 62
     5
 10
167.5208699999996
 20
-110.9999999999999
 30
0.0
 40
7.5
 50
180.0
 51
0.0
  0
LINE
  5
1757
  8
DETAIL
  6
CONTINUOUS
 62
     5
 10
175.0208699999996
 20
-86.0
 30
0.0
 11
175.0208699999996
 21
-110.9999999999999
 31
0.0
  0
LINE
  5
1758
  8
DETAIL
  6
CONTINUOUS
 62
     5
 10
160.02087
 20
-86.0
 30
0.0
 11
160.02087
 21
-110.9999999999999
 31
0.0
  0
LINE
  5
1759
  8
DETAIL
  6
CONTINUOUS
 62
     5
 10
39.9999849999999
 20
-86.0
 30
0.0
 11
39.9999849999999
 21
-110.9999999999999
 31
0.0
  0
LINE
  5
175A
  8
DETAIL
  6
CONTINUOUS
 62
     5
 10
54.99998499999992
 20
-86.0
 30
0.0
 11
54.99998499999992
 21
-110.9999999999999
 31
0.0
  0
ARC
  5
175B
  8
DETAIL
  6
CONTINUOUS
 62
     5
 10
47.49998499999981
 20
-110.9999999999999
 30
0.0
 40
7.5
 50
180.0
 51
0.0
  0
ARC
  5
175C
  8
DETAIL
  6
CONTINUOUS
 62
     5
 10
47.49998499999981
 20
-86.0
 30
0.0
 40
7.5
 50
0.0
 51
180.0
  0
LINE
  5
175D
  8
DETAIL
  6
CONTINUOUS
 62
     5
 10
54.99998499999992
 20
-86.0
 30
0.0
 11
54.99998499999992
 21
-110.9999999999999
 31
0.0
  0
LINE
  5
175E
  8
DETAIL
  6
CONTINUOUS
 62
     5
 10
54.99998499999992
 20
-129.9999999999999
 30
0.0
 11
54.99998499999992
 21
-154.9999999999999
 31
0.0
  0
ARC
  5
175F
  8
DETAIL
  6
CONTINUOUS
 62
     5
 10
47.49998499999981
 20
-129.9999999999999
 30
0.0
 40
7.5
 50
0.0
 51
180.0
  0
ARC
  5
1760
  8
DETAIL
  6
CONTINUOUS
 62
     5
 10
47.49998499999981
 20
-154.9999999999999
 30
0.0
 40
7.5
 50
180.0
 51
0.0
  0
LINE
  5
1761
  8
DETAIL
  6
CONTINUOUS
 62
     5
 10
54.99998499999992
 20
-129.9999999999999
 30
0.0
 11
54.99998499999992
 21
-154.9999999999999
 31
0.0
  0
LINE
  5
1762
  8
DETAIL
  6
CONTINUOUS
 62
     5
 10
39.9999849999999
 20
-129.9999999999999
 30
0.0
 11
39.9999849999999
 21
-154.9999999999999
 31
0.0
  0
LINE
  5
1763
  8
DETAIL
  6
CONTINUOUS
 62
     5
 10
54.99998499999992
 20
-173.9999999999999
 30
0.0
 11
54.99998499999992
 21
-198.9999999999999
 31
0.0
  0
ARC
  5
1764
  8
DETAIL
  6
CONTINUOUS
 62
     5
 10
47.49998499999981
 20
-173.9999999999999
 30
0.0
 40
7.5
 50
0.0
 51
180.0
  0
ARC
  5
1765
  8
DETAIL
  6
CONTINUOUS
 62
     5
 10
47.49998499999981
 20
-198.9999999999999
 30
0.0
 40
7.5
 50
180.0
 51
0.0
  0
LINE
  5
1766
  8
DETAIL
  6
CONTINUOUS
 62
     5
 10
54.99998499999992
 20
-173.9999999999999
 30
0.0
 11
54.99998499999992
 21
-198.9999999999999
 31
0.0
  0
LINE
  5
1767
  8
DETAIL
  6
CONTINUOUS
 62
     5
 10
39.9999849999999
 20
-173.9999999999999
 30
0.0
 11
39.9999849999999
 21
-198.9999999999999
 31
0.0
  0
LINE
  5
1768
  8
DETAIL
  6
CONTINUOUS
 62
     5
 10
79.99998499999992
 20
-173.9999999999999
 30
0.0
 11
79.99998499999992
 21
-198.9999999999999
 31
0.0
  0
LINE
  5
1769
  8
DETAIL
  6
CONTINUOUS
 62
     5
 10
94.99998499999992
 20
-173.9999999999999
 30
0.0
 11
94.99998499999992
 21
-198.9999999999999
 31
0.0
  0
ARC
  5
176A
  8
DETAIL
  6
CONTINUOUS
 62
     5
 10
87.49998499999992
 20
-198.9999999999999
 30
0.0
 40
7.5
 50
180.0
 51
0.0
  0
ARC
  5
176B
  8
DETAIL
  6
CONTINUOUS
 62
     5
 10
87.49998499999992
 20
-173.9999999999999
 30
0.0
 40
7.5
 50
0.0
 51
180.0
  0
LINE
  5
176C
  8
DETAIL
  6
CONTINUOUS
 62
     5
 10
94.99998499999992
 20
-173.9999999999999
 30
0.0
 11
94.99998499999992
 21
-198.9999999999999
 31
0.0
  0
LINE
  5
176D
  8
DETAIL
  6
CONTINUOUS
 62
     5
 10
79.99998499999992
 20
-129.9999999999999
 30
0.0
 11
79.99998499999992
 21
-154.9999999999999
 31
0.0
  0
LINE
  5
176E
  8
DETAIL
  6
CONTINUOUS
 62
     5
 10
94.99998499999992
 20
-129.9999999999999
 30
0.0
 11
94.99998499999992
 21
-154.9999999999999
 31
0.0
  0
ARC
  5
176F
  8
DETAIL
  6
CONTINUOUS
 62
     5
 10
87.49998499999992
 20
-154.9999999999999
 30
0.0
 40
7.5
 50
180.0
 51
0.0
  0
ARC
  5
1770
  8
DETAIL
  6
CONTINUOUS
 62
     5
 10
87.49998499999992
 20
-129.9999999999999
 30
0.0
 40
7.5
 50
0.0
 51
180.0
  0
LINE
  5
1771
  8
DETAIL
  6
CONTINUOUS
 62
     5
 10
94.99998499999992
 20
-129.9999999999999
 30
0.0
 11
94.99998499999992
 21
-154.9999999999999
 31
0.0
  0
LINE
  5
1772
  8
DETAIL
  6
CONTINUOUS
 62
     5
 10
94.99998499999992
 20
-86.0
 30
0.0
 11
94.99998499999992
 21
-110.9999999999999
 31
0.0
  0
ARC
  5
1773
  8
DETAIL
  6
CONTINUOUS
 62
     5
 10
87.49998499999992
 20
-86.0
 30
0.0
 40
7.5
 50
0.0
 51
180.0
  0
ARC
  5
1774
  8
DETAIL
  6
CONTINUOUS
 62
     5
 10
87.49998499999992
 20
-110.9999999999999
 30
0.0
 40
7.5
 50
180.0
 51
0.0
  0
LINE
  5
1775
  8
DETAIL
  6
CONTINUOUS
 62
     5
 10
94.99998499999992
 20
-86.0
 30
0.0
 11
94.99998499999992
 21
-110.9999999999999
 31
0.0
  0
LINE
  5
1776
  8
DETAIL
  6
CONTINUOUS
 62
     5
 10
79.99998499999992
 20
-86.0
 30
0.0
 11
79.99998499999992
 21
-110.9999999999999
 31
0.0
  0
LINE
  5
1777
  8
DETAIL
  6
CONTINUOUS
 62
     5
 10
59.99998499999992
 20
-86.0
 30
0.0
 11
59.99998499999992
 21
-110.9999999999999
 31
0.0
  0
LINE
  5
1778
  8
DETAIL
  6
CONTINUOUS
 62
     5
 10
74.99998499999992
 20
-86.0
 30
0.0
 11
74.99998499999992
 21
-110.9999999999999
 31
0.0
  0
ARC
  5
1779
  8
DETAIL
  6
CONTINUOUS
 62
     5
 10
67.49998499999992
 20
-110.9999999999999
 30
0.0
 40
7.5
 50
180.0
 51
0.0
  0
ARC
  5
177A
  8
DETAIL
  6
CONTINUOUS
 62
     5
 10
67.49998499999992
 20
-86.0
 30
0.0
 40
7.5
 50
0.0
 51
180.0
  0
LINE
  5
177B
  8
DETAIL
  6
CONTINUOUS
 62
     5
 10
74.99998499999992
 20
-86.0
 30
0.0
 11
74.99998499999992
 21
-110.9999999999999
 31
0.0
  0
LINE
  5
177C
  8
DETAIL
  6
CONTINUOUS
 62
     5
 10
74.99998499999992
 20
-129.9999999999999
 30
0.0
 11
74.99998499999992
 21
-154.9999999999999
 31
0.0
  0
ARC
  5
177D
  8
DETAIL
  6
CONTINUOUS
 62
     5
 10
67.49998499999992
 20
-129.9999999999999
 30
0.0
 40
7.5
 50
0.0
 51
180.0
  0
ARC
  5
177E
  8
DETAIL
  6
CONTINUOUS
 62
     5
 10
67.49998499999992
 20
-154.9999999999999
 30
0.0
 40
7.5
 50
180.0
 51
0.0
  0
LINE
  5
177F
  8
DETAIL
  6
CONTINUOUS
 62
     5
 10
74.99998499999992
 20
-129.9999999999999
 30
0.0
 11
74.99998499999992
 21
-154.9999999999999
 31
0.0
  0
LINE
  5
1780
  8
DETAIL
  6
CONTINUOUS
 62
     5
 10
59.99998499999992
 20
-129.9999999999999
 30
0.0
 11
59.99998499999992
 21
-154.9999999999999
 31
0.0
  0
LINE
  5
1781
  8
DETAIL
  6
CONTINUOUS
 62
     5
 10
74.99998499999992
 20
-173.9999999999999
 30
0.0
 11
74.99998499999992
 21
-198.9999999999999
 31
0.0
  0
ARC
  5
1782
  8
DETAIL
  6
CONTINUOUS
 62
     5
 10
67.49998499999992
 20
-173.9999999999999
 30
0.0
 40
7.5
 50
0.0
 51
180.0
  0
ARC
  5
1783
  8
DETAIL
  6
CONTINUOUS
 62
     5
 10
67.49998499999992
 20
-198.9999999999999
 30
0.0
 40
7.5
 50
180.0
 51
0.0
  0
LINE
  5
1784
  8
DETAIL
  6
CONTINUOUS
 62
     5
 10
74.99998499999992
 20
-173.9999999999999
 30
0.0
 11
74.99998499999992
 21
-198.9999999999999
 31
0.0
  0
LINE
  5
1785
  8
DETAIL
  6
CONTINUOUS
 62
     5
 10
59.99998499999992
 20
-173.9999999999999
 30
0.0
 11
59.99998499999992
 21
-198.9999999999999
 31
0.0
  0
LINE
  5
1786
  8
DETAIL
  6
CONTINUOUS
 62
     5
 10
-215.0209
 20
-86.0
 30
0.0
 11
-215.0209
 21
-110.9999999999999
 31
0.0
  0
LINE
  5
1787
  8
DETAIL
  6
CONTINUOUS
 62
     5
 10
-215.0209
 20
-129.9999999999999
 30
0.0
 11
-215.0209
 21
-154.9999999999999
 31
0.0
  0
LINE
  5
1788
  8
DETAIL
  6
CONTINUOUS
 62
     5
 10
-215.0209
 20
-173.9999999999999
 30
0.0
 11
-215.0209
 21
-198.9999999999999
 31
0.0
  0
LINE
  5
1789
  8
SIZE
  6
BYBLOCK
 62
    30
 10
-260.0
 20
248.9999999999999
 30
0.0
 11
-260.0
 21
479.2223074999418
 31
0.0
  0
LINE
  5
178A
  8
SIZE
  6
BYBLOCK
 62
    30
 10
259.9999999999999
 20
248.9999999999999
 30
0.0
 11
259.9999999999999
 21
475.0839446391673
 31
0.0
  0
LINE
  5
178B
  8
SIZE
  6
BYBLOCK
 62
    30
 10
-258.0
 20
448.1845974475971
 30
0.0
 11
258.0000000000001
 21
448.1845974475971
 31
0.0
  0
TEXT
  5
178C
  8
SIZE
  6
BYBLOCK
 62
    30
 10
-74.05714300000008
 20
480.1845974475974
 30
0.0
 40
64.0
  1
520
 41
0.9
  0
LINE
  5
178D
  8
SIZE
  6
BYBLOCK
 62
    30
 10
250.0
 20
258.9999999999999
 30
0.0
 11
565.8028359290226
 21
258.9999999999999
 31
0.0
  0
LINE
  5
178E
  8
SIZE
  6
BYBLOCK
 62
    30
 10
250.0
 20
-258.9999999999998
 30
0.0
 11
563.7327895043736
 21
-258.9999999999998
 31
0.0
  0
LINE
  5
178F
  8
SIZE
  6
BYBLOCK
 62
    30
 10
532.682070424169
 20
256.9999999999998
 30
0.0
 11
532.682070424169
 21
-256.9999999999998
 31
0.0
  0
TEXT
  5
1790
  8
SIZE
  6
BYBLOCK
 62
    30
 10
500.6820704241691
 20
-68.571429
 30
0.0
 40
64.0
  1
518
 50
90.0
 41
0.9
  0
CIRCLE
  5
1791
  8
SIZE
  6
CONTINUOUS
 62
    30
 10
532.682070424169
 20
-258.9999999999998
 30
0.0
 40
6.0
  0
CIRCLE
  5
1792
  8
SIZE
  6
CONTINUOUS
 62
    30
 10
532.682070424169
 20
258.9999999999999
 30
0.0
 40
6.0
  0
CIRCLE
  5
1793
  8
SIZE
  6
CONTINUOUS
 62
    30
 10
259.9999999999999
 20
448.1845974475971
 30
0.0
 40
6.0
  0
CIRCLE
  5
1794
  8
SIZE
  6
CONTINUOUS
 62
    30
 10
-260.0
 20
448.1845974475971
 30
0.0
 40
6.0
  0
LINE
  5
1795
  8
NOTE
  6
CONTINUOUS
 62
     4
 10
-259.9999999999995
 20
-210.0000000000001
 30
0.0
 11
-259.9999999999995
 21
-170.0000000000001
 31
0.0
  0
LINE
  5
1796
  8
NOTE
  6
CONTINUOUS
 62
     4
 10
-279.9999999999995
 20
-190.0000000000001
 30
0.0
 11
-239.9999999999995
 21
-190.0000000000001
 31
0.0
  0
LINE
  5
1797
  8
NOTE
  6
CONTINUOUS
 62
     4
 10
-289.8057699999997
 20
-163.3238669999999
 30
0.0
 11
-259.9999999999995
 21
-190.0000000000001
 31
0.0
  0
LINE
  5
1798
  8
NOTE
  6
CONTINUOUS
 62
     4
 10
-259.9999999999995
 20
-190.0000000000001
 30
0.0
 11
-272.4744879999996
 21
-151.9949060000002
 31
0.0
  0
TEXT
  5
1799
  8
ETC
  6
CONTINUOUS
 62
    61
 10
637.9916908001015
 20
618.9187559982086
 30
0.0
 40
64.0
  1
EFG-40MFSB_2
 41
0.9
  0
TEXT
  5
179A
  8
ETC
  6
CONTINUOUS
 62
    61
 10
740.6640554653209
 20
449.9999999999998
 30
0.0
 40
50.0
  1
EFG-40MFSB
 41
0.9
  0
TEXT
  5
179B
  8
ETC
  6
CONTINUOUS
 62
    61
 10
631.6884226931666
 20
525.8841763688641
 30
0.0
 40
64.0
  1
産業扇
 41
0.9
  0
ENDSEC
  0
EOF
