  0
SECTION
  2
HEADER
  9
$ACADVER
  1
AC1009
  9
$DWGCODEPAGE
  3
ansi_932
  9
$INSBASE
 10
0.0
 20
0.0
 30
0.0
  9
$EXTMIN
 10
-540.0269737284477
 20
-231.6531629999999
 30
0.0
  9
$EXTMAX
 10
1262.564060241154
 20
749.1932437428646
 30
0.0
  9
$LIMMIN
 10
-2970.0
 20
-2100.0
  9
$LIMMAX
 10
2970.0
 20
2100.0
  9
$ORTHOMODE
 70
     1
  9
$REGENMODE
 70
     0
  9
$FILLMODE
 70
     1
  9
$QTEXTMODE
 70
     0
  9
$MIRRTEXT
 70
     0
  9
$DRAGMODE
 70
     2
  9
$LTSCALE
 40
20.0
  9
$OSMODE
 70
    37
  9
$ATTMODE
 70
     1
  9
$TEXTSIZE
 40
64.0
  9
$TRACEWID
 40
0.05
  9
$TEXTSTYLE
  7
STANDARD
  9
$CLAYER
  8
SIZE
  9
$CELTYPE
  6
CONTINUOUS
  9
$CECOLOR
 62
    30
  9
$DIMSCALE
 40
1.0
  9
$DIMASZ
 40
2.0
  9
$DIMEXO
 40
20.0
  9
$DIMDLI
 40
200.0
  9
$DIMRND
 40
0.0
  9
$DIMDLE
 40
0.0
  9
$DIMEXE
 40
30.0
  9
$DIMTP
 40
0.0
  9
$DIMTM
 40
0.0
  9
$DIMTXT
 40
64.0
  9
$DIMCEN
 40
0.09
  9
$DIMTSZ
 40
0.0
  9
$DIMTOL
 70
     0
  9
$DIMLIM
 70
     0
  9
$DIMTIH
 70
     0
  9
$DIMTOH
 70
     0
  9
$DIMSE1
 70
     0
  9
$DIMSE2
 70
     0
  9
$DIMTAD
 70
     1
  9
$DIMZIN
 70
     8
  9
$DIMBLK
  1

  9
$DIMASO
 70
     1
  9
$DIMSHO
 70
     0
  9
$DIMPOST
  1

  9
$DIMAPOST
  1

  9
$DIMALT
 70
     0
  9
$DIMALTD
 70
     2
  9
$DIMALTF
 40
25.4
  9
$DIMLFAC
 40
1.0
  9
$DIMTOFL
 70
     1
  9
$DIMTVP
 40
0.0
  9
$DIMTIX
 70
     1
  9
$DIMSOXD
 70
     0
  9
$DIMSAH
 70
     0
  9
$DIMBLK1
  1

  9
$DIMBLK2
  1

  9
$DIMSTYLE
  2
STANDARD
  9
$DIMCLRD
 70
     0
  9
$DIMCLRE
 70
     0
  9
$DIMCLRT
 70
     0
  9
$DIMTFAC
 40
1.0
  9
$DIMGAP
 40
0.09
  9
$LUNITS
 70
     2
  9
$LUPREC
 70
     4
  9
$SKETCHINC
 40
0.1
  9
$FILLETRAD
 40
10.0
  9
$AUNITS
 70
     1
  9
$AUPREC
 70
     3
  9
$MENU
  1
ACAD
  9
$ELEVATION
 40
0.0
  9
$PELEVATION
 40
0.0
  9
$THICKNESS
 40
0.0
  9
$LIMCHECK
 70
     0
  9
$CHAMFERA
 40
0.0
  9
$CHAMFERB
 40
0.0
  9
$SKPOLY
 70
     0
  9
$TDCREATE
 40
2450967.654942118
  9
$TDUPDATE
 40
2457485.55509779
  9
$TDINDWG
 40
0.0175323727
  9
$TDUSRTIMER
 40
0.0175318056
  9
$USRTIMER
 70
     1
  9
$ANGBASE
 50
0.0
  9
$ANGDIR
 70
     0
  9
$PDMODE
 70
     3
  9
$PDSIZE
 40
-2.0
  9
$PLINEWID
 40
0.0
  9
$COORDS
 70
     1
  9
$SPLFRAME
 70
     0
  9
$SPLINETYPE
 70
     6
  9
$SPLINESEGS
 70
     8
  9
$ATTDIA
 70
     0
  9
$ATTREQ
 70
     1
  9
$HANDLING
 70
     1
  9
$HANDSEED
  5
3C8
  9
$SURFTAB1
 70
     6
  9
$SURFTAB2
 70
     6
  9
$SURFTYPE
 70
     6
  9
$SURFU
 70
     6
  9
$SURFV
 70
     6
  9
$UCSNAME
  2

  9
$UCSORG
 10
0.0
 20
0.0
 30
0.0
  9
$UCSXDIR
 10
1.0
 20
0.0
 30
0.0
  9
$UCSYDIR
 10
0.0
 20
1.0
 30
0.0
  9
$PUCSNAME
  2

  9
$PUCSORG
 10
0.0
 20
0.0
 30
0.0
  9
$PUCSXDIR
 10
1.0
 20
0.0
 30
0.0
  9
$PUCSYDIR
 10
0.0
 20
1.0
 30
0.0
  9
$USERI1
 70
     0
  9
$USERI2
 70
     0
  9
$USERI3
 70
     0
  9
$USERI4
 70
     0
  9
$USERI5
 70
     0
  9
$USERR1
 40
20.0
  9
$USERR2
 40
0.0
  9
$USERR3
 40
0.0
  9
$USERR4
 40
0.0
  9
$USERR5
 40
0.0
  9
$WORLDVIEW
 70
     1
  9
$SHADEDGE
 70
     3
  9
$SHADEDIF
 70
    70
  9
$TILEMODE
 70
     1
  9
$MAXACTVP
 70
    64
  9
$PLIMCHECK
 70
     0
  9
$PEXTMIN
 10
1.000000000000000E+20
 20
1.000000000000000E+20
 30
1.000000000000000E+20
  9
$PEXTMAX
 10
-1.000000000000000E+20
 20
-1.000000000000000E+20
 30
-1.000000000000000E+20
  9
$PLIMMIN
 10
0.0
 20
0.0
  9
$PLIMMAX
 10
12.0
 20
9.0
  9
$UNITMODE
 70
     0
  9
$VISRETAIN
 70
     1
  9
$PLINEGEN
 70
     0
  9
$PSLTSCALE
 70
     1
  0
ENDSEC
  0
SECTION
  2
TABLES
  0
TABLE
  2
VPORT
 70
     1
  0
VPORT
  2
*ACTIVE
 70
     0
 10
0.0
 20
0.0
 11
1.0
 21
1.0
 12
355.9461348329964
 22
257.0605849526628
 13
0.0
 23
0.0
 14
50.0
 24
50.0
 15
100.0
 25
100.0
 16
0.0
 26
0.0
 36
1.0
 17
0.0
 27
0.0
 37
0.0
 40
1421.616050939097
 41
1.493654822335025
 42
50.0
 43
0.0
 44
0.0
 50
0.0
 51
0.0
 71
     0
 72
  1000
 73
     1
 74
     0
 75
     0
 76
     0
 77
     0
 78
     1
  0
ENDTAB
  0
TABLE
  2
LTYPE
 70
     7
  0
LTYPE
  2
CONTINUOUS
 70
     0
  3
実線
 72
    65
 73
     0
 40
0.0
  0
LTYPE
  2
DASHDOT
 70
     0
  3
____ _ ____ _ ____ _ ____ _ ____ _ ____ _ ____
 72
    65
 73
     4
 40
5.5
 49
4.0
 49
-0.6
 49
0.3
 49
-0.6
  0
LTYPE
  2
DASHED
 70
     0
  3
_ _ _ _ _ _ _ _ _ _ _ _ _ _ _ _ _ _ _ _ _ _ _
 72
    65
 73
     2
 40
1.999999999999999
 49
1.199999999999999
 49
-0.8
  0
LTYPE
  2
DOT
 70
     0
  3
...............................................
 72
    65
 73
     2
 40
0.8
 49
0.5
 49
-0.3
  0
LTYPE
  2
DASHDOT1
 70
     0
  3
____ _ ____ _ ____ _ ____ _ ____ _ ____ _ ____
 72
    65
 73
     4
 40
2.0
 49
1.5
 49
-0.2
 49
0.1
 49
-0.2
  0
LTYPE
  2
DIVIDE
 70
     0
  3
_____ _ _ _____ _ _ _____ _ _ _____ _ _ ____
 72
    65
 73
     6
 40
6.4
 49
4.0
 49
-0.6
 49
0.3
 49
-0.6
 49
0.3
 49
-0.6
  0
LTYPE
  2
DIVIDE1
 70
     0
  3
_____ _ _ _____ _ _ _____ _ _ _____ _ _ ____
 72
    65
 73
     6
 40
3.2
 49
2.0
 49
-0.3
 49
0.15
 49
-0.3
 49
0.15
 49
-0.3
  0
ENDTAB
  0
TABLE
  2
LAYER
 70
    12
  0
LAYER
  2
0
 70
     0
 62
     7
  6
CONTINUOUS
  0
LAYER
  2
SIZE
 70
     0
 62
    30
  6
CONTINUOUS
  0
LAYER
  2
OUTLINE
 70
     0
 62
     3
  6
CONTINUOUS
  0
LAYER
  2
DETAIL
 70
     0
 62
     5
  6
CONTINUOUS
  0
LAYER
  2
BASIS
 70
     0
 62
     6
  6
DASHDOT
  0
LAYER
  2
NOTE
 70
     0
 62
     4
  6
CONTINUOUS
  0
LAYER
  2
DEFPOINTS
 70
     0
 62
     7
  6
CONTINUOUS
  0
LAYER
  2
ETC
 70
     0
 62
    61
  6
CONTINUOUS
  0
LAYER
  2
ARRANGE
 70
     0
 62
     1
  6
CONTINUOUS
  0
LAYER
  2
FIX
 70
     0
 62
    11
  6
CONTINUOUS
  0
LAYER
  2
SERVICESPACE
 70
     0
 62
     2
  6
DASHDOT
  0
LAYER
  2
SYMBOLLINE
 70
     0
 62
    15
  6
CONTINUOUS
  0
ENDTAB
  0
TABLE
  2
STYLE
 70
     1
  0
STYLE
  2
STANDARD
 70
     0
 40
0.0
 41
0.9
 50
0.0
 71
     0
 42
64.0
  3
SIMPLEX
  4
BIGFONT
  0
ENDTAB
  0
TABLE
  2
VIEW
 70
     1
  0
VIEW
  2
ALL
 70
     0
 40
4282.619807999997
 10
0.0
 20
41.30990399999999
 41
5940.0
 11
0.0
 21
0.0
 31
1.0
 12
0.0
 22
0.0
 32
0.0
 42
50.0
 43
0.0
 44
0.0
 50
0.0
 71
     0
  0
ENDTAB
  0
TABLE
  2
UCS
 70
     0
  0
ENDTAB
  0
TABLE
  2
APPID
 70
     1
  0
APPID
  2
ACAD
 70
     0
  0
ENDTAB
  0
TABLE
  2
DIMSTYLE
 70
     1
  0
DIMSTYLE
  2
STANDARD
 70
     0
  3

  4

  5

  6

  7

 40
1.0
 41
0.18
 42
0.0625
 43
0.38
 44
0.18
 45
0.0
 46
0.0
 47
0.0
 48
0.0
140
0.18
141
0.09
142
0.0
143
25.4
144
1.0
145
0.0
146
1.0
147
0.09
 71
     0
 72
     0
 73
     1
 74
     1
 75
     0
 76
     0
 77
     0
 78
     0
170
     0
171
     2
172
     0
173
     0
174
     0
175
     0
176
     0
177
     0
178
     0
  0
ENDTAB
  0
ENDSEC
  0
SECTION
  2
BLOCKS
  0
BLOCK
  8
0
  2
$MODEL_SPACE
 70
     0
 10
0.0
 20
0.0
 30
0.0
  3
$MODEL_SPACE
  1

  0
ENDBLK
  5
290
  8
0
  0
BLOCK
 67
     1
  8
0
  2
$PAPER_SPACE
 70
     0
 10
0.0
 20
0.0
 30
0.0
  3
$PAPER_SPACE
  1

  0
ENDBLK
  5
28C
 67
     1
  8
0
  0
ENDSEC
  0
SECTION
  2
ENTITIES
  0
LINE
  5
2AE
  8
NOTE
  6
CONTINUOUS
 62
     4
 10
-260.0537675479933
 20
-0.3893427995944307
 30
0.0
 11
-353.3968035814975
 21
296.6316002410473
 31
0.0
  0
LINE
  5
2AF
  8
NOTE
  6
CONTINUOUS
 62
     4
 10
-353.3968035814975
 20
296.6316002410473
 30
0.0
 11
-462.4234275814977
 21
296.6316002410473
 31
0.0
  0
LINE
  5
2B0
  8
BASIS
  6
DASHDOT
 62
     6
 10
0.0
 20
208.7785938191808
 30
0.0
 11
0.0
 21
-231.6531629999999
 31
0.0
  0
POINT
  5
2B1
  8
ARRANGE
  6
CONTINUOUS
 62
     1
 10
0.0
 20
0.0
 30
0.0
  0
LINE
  5
2B2
  8
DETAIL
  6
CONTINUOUS
 62
     5
 10
-211.4999999999999
 20
149.0
 30
0.0
 11
-211.4999999999999
 21
0.0
 31
0.0
  0
LINE
  5
2B3
  8
DETAIL
  6
CONTINUOUS
 62
     5
 10
211.5
 20
149.0
 30
0.0
 11
211.5
 21
0.0
 31
0.0
  0
LINE
  5
2B4
  8
NOTE
  6
CONTINUOUS
 62
     4
 10
230.0
 20
0.0
 30
0.0
 11
353.8731379999999
 21
-102.6040129999999
 31
0.0
  0
LINE
  5
2B5
  8
NOTE
  6
CONTINUOUS
 62
     4
 10
353.8731379999999
 20
-102.6040129999999
 30
0.0
 11
646.8410579999997
 21
-102.6040129999999
 31
0.0
  0
LINE
  5
2B6
  8
NOTE
  6
CONTINUOUS
 62
     4
 10
-278.9420465428292
 20
0.0
 30
0.0
 11
-243.9310389999998
 21
0.0
 31
0.0
  0
LINE
  5
2B7
  8
DETAIL
  6
CONTINUOUS
 62
     5
 10
-259.9999999999999
 20
0.0
 30
0.0
 11
259.9999999999999
 21
0.0
 31
0.0
  0
CIRCLE
  5
2B8
  8
ARRANGE
  6
CONTINUOUS
 62
     1
 10
0.0
 20
0.0
 30
0.0
 40
54.48275999999999
  0
TEXT
  5
2B9
  8
NOTE
  6
CONTINUOUS
 62
     4
 10
-442.2828193242348
 20
321.2531111099373
 30
0.0
 40
64.0
  1
EL
 41
0.9
  0
TEXT
  5
2BA
  8
NOTE
  6
CONTINUOUS
 62
     4
 10
356.405817
 20
-76.33802699999998
 30
0.0
 40
64.0
  1
4-φ14
 41
0.9
  0
LINE
  5
2BB
  8
DETAIL
  6
CONTINUOUS
 62
     5
 10
-201.4999999999998
 20
159.0
 30
0.0
 11
201.4999999999999
 21
159.0
 31
0.0
  0
LINE
  5
2BC
  8
DETAIL
  6
CONTINUOUS
 62
     5
 10
-229.9999999999998
 20
-184.0
 30
0.0
 11
230.0
 21
-184.0
 31
0.0
  0
LINE
  5
2BD
  8
OUTLINE
  6
CONTINUOUS
 62
     3
 10
-259.9999999999999
 20
0.0
 30
0.0
 11
259.9999999999999
 21
0.0
 31
0.0
  0
LINE
  5
2BE
  8
OUTLINE
  6
CONTINUOUS
 62
     3
 10
-229.9999999999998
 20
-184.0
 30
0.0
 11
230.0
 21
-184.0
 31
0.0
  0
LINE
  5
2BF
  8
OUTLINE
  6
CONTINUOUS
 62
     3
 10
211.5
 20
149.0
 30
0.0
 11
211.5
 21
0.0
 31
0.0
  0
LINE
  5
2C0
  8
OUTLINE
  6
CONTINUOUS
 62
     3
 10
-211.4999999999999
 20
149.0
 30
0.0
 11
-211.4999999999999
 21
0.0
 31
0.0
  0
LINE
  5
2C1
  8
OUTLINE
  6
CONTINUOUS
 62
     3
 10
-201.4999999999998
 20
159.0
 30
0.0
 11
201.4999999999999
 21
159.0
 31
0.0
  0
LINE
  5
2C2
  8
DETAIL
  6
CONTINUOUS
 62
     5
 10
-259.9999999999999
 20
0.0
 30
0.0
 11
-259.9999999999999
 21
-154.0
 31
0.0
  0
LINE
  5
2C3
  8
DETAIL
  6
CONTINUOUS
 62
     5
 10
259.9999999999999
 20
0.0
 30
0.0
 11
259.9999999999999
 21
-154.0
 31
0.0
  0
LINE
  5
2C4
  8
OUTLINE
  6
CONTINUOUS
 62
     3
 10
-259.9999999999999
 20
0.0
 30
0.0
 11
-259.9999999999999
 21
-154.0
 31
0.0
  0
LINE
  5
2C5
  8
OUTLINE
  6
CONTINUOUS
 62
     3
 10
259.9999999999999
 20
0.0
 30
0.0
 11
259.9999999999999
 21
-154.0
 31
0.0
  0
ARC
  5
2C6
  8
OUTLINE
  6
CONTINUOUS
 62
     3
 10
230.0
 20
-154.0
 30
0.0
 40
30.0
 50
270.0
 51
0.0
  0
ARC
  5
2C7
  8
OUTLINE
  6
CONTINUOUS
 62
     3
 10
-229.9999999999998
 20
-154.0
 30
0.0
 40
30.0
 50
180.0
 51
270.0
  0
ARC
  5
2C8
  8
DETAIL
  6
CONTINUOUS
 62
     5
 10
230.0
 20
-154.0
 30
0.0
 40
30.0
 50
270.0
 51
0.0
  0
ARC
  5
2C9
  8
DETAIL
  6
CONTINUOUS
 62
     5
 10
-229.9999999999998
 20
-154.0
 30
0.0
 40
30.0
 50
180.0
 51
270.0
  0
LINE
  5
2CA
  8
SIZE
  6
BYBLOCK
 62
    30
 10
259.9999999999999
 20
20.0
 30
0.0
 11
259.9999999999999
 21
633.6659961452924
 31
0.0
  0
LINE
  5
2CB
  8
SIZE
  6
BYBLOCK
 62
    30
 10
-259.9999999999999
 20
20.0
 30
0.0
 11
-259.9999999999999
 21
629.8791719472355
 31
0.0
  0
LINE
  5
2CC
  8
SIZE
  6
BYBLOCK
 62
    30
 10
257.9999999999999
 20
599.9001862487017
 30
0.0
 11
-257.9999999999998
 21
599.9001862487017
 31
0.0
  0
TEXT
  5
2CD
  8
SIZE
  6
BYBLOCK
 62
    30
 10
-106.6971429999999
 20
631.9001862487017
 30
0.0
 40
64.0
  1
□520
 41
0.9
  0
LINE
  5
2CE
  8
SIZE
  6
BYBLOCK
 62
    30
 10
-279.9999999999998
 20
0.0
 30
0.0
 11
-561.8936219999998
 21
0.0
 31
0.0
  0
LINE
  5
2CF
  8
SIZE
  6
BYBLOCK
 62
    30
 10
-249.9999999999999
 20
-184.0
 30
0.0
 11
-561.8936219999998
 21
-184.0
 31
0.0
  0
LINE
  5
2D0
  8
SIZE
  6
BYBLOCK
 62
    30
 10
-531.893622
 20
-2.0
 30
0.0
 11
-531.893622
 21
-182.0
 31
0.0
  0
TEXT
  5
2D1
  8
SIZE
  6
BYBLOCK
 62
    30
 10
-563.8936220000002
 20
-161.942857
 30
0.0
 40
64.0
  1
184
 50
90.0
 41
0.9
  0
LINE
  5
2D2
  8
SIZE
  6
BYBLOCK
 62
    30
 10
-222.5550544898731
 20
159.0
 30
0.0
 11
-561.8936219999998
 21
159.0
 31
0.0
  0
LINE
  5
2D3
  8
SIZE
  6
BYBLOCK
 62
    30
 10
-278.9999999999998
 20
0.0
 30
0.0
 11
-561.8936219999998
 21
0.0
 31
0.0
  0
LINE
  5
2D4
  8
SIZE
  6
BYBLOCK
 62
    30
 10
-531.893622
 20
157.0
 30
0.0
 11
-531.893622
 21
79.5
 31
0.0
  0
LINE
  5
2D5
  8
SIZE
  6
BYBLOCK
 62
    30
 10
-531.893622
 20
2.0
 30
0.0
 11
-531.893622
 21
79.5
 31
0.0
  0
TEXT
  5
2D6
  8
SIZE
  6
BYBLOCK
 62
    30
 10
-563.8936220000002
 20
12.30000000000001
 30
0.0
 40
64.0
  1
159
 50
90.0
 41
0.9
  0
LINE
  5
2D7
  8
SIZE
  6
BYBLOCK
 62
    30
 10
-229.9999999999998
 20
40.0
 30
0.0
 11
-229.9999999999998
 21
493.5535529910962
 31
0.0
  0
LINE
  5
2D8
  8
SIZE
  6
BYBLOCK
 62
    30
 10
230.0
 20
40.0
 30
0.0
 11
230.0
 21
495.446961611864
 31
0.0
  0
LINE
  5
2D9
  8
SIZE
  6
BYBLOCK
 62
    30
 10
-227.9999999999998
 20
466.4215632487017
 30
0.0
 11
228.0
 21
466.4215632487017
 31
0.0
  0
TEXT
  5
2DA
  8
SIZE
  6
BYBLOCK
 62
    30
 10
-74.057143
 20
498.4215632487018
 30
0.0
 40
64.0
  1
460
 41
0.9
  0
LINE
  5
2DB
  8
SIZE
  6
BYBLOCK
 62
    30
 10
-211.4999999999999
 20
175.0
 30
0.0
 11
-211.4999999999999
 21
366.694987573578
 31
0.0
  0
LINE
  5
2DC
  8
SIZE
  6
BYBLOCK
 62
    30
 10
211.5
 20
175.0
 30
0.0
 11
211.5
 21
362.9081633755207
 31
0.0
  0
LINE
  5
2DD
  8
SIZE
  6
BYBLOCK
 62
    30
 10
-209.4999999999999
 20
336.4004044239044
 30
0.0
 11
209.5
 21
336.4004044239044
 31
0.0
  0
TEXT
  5
2DE
  8
SIZE
  6
BYBLOCK
 62
    30
 10
-106.6971429999999
 20
368.4004044239046
 30
0.0
 40
64.0
  1
□423
 41
0.9
  0
CIRCLE
  5
2DF
  8
SIZE
  6
CONTINUOUS
 62
    30
 10
211.5
 20
336.4004044239044
 30
0.0
 40
6.0
  0
CIRCLE
  5
2E0
  8
SIZE
  6
CONTINUOUS
 62
    30
 10
-211.4999999999999
 20
336.4004044239044
 30
0.0
 40
6.0
  0
CIRCLE
  5
2E1
  8
SIZE
  6
CONTINUOUS
 62
    30
 10
230.0
 20
466.4215632487017
 30
0.0
 40
6.0
  0
CIRCLE
  5
2E2
  8
SIZE
  6
CONTINUOUS
 62
    30
 10
-229.9999999999998
 20
466.4215632487017
 30
0.0
 40
6.0
  0
CIRCLE
  5
2E3
  8
SIZE
  6
CONTINUOUS
 62
    30
 10
-531.893622
 20
0.0
 30
0.0
 40
6.0
  0
CIRCLE
  5
2E4
  8
SIZE
  6
CONTINUOUS
 62
    30
 10
-531.893622
 20
159.0
 30
0.0
 40
6.0
  0
CIRCLE
  5
2E5
  8
SIZE
  6
CONTINUOUS
 62
    30
 10
-531.893622
 20
-184.0
 30
0.0
 40
6.0
  0
CIRCLE
  5
2E6
  8
SIZE
  6
CONTINUOUS
 62
    30
 10
-531.893622
 20
0.0
 30
0.0
 40
6.0
  0
CIRCLE
  5
2E7
  8
SIZE
  6
CONTINUOUS
 62
    30
 10
-259.9999999999999
 20
599.9001862487017
 30
0.0
 40
6.0
  0
CIRCLE
  5
2E8
  8
SIZE
  6
CONTINUOUS
 62
    30
 10
259.9999999999999
 20
599.9001862487017
 30
0.0
 40
6.0
  0
LINE
  5
2E9
  8
NOTE
  6
CONTINUOUS
 62
     4
 10
230.0
 20
-20.0
 30
0.0
 11
230.0
 21
20.0
 31
0.0
  0
LINE
  5
2EA
  8
NOTE
  6
CONTINUOUS
 62
     4
 10
209.9999999999999
 20
0.0
 30
0.0
 11
249.9999999999999
 21
0.0
 31
0.0
  0
LINE
  5
2EB
  8
NOTE
  6
CONTINUOUS
 62
     4
 10
-259.9999999999999
 20
-20.0
 30
0.0
 11
-259.9999999999999
 21
20.0
 31
0.0
  0
LINE
  5
2EC
  8
NOTE
  6
CONTINUOUS
 62
     4
 10
-229.9999999999998
 20
-20.0
 30
0.0
 11
-229.9999999999998
 21
20.0
 31
0.0
  0
LINE
  5
2ED
  8
NOTE
  6
CONTINUOUS
 62
     4
 10
-249.9999999999999
 20
0.0
 30
0.0
 11
-209.9999999999998
 21
0.0
 31
0.0
  0
ARC
  5
2EE
  8
OUTLINE
  6
CONTINUOUS
 62
     3
 10
-229.9999999999998
 20
-154.0
 30
0.0
 40
30.0
 50
180.0
 51
270.0
  0
ARC
  5
2EF
  8
OUTLINE
  6
CONTINUOUS
 62
     3
 10
230.0
 20
-154.0
 30
0.0
 40
30.0
 50
270.0
 51
0.0
  0
TEXT
  5
2F0
  8
ETC
  6
CONTINUOUS
 62
    61
 10
505.4402691124581
 20
685.1932437428642
 30
0.0
 40
64.0
  1
EFG-40MFSB_6
 41
0.9
  0
TEXT
  5
2F1
  8
ETC
  6
CONTINUOUS
 62
    61
 10
608.112633777677
 20
516.2744877446556
 30
0.0
 40
50.0
  1
EFG-40MFSB
 41
0.9
  0
TEXT
  5
2F2
  8
ETC
  6
CONTINUOUS
 62
    61
 10
499.137001005523
 20
592.1586641135201
 30
0.0
 40
64.0
  1
産業扇
 41
0.9
  0
LINE
  5
2F3
  8
SIZE
  6
BYBLOCK
 62
    30
 10
-222.5550544898731
 20
191.0
 30
0.0
 11
-561.8936219999998
 21
191.0
 31
0.0
  0
LINE
  5
2F4
  8
DETAIL
  6
CONTINUOUS
 62
     5
 10
-201.4999999999998
 20
191.0
 30
0.0
 11
201.4999999999999
 21
190.9999999999998
 31
0.0
  0
LINE
  5
2F5
  8
DETAIL
  6
CONTINUOUS
 62
     5
 10
201.4999999999999
 20
190.9999999999998
 30
0.0
 11
201.4999999999999
 21
159.0
 31
0.0
  0
LINE
  5
2F6
  8
DETAIL
  6
CONTINUOUS
 62
     5
 10
-201.4999999999998
 20
191.0
 30
0.0
 11
-201.4999999999998
 21
159.0
 31
0.0
  0
ARC
  5
2F7
  8
DETAIL
  6
CONTINUOUS
 62
     5
 10
-201.4999999999998
 20
149.0
 30
0.0
 40
10.0
 50
90.0
 51
180.0
  0
ARC
  5
2F8
  8
DETAIL
  6
CONTINUOUS
 62
     5
 10
201.4999999999999
 20
149.0
 30
0.0
 40
10.0
 50
0.0
 51
90.0
  0
ARC
  5
2F9
  8
OUTLINE
  6
CONTINUOUS
 62
     3
 10
-201.4999999999998
 20
149.0
 30
0.0
 40
10.0
 50
90.0
 51
180.0
  0
ARC
  5
2FA
  8
OUTLINE
  6
CONTINUOUS
 62
     3
 10
201.4999999999999
 20
149.0
 30
0.0
 40
10.0
 50
0.0
 51
90.0
  0
CIRCLE
  5
2FB
  8
FIX
  6
CONTINUOUS
 62
    11
 10
-229.9999999999998
 20
0.0
 30
0.0
 40
5.0
  0
CIRCLE
  5
2FC
  8
FIX
  6
CONTINUOUS
 62
    11
 10
230.0
 20
0.0
 30
0.0
 40
5.0
  0
LINE
  5
2FD
  8
SIZE
  6
CONTINUOUS
 62
    30
 10
-531.893622
 20
159.0
 30
0.0
 11
-531.893622
 21
319.3596990109091
 31
0.0
  0
TEXT
  5
2FE
  8
SIZE
  6
BYBLOCK
 62
    30
 10
-563.8936220000002
 20
218.6818457506285
 30
0.0
 40
64.0
  1
32
 50
90.0
 41
0.9
  0
CIRCLE
  5
2FF
  8
SIZE
  6
CONTINUOUS
 62
    30
 10
-531.893622
 20
191.0
 30
0.0
 40
6.0
  0
LINE
  5
300
  8
NOTE
  6
CONTINUOUS
 62
     4
 10
-281.5139848000422
 20
33.3665318390733
 30
0.0
 11
-260.0537675479933
 21
-0.3893427995944307
 31
0.0
  0
LINE
  5
301
  8
NOTE
  6
CONTINUOUS
 62
     4
 10
-260.0537675479933
 20
-0.3893427995944307
 30
0.0
 11
-261.7609239816587
 21
39.57421106792303
 31
0.0
  0
LINE
  5
302
  8
NOTE
  6
CONTINUOUS
 62
     4
 10
266.347072
 20
-16.700012
 30
0.0
 11
230.0
 21
0.0
 31
0.0
  0
LINE
  5
303
  8
NOTE
  6
CONTINUOUS
 62
     4
 10
230.0
 20
0.0
 30
0.0
 11
253.1274819999996
 21
-32.63616999999999
 31
0.0
  0
ENDSEC
  0
EOF
