  0
SECTION
  2
HEADER
  9
$ACADVER
  1
AC1009
  9
$DWGCODEPAGE
  3
dos932
  9
$INSBASE
 10
0.0
 20
0.0
 30
0.0
  9
$EXTMIN
 10
-740.9591510553837
 20
-265.3198123040147
 30
-0.001525762492705
  9
$EXTMAX
 10
953.95661548706266
 20
723.54126794210242
 30
0.002288876569693
  9
$LIMMIN
 10
-2970.0
 20
-2100.0
  9
$LIMMAX
 10
2970.0
 20
2100.0
  9
$ORTHOMODE
 70
     1
  9
$REGENMODE
 70
     1
  9
$FILLMODE
 70
     1
  9
$QTEXTMODE
 70
     0
  9
$MIRRTEXT
 70
     0
  9
$LTSCALE
 40
20.0
  9
$ATTMODE
 70
     1
  9
$TEXTSIZE
 40
64.0
  9
$TRACEWID
 40
0.05
  9
$TEXTSTYLE
  7
STANDARD
  9
$CLAYER
  8
SIZE
  9
$CELTYPE
  6
CONTINUOUS
  9
$CECOLOR
 62
     7
  9
$DIMSCALE
 40
1.0
  9
$DIMASZ
 40
12.0
  9
$DIMEXO
 40
20.0
  9
$DIMDLI
 40
200.0
  9
$DIMRND
 40
0.0
  9
$DIMDLE
 40
0.0
  9
$DIMEXE
 40
20.0
  9
$DIMTP
 40
0.0
  9
$DIMTM
 40
0.0
  9
$DIMTXT
 40
64.0
  9
$DIMCEN
 40
0.09
  9
$DIMTSZ
 40
0.0
  9
$DIMTOL
 70
     0
  9
$DIMLIM
 70
     0
  9
$DIMTIH
 70
     0
  9
$DIMTOH
 70
     0
  9
$DIMSE1
 70
     0
  9
$DIMSE2
 70
     0
  9
$DIMTAD
 70
     1
  9
$DIMZIN
 70
     8
  9
$DIMBLK
  1

  9
$DIMASO
 70
     1
  9
$DIMSHO
 70
     0
  9
$DIMPOST
  1

  9
$DIMAPOST
  1

  9
$DIMALT
 70
     0
  9
$DIMALTD
 70
     2
  9
$DIMALTF
 40
25.399999999999999
  9
$DIMLFAC
 40
1.0
  9
$DIMTOFL
 70
     1
  9
$DIMTVP
 40
0.0
  9
$DIMTIX
 70
     1
  9
$DIMSOXD
 70
     0
  9
$DIMSAH
 70
     0
  9
$DIMBLK1
  1

  9
$DIMBLK2
  1

  9
$DIMSTYLE
  2
STANDARD
  9
$DIMCLRD
 70
     7
  9
$DIMCLRE
 70
     7
  9
$DIMCLRT
 70
     7
  9
$DIMTFAC
 40
1.0
  9
$DIMGAP
 40
25.0
  9
$LUNITS
 70
     2
  9
$LUPREC
 70
     4
  9
$SKETCHINC
 40
0.1
  9
$FILLETRAD
 40
3.0
  9
$AUNITS
 70
     1
  9
$AUPREC
 70
     3
  9
$MENU
  1
ACAD
  9
$ELEVATION
 40
0.0
  9
$PELEVATION
 40
0.0
  9
$THICKNESS
 40
50.0
  9
$LIMCHECK
 70
     0
  9
$CHAMFERA
 40
0.0
  9
$CHAMFERB
 40
0.0
  9
$SKPOLY
 70
     0
  9
$TDCREATE
 40
2453019.62301037
  9
$TDUPDATE
 40
2458949.43413441
  9
$TDINDWG
 40
1.7132335764
  9
$TDUSRTIMER
 40
1.7132335764
  9
$USRTIMER
 70
     1
  9
$ANGBASE
 50
0.0
  9
$ANGDIR
 70
     0
  9
$PDMODE
 70
     3
  9
$PDSIZE
 40
-2.0
  9
$PLINEWID
 40
0.0
  9
$SPLFRAME
 70
     0
  9
$SPLINETYPE
 70
     6
  9
$SPLINESEGS
 70
     8
  9
$SURFTAB1
 70
     6
  9
$SURFTAB2
 70
     6
  9
$SURFTYPE
 70
     6
  9
$SURFU
 70
     6
  9
$SURFV
 70
     6
  9
$UCSNAME
  2

  9
$UCSORG
 10
0.0
 20
0.0
 30
0.0
  9
$UCSXDIR
 10
1.0
 20
0.0
 30
0.0
  9
$UCSYDIR
 10
0.0
 20
1.0
 30
0.0
  9
$PUCSNAME
  2

  9
$PUCSORG
 10
0.0
 20
0.0
 30
0.0
  9
$PUCSXDIR
 10
1.0
 20
0.0
 30
0.0
  9
$PUCSYDIR
 10
0.0
 20
1.0
 30
0.0
  9
$USERI1
 70
     0
  9
$USERI2
 70
     0
  9
$USERI3
 70
     0
  9
$USERI4
 70
     0
  9
$USERI5
 70
     0
  9
$USERR1
 40
20.0
  9
$USERR2
 40
0.0
  9
$USERR3
 40
0.0
  9
$USERR4
 40
0.0
  9
$USERR5
 40
0.0
  9
$WORLDVIEW
 70
     1
  9
$SHADEDGE
 70
     3
  9
$SHADEDIF
 70
    70
  9
$TILEMODE
 70
     1
  9
$MAXACTVP
 70
    48
  9
$PINSBASE
 10
0.0
 20
0.0
 30
0.0
  9
$PLIMCHECK
 70
     0
  9
$PEXTMIN
 10
-100000000000000000000.0
 20
-100000000000000000000.0
 30
-100000000000000000000.0
  9
$PEXTMAX
 10
100000000000000000000.0
 20
100000000000000000000.0
 30
100000000000000000000.0
  9
$PLIMMIN
 10
0.0
 20
0.0
  9
$PLIMMAX
 10
12.0
 20
9.0
  9
$UNITMODE
 70
     0
  9
$VISRETAIN
 70
     0
  9
$PLINEGEN
 70
     0
  9
$PSLTSCALE
 70
     0
  9
$TREEDEPTH
 70
  3020
  9
$ATTDIA
 70
     0
  9
$ATTREQ
 70
     1
  9
$BLIPMODE
 70
     1
  9
$COORDS
 70
     1
  9
$DRAGMODE
 70
     2
  9
$OSMODE
 70
     0
  9
$HANDLING
 70
     0
  9
$HANDSEED
  5
F173
  0
ENDSEC
  0
SECTION
  2
TABLES
  0
TABLE
  2
LTYPE
 70
     2
  0
LTYPE
  2
CONTINUOUS
 70
     0
  3
実線
 72
    65
 73
     0
 40
0.0
  0
LTYPE
  2
DASHDOT
 70
     0
  3
____ _ ____ _ ____ _ ____ _ ____ _ ____ _ ____
 72
    65
 73
     4
 40
5.5
 49
4.0
 49
-0.6
 49
0.3
 49
-0.6
  0
ENDTAB
  0
TABLE
  2
LAYER
 70
    12
  0
LAYER
  2
0
 70
     0
 62
     7
  6
CONTINUOUS
  0
LAYER
  2
BASIS
 70
     0
 62
     6
  6
DASHDOT
  0
LAYER
  2
OUTLINE
 70
     0
 62
     3
  6
CONTINUOUS
  0
LAYER
  2
DETAIL
 70
     0
 62
     5
  6
CONTINUOUS
  0
LAYER
  2
SIZE
 70
     0
 62
    30
  6
CONTINUOUS
  0
LAYER
  2
ARRANGE
 70
     0
 62
     1
  6
CONTINUOUS
  0
LAYER
  2
ETC
 70
     0
 62
    61
  6
CONTINUOUS
  0
LAYER
  2
FIX
 70
     0
 62
    11
  6
CONTINUOUS
  0
LAYER
  2
NOTE
 70
     0
 62
     4
  6
CONTINUOUS
  0
LAYER
  2
DEFPOINTS
 70
    64
 62
     7
  6
CONTINUOUS
  0
LAYER
  2
SERVICESPACE
 70
    64
 62
     2
  6
DASHDOT
  0
LAYER
  2
SYMBOLLINE
 70
    64
 62
    15
  6
CONTINUOUS
  0
ENDTAB
  0
TABLE
  2
STYLE
 70
     1
  0
STYLE
  2
STANDARD
 70
     0
 40
64.0
 41
0.9
 50
0.0
 71
     0
 42
64.0
  3
SIMPLEX.shx
  4
BIGFONT.shx
  0
ENDTAB
  0
TABLE
  2
APPID
 70
    19
  0
APPID
  2
ACAD
 70
     0
  0
APPID
  2
AUTOCAD_POSTSCRIPT_FIGURE
 70
     0
  0
APPID
  2
ACAD_EXEMPT_FROM_CAD_STANDARDS
 70
     0
  0
APPID
  2
ACAD_PSEXT
 70
     0
  0
APPID
  2
ACAUTHENVIRON
 70
     0
  0
APPID
  2
GENIUS_GENOENT_13
 70
     0
  0
APPID
  2
GENIUS_GENCFG_13
 70
     0
  0
APPID
  2
GENIUS_GENCFG0_13
 70
     0
  0
APPID
  2
GENIUS_GENCFG1_13
 70
     0
  0
APPID
  2
GENIUS_GENCFG2_13
 70
     0
  0
APPID
  2
GENIUS_GENCFG3_13
 70
     0
  0
APPID
  2
GENIUS_GENCFG4_13
 70
     0
  0
APPID
  2
GENIUS_GEVCFG0_13
 70
     0
  0
APPID
  2
CONTENTBLOCKICON
 70
     0
  0
APPID
  2
CONTENTBLOCKDESCRIPTION
 70
     0
  0
APPID
  2
ACAD_NAV_VCDISPLAY
 70
     0
  0
APPID
  2
ACAD_MLEADERVER
 70
     0
  0
APPID
  2
ACDBDYNAMICBLOCKTRUENAME
 70
     0
  0
APPID
  2
ACDBDYNAMICBLOCKGUID
 70
     0
  0
ENDTAB
  0
TABLE
  2
DIMSTYLE
 70
     1
  0
DIMSTYLE
  2
STANDARD
 70
     0
  3

  4

  5
_ORIGIN
  6

  7

 40
1.0
 41
12.0
 42
20.0
 43
200.0
 44
20.0
 45
0.0
 46
0.0
 47
0.0
 48
0.0
140
64.0
141
0.09
142
0.0
143
25.399999999999999
144
1.0
145
0.0
146
1.0
147
25.0
 71
     0
 72
     0
 73
     0
 74
     0
 75
     0
 76
     0
 77
     1
 78
     8
170
     0
171
     2
172
     1
173
     0
174
     1
175
     0
176
     7
177
     7
178
     7
  0
ENDTAB
  0
TABLE
  2
VIEW
 70
     1
  0
VIEW
  2
ALL
 70
     0
 40
4282.6198079999986
 10
0.0
 20
41.309904000000003
 41
5940.0
 11
0.0
 21
0.0
 31
1.0
 12
0.0
 22
0.0
 32
0.0
 42
50.0
 43
0.0
 44
0.0
 50
0.0
 71
     0
  0
ENDTAB
  0
TABLE
  2
UCS
 70
     0
  0
ENDTAB
  0
TABLE
  2
VPORT
 70
     1
  0
VPORT
  2
*ACTIVE
 70
     0
 10
0.0
 20
0.0
 11
1.0
 21
1.0
 12
106.4987322158395
 22
229.11072781904389
 13
0.0
 23
0.0
 14
1.0
 24
1.0
 15
0.0
 25
0.0
 16
0.0
 26
0.0
 36
1.0
 17
0.0
 27
0.0
 37
0.0
 40
995.4170653085223
 41
1.747787610619469
 42
50.0
 43
0.0
 44
0.0
 50
0.0
 51
0.0
 71
     0
 72
  1000
 73
     1
 74
     3
 75
     0
 76
     0
 77
     0
 78
     0
  0
ENDTAB
  0
ENDSEC
  0
SECTION
  2
BLOCKS
  0
BLOCK
  8
0
  2
_ORIGIN
 70
     0
 10
0.0
 20
0.0
 30
0.0
  3
_ORIGIN
  1
_ORIGIN
  0
CIRCLE
  8
0
  6
CONTINUOUS
 62
     7
 10
0.0
 20
0.0
 30
0.0
 40
0.5
  0
LINE
  8
0
  6
CONTINUOUS
 62
     7
 10
0.0
 20
0.0
 30
0.0
 11
-1.0
 21
0.0
 31
0.0
  0
ENDBLK
  8
0
  0
ENDSEC
  0
SECTION
  2
ENTITIES
  0
LINE
  8
BASIS
  6
DASHDOT
 62
     6
 10
-185.647299
 20
0.0
 30
0.0
 11
231.65316299999981
 21
0.0
 31
0.0
  0
LINE
  8
DETAIL
  6
CONTINUOUS
 62
     5
 10
-149.0
 20
211.4999999999998
 30
0.0
 11
0.0
 21
211.4999999999998
 31
0.0
  0
LINE
  8
DETAIL
  6
CONTINUOUS
 62
     5
 10
-149.0
 20
-211.5
 30
0.0
 11
0.0
 21
-211.5
 31
0.0
  0
LINE
  8
DETAIL
  6
CONTINUOUS
 62
     5
 10
0.0
 20
-259.0
 30
0.0
 11
153.9999999999998
 21
-259.0
 31
0.0
  0
LINE
  8
DETAIL
  6
CONTINUOUS
 62
     5
 10
0.0
 20
258.99999999999977
 30
0.0
 11
153.9999999999998
 21
258.99999999999977
 31
0.0
  0
LINE
  8
NOTE
  6
CONTINUOUS
 62
     4
 10
0.0
 20
230.0
 30
0.0
 11
-239.82576417064121
 21
376.61354373076301
 31
0.0
  0
LINE
  8
NOTE
  6
CONTINUOUS
 62
     4
 10
-243.94348850358321
 20
376.61354373076301
 30
0.0
 11
-536.9114075035834
 21
376.61354373076301
 31
0.0
  0
LINE
  8
DETAIL
  6
CONTINUOUS
 62
     5
 10
0.0
 20
258.99999999999977
 30
0.0
 11
0.0
 21
-259.0
 31
0.0
  0
TEXT
  8
NOTE
  6
CONTINUOUS
 62
     4
 10
-526.79616650358332
 20
402.87952973076273
 30
0.0
 40
64.0
  1
4-φ14
 41
0.9
  0
LINE
  8
DETAIL
  6
CONTINUOUS
 62
     5
 10
-159.0
 20
201.4999999999998
 30
0.0
 11
-159.0
 21
-201.5
 31
0.0
  0
LINE
  8
DETAIL
  6
CONTINUOUS
 62
     5
 10
183.99999999999989
 20
229.0
 30
0.0
 11
183.99999999999989
 21
-228.99999999999989
 31
0.0
  0
LINE
  8
DETAIL
  6
CONTINUOUS
 62
     5
 10
183.99999999999989
 20
-220.5
 30
0.0
 11
0.0
 21
-220.5
 31
0.0
  0
LINE
  8
DETAIL
  6
CONTINUOUS
 62
     5
 10
183.99999999999989
 20
220.5
 30
0.0
 11
0.0
 21
220.5
 31
0.0
  0
LINE
  8
DETAIL
  6
CONTINUOUS
 62
     5
 10
183.99999999999989
 20
73.5
 30
0.0
 11
109.9999999999998
 21
73.5
 31
0.0
  0
LINE
  8
DETAIL
  6
CONTINUOUS
 62
     5
 10
183.99999999999989
 20
69.5
 30
0.0
 11
109.9999999999998
 21
69.5
 31
0.0
  0
LINE
  8
DETAIL
  6
CONTINUOUS
 62
     5
 10
183.99999999999989
 20
-69.499999999999886
 30
0.0
 11
109.9999999999998
 21
-69.499999999999886
 31
0.0
  0
LINE
  8
DETAIL
  6
CONTINUOUS
 62
     5
 10
183.99999999999989
 20
-73.499999999999886
 30
0.0
 11
109.9999999999998
 21
-73.499999999999886
 31
0.0
  0
LINE
  8
DETAIL
  6
CONTINUOUS
 62
     5
 10
183.99999999999989
 20
216.5
 30
0.0
 11
109.9999999999998
 21
216.5
 31
0.0
  0
LINE
  8
DETAIL
  6
CONTINUOUS
 62
     5
 10
183.99999999999989
 20
212.4999999999998
 30
0.0
 11
109.9999999999998
 21
212.4999999999998
 31
0.0
  0
LINE
  8
DETAIL
  6
CONTINUOUS
 62
     5
 10
183.99999999999989
 20
-216.5
 30
0.0
 11
109.9999999999998
 21
-216.5
 31
0.0
  0
LINE
  8
DETAIL
  6
CONTINUOUS
 62
     5
 10
183.99999999999989
 20
-212.5
 30
0.0
 11
109.9999999999998
 21
-212.5
 31
0.0
  0
LINE
  8
DETAIL
  6
CONTINUOUS
 62
     5
 10
159.9791299999998
 20
199.9999999999998
 30
0.0
 11
159.9791299999998
 21
174.99999999999989
 31
0.0
  0
LINE
  8
DETAIL
  6
CONTINUOUS
 62
     5
 10
144.9791299999998
 20
199.9999999999998
 30
0.0
 11
144.9791299999998
 21
174.99999999999989
 31
0.0
  0
ARC
  8
DETAIL
  6
CONTINUOUS
 62
     5
 10
152.4791299999998
 20
174.99999999999989
 30
0.0
 40
7.5
 50
180.0
 51
0.0
  0
ARC
  8
DETAIL
  6
CONTINUOUS
 62
     5
 10
152.4791299999998
 20
199.9999999999998
 30
0.0
 40
7.5
 50
0.0
 51
180.0
  0
LINE
  8
DETAIL
  6
CONTINUOUS
 62
     5
 10
144.9791299999998
 20
199.9999999999998
 30
0.0
 11
144.9791299999998
 21
174.99999999999989
 31
0.0
  0
LINE
  8
DETAIL
  6
CONTINUOUS
 62
     5
 10
144.9791299999998
 20
156.0
 30
0.0
 11
144.9791299999998
 21
131.0
 31
0.0
  0
ARC
  8
DETAIL
  6
CONTINUOUS
 62
     5
 10
152.4791299999998
 20
156.0
 30
0.0
 40
7.5
 50
0.0
 51
180.0
  0
ARC
  8
DETAIL
  6
CONTINUOUS
 62
     5
 10
152.4791299999998
 20
131.0
 30
0.0
 40
7.5
 50
180.0
 51
0.0
  0
LINE
  8
DETAIL
  6
CONTINUOUS
 62
     5
 10
144.9791299999998
 20
156.0
 30
0.0
 11
144.9791299999998
 21
131.0
 31
0.0
  0
LINE
  8
DETAIL
  6
CONTINUOUS
 62
     5
 10
159.9791299999998
 20
156.0
 30
0.0
 11
159.9791299999998
 21
131.0
 31
0.0
  0
LINE
  8
DETAIL
  6
CONTINUOUS
 62
     5
 10
144.9791299999998
 20
112.0
 30
0.0
 11
144.9791299999998
 21
87.0
 31
0.0
  0
ARC
  8
DETAIL
  6
CONTINUOUS
 62
     5
 10
152.4791299999998
 20
112.0
 30
0.0
 40
7.5
 50
0.0
 51
180.0
  0
ARC
  8
DETAIL
  6
CONTINUOUS
 62
     5
 10
152.4791299999998
 20
87.0
 30
0.0
 40
7.5
 50
180.0
 51
0.0
  0
LINE
  8
DETAIL
  6
CONTINUOUS
 62
     5
 10
144.9791299999998
 20
112.0
 30
0.0
 11
144.9791299999998
 21
87.0
 31
0.0
  0
LINE
  8
DETAIL
  6
CONTINUOUS
 62
     5
 10
159.9791299999998
 20
112.0
 30
0.0
 11
159.9791299999998
 21
87.0
 31
0.0
  0
LINE
  8
DETAIL
  6
CONTINUOUS
 62
     5
 10
119.9791299999998
 20
112.0
 30
0.0
 11
119.9791299999998
 21
87.0
 31
0.0
  0
LINE
  8
DETAIL
  6
CONTINUOUS
 62
     5
 10
104.9791299999998
 20
112.0
 30
0.0
 11
104.9791299999998
 21
87.0
 31
0.0
  0
ARC
  8
DETAIL
  6
CONTINUOUS
 62
     5
 10
112.4791299999998
 20
87.0
 30
0.0
 40
7.5
 50
180.0
 51
0.0
  0
ARC
  8
DETAIL
  6
CONTINUOUS
 62
     5
 10
112.4791299999998
 20
112.0
 30
0.0
 40
7.5
 50
0.0
 51
180.0
  0
LINE
  8
DETAIL
  6
CONTINUOUS
 62
     5
 10
104.9791299999998
 20
112.0
 30
0.0
 11
104.9791299999998
 21
87.0
 31
0.0
  0
LINE
  8
DETAIL
  6
CONTINUOUS
 62
     5
 10
119.9791299999998
 20
156.0
 30
0.0
 11
119.9791299999998
 21
131.0
 31
0.0
  0
LINE
  8
DETAIL
  6
CONTINUOUS
 62
     5
 10
104.9791299999998
 20
156.0
 30
0.0
 11
104.9791299999998
 21
131.0
 31
0.0
  0
ARC
  8
DETAIL
  6
CONTINUOUS
 62
     5
 10
112.4791299999998
 20
131.0
 30
0.0
 40
7.5
 50
180.0
 51
0.0
  0
ARC
  8
DETAIL
  6
CONTINUOUS
 62
     5
 10
112.4791299999998
 20
156.0
 30
0.0
 40
7.5
 50
0.0
 51
180.0
  0
LINE
  8
DETAIL
  6
CONTINUOUS
 62
     5
 10
104.9791299999998
 20
156.0
 30
0.0
 11
104.9791299999998
 21
131.0
 31
0.0
  0
LINE
  8
DETAIL
  6
CONTINUOUS
 62
     5
 10
104.9791299999998
 20
199.9999999999998
 30
0.0
 11
104.9791299999998
 21
174.99999999999989
 31
0.0
  0
ARC
  8
DETAIL
  6
CONTINUOUS
 62
     5
 10
112.4791299999998
 20
199.9999999999998
 30
0.0
 40
7.5
 50
0.0
 51
180.0
  0
ARC
  8
DETAIL
  6
CONTINUOUS
 62
     5
 10
112.4791299999998
 20
174.99999999999989
 30
0.0
 40
7.5
 50
180.0
 51
0.0
  0
LINE
  8
DETAIL
  6
CONTINUOUS
 62
     5
 10
104.9791299999998
 20
199.9999999999998
 30
0.0
 11
104.9791299999998
 21
174.99999999999989
 31
0.0
  0
LINE
  8
DETAIL
  6
CONTINUOUS
 62
     5
 10
119.9791299999998
 20
199.9999999999998
 30
0.0
 11
119.9791299999998
 21
174.99999999999989
 31
0.0
  0
LINE
  8
DETAIL
  6
CONTINUOUS
 62
     5
 10
139.9791299999998
 20
199.9999999999998
 30
0.0
 11
139.9791299999998
 21
174.99999999999989
 31
0.0
  0
LINE
  8
DETAIL
  6
CONTINUOUS
 62
     5
 10
124.9791299999998
 20
199.9999999999998
 30
0.0
 11
124.9791299999998
 21
174.99999999999989
 31
0.0
  0
ARC
  8
DETAIL
  6
CONTINUOUS
 62
     5
 10
132.4791299999998
 20
174.99999999999989
 30
0.0
 40
7.5
 50
180.0
 51
0.0
  0
ARC
  8
DETAIL
  6
CONTINUOUS
 62
     5
 10
132.4791299999998
 20
199.9999999999998
 30
0.0
 40
7.5
 50
0.0
 51
180.0
  0
LINE
  8
DETAIL
  6
CONTINUOUS
 62
     5
 10
124.9791299999998
 20
199.9999999999998
 30
0.0
 11
124.9791299999998
 21
174.99999999999989
 31
0.0
  0
LINE
  8
DETAIL
  6
CONTINUOUS
 62
     5
 10
124.9791299999998
 20
156.0
 30
0.0
 11
124.9791299999998
 21
131.0
 31
0.0
  0
ARC
  8
DETAIL
  6
CONTINUOUS
 62
     5
 10
132.4791299999998
 20
156.0
 30
0.0
 40
7.5
 50
0.0
 51
180.0
  0
ARC
  8
DETAIL
  6
CONTINUOUS
 62
     5
 10
132.4791299999998
 20
131.0
 30
0.0
 40
7.5
 50
180.0
 51
0.0
  0
LINE
  8
DETAIL
  6
CONTINUOUS
 62
     5
 10
124.9791299999998
 20
156.0
 30
0.0
 11
124.9791299999998
 21
131.0
 31
0.0
  0
LINE
  8
DETAIL
  6
CONTINUOUS
 62
     5
 10
139.9791299999998
 20
156.0
 30
0.0
 11
139.9791299999998
 21
131.0
 31
0.0
  0
LINE
  8
DETAIL
  6
CONTINUOUS
 62
     5
 10
124.9791299999998
 20
112.0
 30
0.0
 11
124.9791299999998
 21
87.0
 31
0.0
  0
ARC
  8
DETAIL
  6
CONTINUOUS
 62
     5
 10
132.4791299999998
 20
112.0
 30
0.0
 40
7.5
 50
0.0
 51
180.0
  0
ARC
  8
DETAIL
  6
CONTINUOUS
 62
     5
 10
132.4791299999998
 20
87.0
 30
0.0
 40
7.5
 50
180.0
 51
0.0
  0
LINE
  8
DETAIL
  6
CONTINUOUS
 62
     5
 10
124.9791299999998
 20
112.0
 30
0.0
 11
124.9791299999998
 21
87.0
 31
0.0
  0
LINE
  8
DETAIL
  6
CONTINUOUS
 62
     5
 10
139.9791299999998
 20
112.0
 30
0.0
 11
139.9791299999998
 21
87.0
 31
0.0
  0
LINE
  8
DETAIL
  6
CONTINUOUS
 62
     5
 10
79.979129999999941
 20
112.0
 30
0.0
 11
79.979129999999941
 21
87.0
 31
0.0
  0
LINE
  8
DETAIL
  6
CONTINUOUS
 62
     5
 10
64.979129999999941
 20
112.0
 30
0.0
 11
64.979129999999941
 21
87.0
 31
0.0
  0
ARC
  8
DETAIL
  6
CONTINUOUS
 62
     5
 10
72.479129999999941
 20
87.0
 30
0.0
 40
7.5
 50
180.0
 51
0.0
  0
ARC
  8
DETAIL
  6
CONTINUOUS
 62
     5
 10
72.479129999999941
 20
112.0
 30
0.0
 40
7.5
 50
0.0
 51
180.0
  0
LINE
  8
DETAIL
  6
CONTINUOUS
 62
     5
 10
64.979129999999941
 20
112.0
 30
0.0
 11
64.979129999999941
 21
87.0
 31
0.0
  0
LINE
  8
DETAIL
  6
CONTINUOUS
 62
     5
 10
79.979129999999941
 20
156.0
 30
0.0
 11
79.979129999999941
 21
131.0
 31
0.0
  0
LINE
  8
DETAIL
  6
CONTINUOUS
 62
     5
 10
64.979129999999941
 20
156.0
 30
0.0
 11
64.979129999999941
 21
131.0
 31
0.0
  0
ARC
  8
DETAIL
  6
CONTINUOUS
 62
     5
 10
72.479129999999941
 20
131.0
 30
0.0
 40
7.5
 50
180.0
 51
0.0
  0
ARC
  8
DETAIL
  6
CONTINUOUS
 62
     5
 10
72.479129999999941
 20
156.0
 30
0.0
 40
7.5
 50
0.0
 51
180.0
  0
LINE
  8
DETAIL
  6
CONTINUOUS
 62
     5
 10
64.979129999999941
 20
156.0
 30
0.0
 11
64.979129999999941
 21
131.0
 31
0.0
  0
LINE
  8
DETAIL
  6
CONTINUOUS
 62
     5
 10
64.979129999999941
 20
199.9999999999998
 30
0.0
 11
64.979129999999941
 21
174.99999999999989
 31
0.0
  0
ARC
  8
DETAIL
  6
CONTINUOUS
 62
     5
 10
72.479129999999941
 20
199.9999999999998
 30
0.0
 40
7.5
 50
0.0
 51
180.0
  0
ARC
  8
DETAIL
  6
CONTINUOUS
 62
     5
 10
72.479129999999941
 20
174.99999999999989
 30
0.0
 40
7.5
 50
180.0
 51
0.0
  0
LINE
  8
DETAIL
  6
CONTINUOUS
 62
     5
 10
64.979129999999941
 20
199.9999999999998
 30
0.0
 11
64.979129999999941
 21
174.99999999999989
 31
0.0
  0
LINE
  8
DETAIL
  6
CONTINUOUS
 62
     5
 10
79.979129999999941
 20
199.9999999999998
 30
0.0
 11
79.979129999999941
 21
174.99999999999989
 31
0.0
  0
LINE
  8
DETAIL
  6
CONTINUOUS
 62
     5
 10
99.979129999999714
 20
112.0
 30
0.0
 11
99.979129999999714
 21
87.0
 31
0.0
  0
LINE
  8
DETAIL
  6
CONTINUOUS
 62
     5
 10
84.979129999999941
 20
112.0
 30
0.0
 11
84.979129999999941
 21
87.0
 31
0.0
  0
ARC
  8
DETAIL
  6
CONTINUOUS
 62
     5
 10
92.479129999999941
 20
87.0
 30
0.0
 40
7.5
 50
180.0
 51
0.0
  0
ARC
  8
DETAIL
  6
CONTINUOUS
 62
     5
 10
92.479129999999941
 20
112.0
 30
0.0
 40
7.5
 50
0.0
 51
180.0
  0
LINE
  8
DETAIL
  6
CONTINUOUS
 62
     5
 10
84.979129999999941
 20
112.0
 30
0.0
 11
84.979129999999941
 21
87.0
 31
0.0
  0
LINE
  8
DETAIL
  6
CONTINUOUS
 62
     5
 10
99.979129999999714
 20
156.0
 30
0.0
 11
99.979129999999714
 21
131.0
 31
0.0
  0
LINE
  8
DETAIL
  6
CONTINUOUS
 62
     5
 10
84.979129999999941
 20
156.0
 30
0.0
 11
84.979129999999941
 21
131.0
 31
0.0
  0
ARC
  8
DETAIL
  6
CONTINUOUS
 62
     5
 10
92.479129999999941
 20
131.0
 30
0.0
 40
7.5
 50
180.0
 51
0.0
  0
ARC
  8
DETAIL
  6
CONTINUOUS
 62
     5
 10
92.479129999999941
 20
156.0
 30
0.0
 40
7.5
 50
0.0
 51
180.0
  0
LINE
  8
DETAIL
  6
CONTINUOUS
 62
     5
 10
84.979129999999941
 20
156.0
 30
0.0
 11
84.979129999999941
 21
131.0
 31
0.0
  0
LINE
  8
DETAIL
  6
CONTINUOUS
 62
     5
 10
84.979129999999941
 20
199.9999999999998
 30
0.0
 11
84.979129999999941
 21
174.99999999999989
 31
0.0
  0
ARC
  8
DETAIL
  6
CONTINUOUS
 62
     5
 10
92.479129999999941
 20
199.9999999999998
 30
0.0
 40
7.5
 50
0.0
 51
180.0
  0
ARC
  8
DETAIL
  6
CONTINUOUS
 62
     5
 10
92.479129999999941
 20
174.99999999999989
 30
0.0
 40
7.5
 50
180.0
 51
0.0
  0
LINE
  8
DETAIL
  6
CONTINUOUS
 62
     5
 10
84.979129999999941
 20
199.9999999999998
 30
0.0
 11
84.979129999999941
 21
174.99999999999989
 31
0.0
  0
LINE
  8
DETAIL
  6
CONTINUOUS
 62
     5
 10
99.979129999999714
 20
199.9999999999998
 30
0.0
 11
99.979129999999714
 21
174.99999999999989
 31
0.0
  0
LINE
  8
DETAIL
  6
CONTINUOUS
 62
     5
 10
180.00001499999979
 20
112.0
 30
0.0
 11
180.00001499999979
 21
87.0
 31
0.0
  0
LINE
  8
DETAIL
  6
CONTINUOUS
 62
     5
 10
165.00001499999999
 20
112.0
 30
0.0
 11
165.00001499999999
 21
87.0
 31
0.0
  0
ARC
  8
DETAIL
  6
CONTINUOUS
 62
     5
 10
172.50001499999999
 20
87.0
 30
0.0
 40
7.5
 50
180.0
 51
0.0
  0
ARC
  8
DETAIL
  6
CONTINUOUS
 62
     5
 10
172.50001499999999
 20
112.0
 30
0.0
 40
7.5
 50
0.0
 51
180.0
  0
LINE
  8
DETAIL
  6
CONTINUOUS
 62
     5
 10
165.00001499999999
 20
112.0
 30
0.0
 11
165.00001499999999
 21
87.0
 31
0.0
  0
LINE
  8
DETAIL
  6
CONTINUOUS
 62
     5
 10
180.00001499999979
 20
156.0
 30
0.0
 11
180.00001499999979
 21
131.0
 31
0.0
  0
LINE
  8
DETAIL
  6
CONTINUOUS
 62
     5
 10
165.00001499999999
 20
156.0
 30
0.0
 11
165.00001499999999
 21
131.0
 31
0.0
  0
ARC
  8
DETAIL
  6
CONTINUOUS
 62
     5
 10
172.50001499999999
 20
131.0
 30
0.0
 40
7.5
 50
180.0
 51
0.0
  0
ARC
  8
DETAIL
  6
CONTINUOUS
 62
     5
 10
172.50001499999999
 20
156.0
 30
0.0
 40
7.5
 50
0.0
 51
180.0
  0
LINE
  8
DETAIL
  6
CONTINUOUS
 62
     5
 10
165.00001499999999
 20
156.0
 30
0.0
 11
165.00001499999999
 21
131.0
 31
0.0
  0
LINE
  8
DETAIL
  6
CONTINUOUS
 62
     5
 10
165.00001499999999
 20
199.9999999999998
 30
0.0
 11
165.00001499999999
 21
174.99999999999989
 31
0.0
  0
ARC
  8
DETAIL
  6
CONTINUOUS
 62
     5
 10
172.50001499999999
 20
199.9999999999998
 30
0.0
 40
7.5
 50
0.0
 51
180.0
  0
ARC
  8
DETAIL
  6
CONTINUOUS
 62
     5
 10
172.50001499999999
 20
174.99999999999989
 30
0.0
 40
7.5
 50
180.0
 51
0.0
  0
LINE
  8
DETAIL
  6
CONTINUOUS
 62
     5
 10
165.00001499999999
 20
199.9999999999998
 30
0.0
 11
165.00001499999999
 21
174.99999999999989
 31
0.0
  0
LINE
  8
DETAIL
  6
CONTINUOUS
 62
     5
 10
180.00001499999979
 20
199.9999999999998
 30
0.0
 11
180.00001499999979
 21
174.99999999999989
 31
0.0
  0
LINE
  8
DETAIL
  6
CONTINUOUS
 62
     5
 10
180.00001499999979
 20
57.0
 30
0.0
 11
180.00001499999979
 21
32.0
 31
0.0
  0
LINE
  8
DETAIL
  6
CONTINUOUS
 62
     5
 10
165.00001499999999
 20
57.0
 30
0.0
 11
165.00001499999999
 21
32.0
 31
0.0
  0
ARC
  8
DETAIL
  6
CONTINUOUS
 62
     5
 10
172.50001499999999
 20
32.0
 30
0.0
 40
7.5
 50
180.0
 51
0.0
  0
ARC
  8
DETAIL
  6
CONTINUOUS
 62
     5
 10
172.50001499999999
 20
57.0
 30
0.0
 40
7.5
 50
0.0
 51
180.0
  0
LINE
  8
DETAIL
  6
CONTINUOUS
 62
     5
 10
165.00001499999999
 20
57.0
 30
0.0
 11
165.00001499999999
 21
32.0
 31
0.0
  0
LINE
  8
DETAIL
  6
CONTINUOUS
 62
     5
 10
165.00001499999999
 20
13.0
 30
0.0
 11
165.00001499999999
 21
-12.0
 31
0.0
  0
ARC
  8
DETAIL
  6
CONTINUOUS
 62
     5
 10
172.50001499999999
 20
13.0
 30
0.0
 40
7.5
 50
0.0
 51
180.0
  0
ARC
  8
DETAIL
  6
CONTINUOUS
 62
     5
 10
172.50001499999999
 20
-12.0
 30
0.0
 40
7.5
 50
180.0
 51
0.0
  0
LINE
  8
DETAIL
  6
CONTINUOUS
 62
     5
 10
165.00001499999999
 20
13.0
 30
0.0
 11
165.00001499999999
 21
-12.0
 31
0.0
  0
LINE
  8
DETAIL
  6
CONTINUOUS
 62
     5
 10
180.00001499999979
 20
13.0
 30
0.0
 11
180.00001499999979
 21
-12.0
 31
0.0
  0
LINE
  8
DETAIL
  6
CONTINUOUS
 62
     5
 10
165.00001499999999
 20
-31.0
 30
0.0
 11
165.00001499999999
 21
-55.999999999999893
 31
0.0
  0
ARC
  8
DETAIL
  6
CONTINUOUS
 62
     5
 10
172.50001499999999
 20
-31.0
 30
0.0
 40
7.5
 50
0.0
 51
180.0
  0
ARC
  8
DETAIL
  6
CONTINUOUS
 62
     5
 10
172.50001499999999
 20
-55.999999999999893
 30
0.0
 40
7.5
 50
180.0
 51
0.0
  0
LINE
  8
DETAIL
  6
CONTINUOUS
 62
     5
 10
165.00001499999999
 20
-31.0
 30
0.0
 11
165.00001499999999
 21
-55.999999999999893
 31
0.0
  0
LINE
  8
DETAIL
  6
CONTINUOUS
 62
     5
 10
180.00001499999979
 20
-31.0
 30
0.0
 11
180.00001499999979
 21
-55.999999999999893
 31
0.0
  0
LINE
  8
DETAIL
  6
CONTINUOUS
 62
     5
 10
99.979129999999714
 20
57.0
 30
0.0
 11
99.979129999999714
 21
32.0
 31
0.0
  0
LINE
  8
DETAIL
  6
CONTINUOUS
 62
     5
 10
84.979129999999941
 20
57.0
 30
0.0
 11
84.979129999999941
 21
32.0
 31
0.0
  0
ARC
  8
DETAIL
  6
CONTINUOUS
 62
     5
 10
92.479129999999941
 20
32.0
 30
0.0
 40
7.5
 50
180.0
 51
0.0
  0
ARC
  8
DETAIL
  6
CONTINUOUS
 62
     5
 10
92.479129999999941
 20
57.0
 30
0.0
 40
7.5
 50
0.0
 51
180.0
  0
LINE
  8
DETAIL
  6
CONTINUOUS
 62
     5
 10
84.979129999999941
 20
57.0
 30
0.0
 11
84.979129999999941
 21
32.0
 31
0.0
  0
LINE
  8
DETAIL
  6
CONTINUOUS
 62
     5
 10
84.979129999999941
 20
13.0
 30
0.0
 11
84.979129999999941
 21
-12.0
 31
0.0
  0
ARC
  8
DETAIL
  6
CONTINUOUS
 62
     5
 10
92.479129999999941
 20
13.0
 30
0.0
 40
7.5
 50
0.0
 51
180.0
  0
ARC
  8
DETAIL
  6
CONTINUOUS
 62
     5
 10
92.479129999999941
 20
-12.0
 30
0.0
 40
7.5
 50
180.0
 51
0.0
  0
LINE
  8
DETAIL
  6
CONTINUOUS
 62
     5
 10
84.979129999999941
 20
13.0
 30
0.0
 11
84.979129999999941
 21
-12.0
 31
0.0
  0
LINE
  8
DETAIL
  6
CONTINUOUS
 62
     5
 10
99.979129999999714
 20
13.0
 30
0.0
 11
99.979129999999714
 21
-12.0
 31
0.0
  0
LINE
  8
DETAIL
  6
CONTINUOUS
 62
     5
 10
84.979129999999941
 20
-31.0
 30
0.0
 11
84.979129999999941
 21
-55.999999999999893
 31
0.0
  0
ARC
  8
DETAIL
  6
CONTINUOUS
 62
     5
 10
92.479129999999941
 20
-31.0
 30
0.0
 40
7.5
 50
0.0
 51
180.0
  0
ARC
  8
DETAIL
  6
CONTINUOUS
 62
     5
 10
92.479129999999941
 20
-55.999999999999893
 30
0.0
 40
7.5
 50
180.0
 51
0.0
  0
LINE
  8
DETAIL
  6
CONTINUOUS
 62
     5
 10
84.979129999999941
 20
-31.0
 30
0.0
 11
84.979129999999941
 21
-55.999999999999893
 31
0.0
  0
LINE
  8
DETAIL
  6
CONTINUOUS
 62
     5
 10
99.979129999999714
 20
-31.0
 30
0.0
 11
99.979129999999714
 21
-55.999999999999893
 31
0.0
  0
LINE
  8
DETAIL
  6
CONTINUOUS
 62
     5
 10
79.979129999999941
 20
57.0
 30
0.0
 11
79.979129999999941
 21
32.0
 31
0.0
  0
LINE
  8
DETAIL
  6
CONTINUOUS
 62
     5
 10
64.979129999999941
 20
57.0
 30
0.0
 11
64.979129999999941
 21
32.0
 31
0.0
  0
ARC
  8
DETAIL
  6
CONTINUOUS
 62
     5
 10
72.479129999999941
 20
32.0
 30
0.0
 40
7.5
 50
180.0
 51
0.0
  0
ARC
  8
DETAIL
  6
CONTINUOUS
 62
     5
 10
72.479129999999941
 20
57.0
 30
0.0
 40
7.5
 50
0.0
 51
180.0
  0
LINE
  8
DETAIL
  6
CONTINUOUS
 62
     5
 10
64.979129999999941
 20
57.0
 30
0.0
 11
64.979129999999941
 21
32.0
 31
0.0
  0
LINE
  8
DETAIL
  6
CONTINUOUS
 62
     5
 10
64.979129999999941
 20
13.0
 30
0.0
 11
64.979129999999941
 21
-12.0
 31
0.0
  0
ARC
  8
DETAIL
  6
CONTINUOUS
 62
     5
 10
72.479129999999941
 20
13.0
 30
0.0
 40
7.5
 50
0.0
 51
180.0
  0
ARC
  8
DETAIL
  6
CONTINUOUS
 62
     5
 10
72.479129999999941
 20
-12.0
 30
0.0
 40
7.5
 50
180.0
 51
0.0
  0
LINE
  8
DETAIL
  6
CONTINUOUS
 62
     5
 10
64.979129999999941
 20
13.0
 30
0.0
 11
64.979129999999941
 21
-12.0
 31
0.0
  0
LINE
  8
DETAIL
  6
CONTINUOUS
 62
     5
 10
79.979129999999941
 20
13.0
 30
0.0
 11
79.979129999999941
 21
-12.0
 31
0.0
  0
LINE
  8
DETAIL
  6
CONTINUOUS
 62
     5
 10
64.979129999999941
 20
-31.0
 30
0.0
 11
64.979129999999941
 21
-55.999999999999893
 31
0.0
  0
ARC
  8
DETAIL
  6
CONTINUOUS
 62
     5
 10
72.479129999999941
 20
-31.0
 30
0.0
 40
7.5
 50
0.0
 51
180.0
  0
ARC
  8
DETAIL
  6
CONTINUOUS
 62
     5
 10
72.479129999999941
 20
-55.999999999999893
 30
0.0
 40
7.5
 50
180.0
 51
0.0
  0
LINE
  8
DETAIL
  6
CONTINUOUS
 62
     5
 10
64.979129999999941
 20
-31.0
 30
0.0
 11
64.979129999999941
 21
-55.999999999999893
 31
0.0
  0
LINE
  8
DETAIL
  6
CONTINUOUS
 62
     5
 10
79.979129999999941
 20
-31.0
 30
0.0
 11
79.979129999999941
 21
-55.999999999999893
 31
0.0
  0
LINE
  8
DETAIL
  6
CONTINUOUS
 62
     5
 10
139.9791299999998
 20
-31.0
 30
0.0
 11
139.9791299999998
 21
-55.999999999999893
 31
0.0
  0
LINE
  8
DETAIL
  6
CONTINUOUS
 62
     5
 10
124.9791299999998
 20
-31.0
 30
0.0
 11
124.9791299999998
 21
-55.999999999999893
 31
0.0
  0
ARC
  8
DETAIL
  6
CONTINUOUS
 62
     5
 10
132.4791299999998
 20
-55.999999999999893
 30
0.0
 40
7.5
 50
180.0
 51
0.0
  0
ARC
  8
DETAIL
  6
CONTINUOUS
 62
     5
 10
132.4791299999998
 20
-31.0
 30
0.0
 40
7.5
 50
0.0
 51
180.0
  0
LINE
  8
DETAIL
  6
CONTINUOUS
 62
     5
 10
124.9791299999998
 20
-31.0
 30
0.0
 11
124.9791299999998
 21
-55.999999999999893
 31
0.0
  0
LINE
  8
DETAIL
  6
CONTINUOUS
 62
     5
 10
139.9791299999998
 20
13.0
 30
0.0
 11
139.9791299999998
 21
-12.0
 31
0.0
  0
LINE
  8
DETAIL
  6
CONTINUOUS
 62
     5
 10
124.9791299999998
 20
13.0
 30
0.0
 11
124.9791299999998
 21
-12.0
 31
0.0
  0
ARC
  8
DETAIL
  6
CONTINUOUS
 62
     5
 10
132.4791299999998
 20
-12.0
 30
0.0
 40
7.5
 50
180.0
 51
0.0
  0
ARC
  8
DETAIL
  6
CONTINUOUS
 62
     5
 10
132.4791299999998
 20
13.0
 30
0.0
 40
7.5
 50
0.0
 51
180.0
  0
LINE
  8
DETAIL
  6
CONTINUOUS
 62
     5
 10
124.9791299999998
 20
13.0
 30
0.0
 11
124.9791299999998
 21
-12.0
 31
0.0
  0
LINE
  8
DETAIL
  6
CONTINUOUS
 62
     5
 10
124.9791299999998
 20
57.0
 30
0.0
 11
124.9791299999998
 21
32.0
 31
0.0
  0
ARC
  8
DETAIL
  6
CONTINUOUS
 62
     5
 10
132.4791299999998
 20
57.0
 30
0.0
 40
7.5
 50
0.0
 51
180.0
  0
ARC
  8
DETAIL
  6
CONTINUOUS
 62
     5
 10
132.4791299999998
 20
32.0
 30
0.0
 40
7.5
 50
180.0
 51
0.0
  0
LINE
  8
DETAIL
  6
CONTINUOUS
 62
     5
 10
124.9791299999998
 20
57.0
 30
0.0
 11
124.9791299999998
 21
32.0
 31
0.0
  0
LINE
  8
DETAIL
  6
CONTINUOUS
 62
     5
 10
139.9791299999998
 20
57.0
 30
0.0
 11
139.9791299999998
 21
32.0
 31
0.0
  0
LINE
  8
DETAIL
  6
CONTINUOUS
 62
     5
 10
119.9791299999998
 20
57.0
 30
0.0
 11
119.9791299999998
 21
32.0
 31
0.0
  0
LINE
  8
DETAIL
  6
CONTINUOUS
 62
     5
 10
104.9791299999998
 20
57.0
 30
0.0
 11
104.9791299999998
 21
32.0
 31
0.0
  0
ARC
  8
DETAIL
  6
CONTINUOUS
 62
     5
 10
112.4791299999998
 20
32.0
 30
0.0
 40
7.5
 50
180.0
 51
0.0
  0
ARC
  8
DETAIL
  6
CONTINUOUS
 62
     5
 10
112.4791299999998
 20
57.0
 30
0.0
 40
7.5
 50
0.0
 51
180.0
  0
LINE
  8
DETAIL
  6
CONTINUOUS
 62
     5
 10
104.9791299999998
 20
57.0
 30
0.0
 11
104.9791299999998
 21
32.0
 31
0.0
  0
LINE
  8
DETAIL
  6
CONTINUOUS
 62
     5
 10
104.9791299999998
 20
13.0
 30
0.0
 11
104.9791299999998
 21
-12.0
 31
0.0
  0
ARC
  8
DETAIL
  6
CONTINUOUS
 62
     5
 10
112.4791299999998
 20
13.0
 30
0.0
 40
7.5
 50
0.0
 51
180.0
  0
ARC
  8
DETAIL
  6
CONTINUOUS
 62
     5
 10
112.4791299999998
 20
-12.0
 30
0.0
 40
7.5
 50
180.0
 51
0.0
  0
LINE
  8
DETAIL
  6
CONTINUOUS
 62
     5
 10
104.9791299999998
 20
13.0
 30
0.0
 11
104.9791299999998
 21
-12.0
 31
0.0
  0
LINE
  8
DETAIL
  6
CONTINUOUS
 62
     5
 10
119.9791299999998
 20
13.0
 30
0.0
 11
119.9791299999998
 21
-12.0
 31
0.0
  0
LINE
  8
DETAIL
  6
CONTINUOUS
 62
     5
 10
104.9791299999998
 20
-31.0
 30
0.0
 11
104.9791299999998
 21
-55.999999999999893
 31
0.0
  0
ARC
  8
DETAIL
  6
CONTINUOUS
 62
     5
 10
112.4791299999998
 20
-31.0
 30
0.0
 40
7.5
 50
0.0
 51
180.0
  0
ARC
  8
DETAIL
  6
CONTINUOUS
 62
     5
 10
112.4791299999998
 20
-55.999999999999893
 30
0.0
 40
7.5
 50
180.0
 51
0.0
  0
LINE
  8
DETAIL
  6
CONTINUOUS
 62
     5
 10
104.9791299999998
 20
-31.0
 30
0.0
 11
104.9791299999998
 21
-55.999999999999893
 31
0.0
  0
LINE
  8
DETAIL
  6
CONTINUOUS
 62
     5
 10
119.9791299999998
 20
-31.0
 30
0.0
 11
119.9791299999998
 21
-55.999999999999893
 31
0.0
  0
LINE
  8
DETAIL
  6
CONTINUOUS
 62
     5
 10
159.9791299999998
 20
-31.0
 30
0.0
 11
159.9791299999998
 21
-55.999999999999893
 31
0.0
  0
LINE
  8
DETAIL
  6
CONTINUOUS
 62
     5
 10
144.9791299999998
 20
-31.0
 30
0.0
 11
144.9791299999998
 21
-55.999999999999893
 31
0.0
  0
ARC
  8
DETAIL
  6
CONTINUOUS
 62
     5
 10
152.4791299999998
 20
-55.999999999999893
 30
0.0
 40
7.5
 50
180.0
 51
0.0
  0
ARC
  8
DETAIL
  6
CONTINUOUS
 62
     5
 10
152.4791299999998
 20
-31.0
 30
0.0
 40
7.5
 50
0.0
 51
180.0
  0
LINE
  8
DETAIL
  6
CONTINUOUS
 62
     5
 10
144.9791299999998
 20
-31.0
 30
0.0
 11
144.9791299999998
 21
-55.999999999999893
 31
0.0
  0
LINE
  8
DETAIL
  6
CONTINUOUS
 62
     5
 10
159.9791299999998
 20
13.0
 30
0.0
 11
159.9791299999998
 21
-12.0
 31
0.0
  0
LINE
  8
DETAIL
  6
CONTINUOUS
 62
     5
 10
144.9791299999998
 20
13.0
 30
0.0
 11
144.9791299999998
 21
-12.0
 31
0.0
  0
ARC
  8
DETAIL
  6
CONTINUOUS
 62
     5
 10
152.4791299999998
 20
-12.0
 30
0.0
 40
7.5
 50
180.0
 51
0.0
  0
ARC
  8
DETAIL
  6
CONTINUOUS
 62
     5
 10
152.4791299999998
 20
13.0
 30
0.0
 40
7.5
 50
0.0
 51
180.0
  0
LINE
  8
DETAIL
  6
CONTINUOUS
 62
     5
 10
144.9791299999998
 20
13.0
 30
0.0
 11
144.9791299999998
 21
-12.0
 31
0.0
  0
LINE
  8
DETAIL
  6
CONTINUOUS
 62
     5
 10
144.9791299999998
 20
57.0
 30
0.0
 11
144.9791299999998
 21
32.0
 31
0.0
  0
ARC
  8
DETAIL
  6
CONTINUOUS
 62
     5
 10
152.4791299999998
 20
57.0
 30
0.0
 40
7.5
 50
0.0
 51
180.0
  0
ARC
  8
DETAIL
  6
CONTINUOUS
 62
     5
 10
152.4791299999998
 20
32.0
 30
0.0
 40
7.5
 50
180.0
 51
0.0
  0
LINE
  8
DETAIL
  6
CONTINUOUS
 62
     5
 10
144.9791299999998
 20
57.0
 30
0.0
 11
144.9791299999998
 21
32.0
 31
0.0
  0
LINE
  8
DETAIL
  6
CONTINUOUS
 62
     5
 10
159.9791299999998
 20
57.0
 30
0.0
 11
159.9791299999998
 21
32.0
 31
0.0
  0
LINE
  8
DETAIL
  6
CONTINUOUS
 62
     5
 10
159.9791299999998
 20
-85.999999999999773
 30
0.0
 11
159.9791299999998
 21
-110.9999999999998
 31
0.0
  0
LINE
  8
DETAIL
  6
CONTINUOUS
 62
     5
 10
144.9791299999998
 20
-85.999999999999773
 30
0.0
 11
144.9791299999998
 21
-110.9999999999998
 31
0.0
  0
ARC
  8
DETAIL
  6
CONTINUOUS
 62
     5
 10
152.4791299999998
 20
-110.9999999999998
 30
0.0
 40
7.5
 50
180.0
 51
0.0
  0
ARC
  8
DETAIL
  6
CONTINUOUS
 62
     5
 10
152.4791299999998
 20
-85.999999999999773
 30
0.0
 40
7.5
 50
0.0
 51
180.0
  0
LINE
  8
DETAIL
  6
CONTINUOUS
 62
     5
 10
144.9791299999998
 20
-85.999999999999773
 30
0.0
 11
144.9791299999998
 21
-110.9999999999998
 31
0.0
  0
LINE
  8
DETAIL
  6
CONTINUOUS
 62
     5
 10
144.9791299999998
 20
-130.0
 30
0.0
 11
144.9791299999998
 21
-155.0
 31
0.0
  0
ARC
  8
DETAIL
  6
CONTINUOUS
 62
     5
 10
152.4791299999998
 20
-130.0
 30
0.0
 40
7.5
 50
0.0
 51
180.0
  0
ARC
  8
DETAIL
  6
CONTINUOUS
 62
     5
 10
152.4791299999998
 20
-155.0
 30
0.0
 40
7.5
 50
180.0
 51
0.0
  0
LINE
  8
DETAIL
  6
CONTINUOUS
 62
     5
 10
144.9791299999998
 20
-130.0
 30
0.0
 11
144.9791299999998
 21
-155.0
 31
0.0
  0
LINE
  8
DETAIL
  6
CONTINUOUS
 62
     5
 10
159.9791299999998
 20
-130.0
 30
0.0
 11
159.9791299999998
 21
-155.0
 31
0.0
  0
LINE
  8
DETAIL
  6
CONTINUOUS
 62
     5
 10
144.9791299999998
 20
-174.0
 30
0.0
 11
144.9791299999998
 21
-199.0
 31
0.0
  0
ARC
  8
DETAIL
  6
CONTINUOUS
 62
     5
 10
152.4791299999998
 20
-174.0
 30
0.0
 40
7.5
 50
0.0
 51
180.0
  0
ARC
  8
DETAIL
  6
CONTINUOUS
 62
     5
 10
152.4791299999998
 20
-199.0
 30
0.0
 40
7.5
 50
180.0
 51
0.0
  0
LINE
  8
DETAIL
  6
CONTINUOUS
 62
     5
 10
144.9791299999998
 20
-174.0
 30
0.0
 11
144.9791299999998
 21
-199.0
 31
0.0
  0
LINE
  8
DETAIL
  6
CONTINUOUS
 62
     5
 10
159.9791299999998
 20
-174.0
 30
0.0
 11
159.9791299999998
 21
-199.0
 31
0.0
  0
LINE
  8
DETAIL
  6
CONTINUOUS
 62
     5
 10
119.9791299999998
 20
-174.0
 30
0.0
 11
119.9791299999998
 21
-199.0
 31
0.0
  0
LINE
  8
DETAIL
  6
CONTINUOUS
 62
     5
 10
104.9791299999998
 20
-174.0
 30
0.0
 11
104.9791299999998
 21
-199.0
 31
0.0
  0
ARC
  8
DETAIL
  6
CONTINUOUS
 62
     5
 10
112.4791299999998
 20
-199.0
 30
0.0
 40
7.5
 50
180.0
 51
0.0
  0
ARC
  8
DETAIL
  6
CONTINUOUS
 62
     5
 10
112.4791299999998
 20
-174.0
 30
0.0
 40
7.5
 50
0.0
 51
180.0
  0
LINE
  8
DETAIL
  6
CONTINUOUS
 62
     5
 10
104.9791299999998
 20
-174.0
 30
0.0
 11
104.9791299999998
 21
-199.0
 31
0.0
  0
LINE
  8
DETAIL
  6
CONTINUOUS
 62
     5
 10
119.9791299999998
 20
-130.0
 30
0.0
 11
119.9791299999998
 21
-155.0
 31
0.0
  0
LINE
  8
DETAIL
  6
CONTINUOUS
 62
     5
 10
104.9791299999998
 20
-130.0
 30
0.0
 11
104.9791299999998
 21
-155.0
 31
0.0
  0
ARC
  8
DETAIL
  6
CONTINUOUS
 62
     5
 10
112.4791299999998
 20
-155.0
 30
0.0
 40
7.5
 50
180.0
 51
0.0
  0
ARC
  8
DETAIL
  6
CONTINUOUS
 62
     5
 10
112.4791299999998
 20
-130.0
 30
0.0
 40
7.5
 50
0.0
 51
180.0
  0
LINE
  8
DETAIL
  6
CONTINUOUS
 62
     5
 10
104.9791299999998
 20
-130.0
 30
0.0
 11
104.9791299999998
 21
-155.0
 31
0.0
  0
LINE
  8
DETAIL
  6
CONTINUOUS
 62
     5
 10
104.9791299999998
 20
-85.999999999999773
 30
0.0
 11
104.9791299999998
 21
-110.9999999999998
 31
0.0
  0
ARC
  8
DETAIL
  6
CONTINUOUS
 62
     5
 10
112.4791299999998
 20
-85.999999999999773
 30
0.0
 40
7.5
 50
0.0
 51
180.0
  0
ARC
  8
DETAIL
  6
CONTINUOUS
 62
     5
 10
112.4791299999998
 20
-110.9999999999998
 30
0.0
 40
7.5
 50
180.0
 51
0.0
  0
LINE
  8
DETAIL
  6
CONTINUOUS
 62
     5
 10
104.9791299999998
 20
-85.999999999999773
 30
0.0
 11
104.9791299999998
 21
-110.9999999999998
 31
0.0
  0
LINE
  8
DETAIL
  6
CONTINUOUS
 62
     5
 10
119.9791299999998
 20
-85.999999999999773
 30
0.0
 11
119.9791299999998
 21
-110.9999999999998
 31
0.0
  0
LINE
  8
DETAIL
  6
CONTINUOUS
 62
     5
 10
139.9791299999998
 20
-85.999999999999773
 30
0.0
 11
139.9791299999998
 21
-110.9999999999998
 31
0.0
  0
LINE
  8
DETAIL
  6
CONTINUOUS
 62
     5
 10
124.9791299999998
 20
-85.999999999999773
 30
0.0
 11
124.9791299999998
 21
-110.9999999999998
 31
0.0
  0
ARC
  8
DETAIL
  6
CONTINUOUS
 62
     5
 10
132.4791299999998
 20
-110.9999999999998
 30
0.0
 40
7.5
 50
180.0
 51
0.0
  0
ARC
  8
DETAIL
  6
CONTINUOUS
 62
     5
 10
132.4791299999998
 20
-85.999999999999773
 30
0.0
 40
7.5
 50
0.0
 51
180.0
  0
LINE
  8
DETAIL
  6
CONTINUOUS
 62
     5
 10
124.9791299999998
 20
-85.999999999999773
 30
0.0
 11
124.9791299999998
 21
-110.9999999999998
 31
0.0
  0
LINE
  8
DETAIL
  6
CONTINUOUS
 62
     5
 10
124.9791299999998
 20
-130.0
 30
0.0
 11
124.9791299999998
 21
-155.0
 31
0.0
  0
ARC
  8
DETAIL
  6
CONTINUOUS
 62
     5
 10
132.4791299999998
 20
-130.0
 30
0.0
 40
7.5
 50
0.0
 51
180.0
  0
ARC
  8
DETAIL
  6
CONTINUOUS
 62
     5
 10
132.4791299999998
 20
-155.0
 30
0.0
 40
7.5
 50
180.0
 51
0.0
  0
LINE
  8
DETAIL
  6
CONTINUOUS
 62
     5
 10
124.9791299999998
 20
-130.0
 30
0.0
 11
124.9791299999998
 21
-155.0
 31
0.0
  0
LINE
  8
DETAIL
  6
CONTINUOUS
 62
     5
 10
139.9791299999998
 20
-130.0
 30
0.0
 11
139.9791299999998
 21
-155.0
 31
0.0
  0
LINE
  8
DETAIL
  6
CONTINUOUS
 62
     5
 10
124.9791299999998
 20
-174.0
 30
0.0
 11
124.9791299999998
 21
-199.0
 31
0.0
  0
ARC
  8
DETAIL
  6
CONTINUOUS
 62
     5
 10
132.4791299999998
 20
-174.0
 30
0.0
 40
7.5
 50
0.0
 51
180.0
  0
ARC
  8
DETAIL
  6
CONTINUOUS
 62
     5
 10
132.4791299999998
 20
-199.0
 30
0.0
 40
7.5
 50
180.0
 51
0.0
  0
LINE
  8
DETAIL
  6
CONTINUOUS
 62
     5
 10
124.9791299999998
 20
-174.0
 30
0.0
 11
124.9791299999998
 21
-199.0
 31
0.0
  0
LINE
  8
DETAIL
  6
CONTINUOUS
 62
     5
 10
139.9791299999998
 20
-174.0
 30
0.0
 11
139.9791299999998
 21
-199.0
 31
0.0
  0
LINE
  8
DETAIL
  6
CONTINUOUS
 62
     5
 10
79.979129999999941
 20
-174.0
 30
0.0
 11
79.979129999999941
 21
-199.0
 31
0.0
  0
LINE
  8
DETAIL
  6
CONTINUOUS
 62
     5
 10
64.979129999999941
 20
-174.0
 30
0.0
 11
64.979129999999941
 21
-199.0
 31
0.0
  0
ARC
  8
DETAIL
  6
CONTINUOUS
 62
     5
 10
72.479129999999941
 20
-199.0
 30
0.0
 40
7.5
 50
180.0
 51
0.0
  0
ARC
  8
DETAIL
  6
CONTINUOUS
 62
     5
 10
72.479129999999941
 20
-174.0
 30
0.0
 40
7.5
 50
0.0
 51
180.0
  0
LINE
  8
DETAIL
  6
CONTINUOUS
 62
     5
 10
64.979129999999941
 20
-174.0
 30
0.0
 11
64.979129999999941
 21
-199.0
 31
0.0
  0
LINE
  8
DETAIL
  6
CONTINUOUS
 62
     5
 10
79.979129999999941
 20
-130.0
 30
0.0
 11
79.979129999999941
 21
-155.0
 31
0.0
  0
LINE
  8
DETAIL
  6
CONTINUOUS
 62
     5
 10
64.979129999999941
 20
-130.0
 30
0.0
 11
64.979129999999941
 21
-155.0
 31
0.0
  0
ARC
  8
DETAIL
  6
CONTINUOUS
 62
     5
 10
72.479129999999941
 20
-155.0
 30
0.0
 40
7.5
 50
180.0
 51
0.0
  0
ARC
  8
DETAIL
  6
CONTINUOUS
 62
     5
 10
72.479129999999941
 20
-130.0
 30
0.0
 40
7.5
 50
0.0
 51
180.0
  0
LINE
  8
DETAIL
  6
CONTINUOUS
 62
     5
 10
64.979129999999941
 20
-130.0
 30
0.0
 11
64.979129999999941
 21
-155.0
 31
0.0
  0
LINE
  8
DETAIL
  6
CONTINUOUS
 62
     5
 10
64.979129999999941
 20
-85.999999999999773
 30
0.0
 11
64.979129999999941
 21
-110.9999999999998
 31
0.0
  0
ARC
  8
DETAIL
  6
CONTINUOUS
 62
     5
 10
72.479129999999941
 20
-85.999999999999773
 30
0.0
 40
7.5
 50
0.0
 51
180.0
  0
ARC
  8
DETAIL
  6
CONTINUOUS
 62
     5
 10
72.479129999999941
 20
-110.9999999999998
 30
0.0
 40
7.5
 50
180.0
 51
0.0
  0
LINE
  8
DETAIL
  6
CONTINUOUS
 62
     5
 10
64.979129999999941
 20
-85.999999999999773
 30
0.0
 11
64.979129999999941
 21
-110.9999999999998
 31
0.0
  0
LINE
  8
DETAIL
  6
CONTINUOUS
 62
     5
 10
79.979129999999941
 20
-85.999999999999773
 30
0.0
 11
79.979129999999941
 21
-110.9999999999998
 31
0.0
  0
LINE
  8
DETAIL
  6
CONTINUOUS
 62
     5
 10
99.979129999999714
 20
-174.0
 30
0.0
 11
99.979129999999714
 21
-199.0
 31
0.0
  0
LINE
  8
DETAIL
  6
CONTINUOUS
 62
     5
 10
84.979129999999941
 20
-174.0
 30
0.0
 11
84.979129999999941
 21
-199.0
 31
0.0
  0
ARC
  8
DETAIL
  6
CONTINUOUS
 62
     5
 10
92.479129999999941
 20
-199.0
 30
0.0
 40
7.5
 50
180.0
 51
0.0
  0
ARC
  8
DETAIL
  6
CONTINUOUS
 62
     5
 10
92.479129999999941
 20
-174.0
 30
0.0
 40
7.5
 50
0.0
 51
180.0
  0
LINE
  8
DETAIL
  6
CONTINUOUS
 62
     5
 10
84.979129999999941
 20
-174.0
 30
0.0
 11
84.979129999999941
 21
-199.0
 31
0.0
  0
LINE
  8
DETAIL
  6
CONTINUOUS
 62
     5
 10
99.979129999999714
 20
-130.0
 30
0.0
 11
99.979129999999714
 21
-155.0
 31
0.0
  0
LINE
  8
DETAIL
  6
CONTINUOUS
 62
     5
 10
84.979129999999941
 20
-130.0
 30
0.0
 11
84.979129999999941
 21
-155.0
 31
0.0
  0
ARC
  8
DETAIL
  6
CONTINUOUS
 62
     5
 10
92.479129999999941
 20
-155.0
 30
0.0
 40
7.5
 50
180.0
 51
0.0
  0
ARC
  8
DETAIL
  6
CONTINUOUS
 62
     5
 10
92.479129999999941
 20
-130.0
 30
0.0
 40
7.5
 50
0.0
 51
180.0
  0
LINE
  8
DETAIL
  6
CONTINUOUS
 62
     5
 10
84.979129999999941
 20
-130.0
 30
0.0
 11
84.979129999999941
 21
-155.0
 31
0.0
  0
LINE
  8
DETAIL
  6
CONTINUOUS
 62
     5
 10
84.979129999999941
 20
-85.999999999999773
 30
0.0
 11
84.979129999999941
 21
-110.9999999999998
 31
0.0
  0
ARC
  8
DETAIL
  6
CONTINUOUS
 62
     5
 10
92.479129999999941
 20
-85.999999999999773
 30
0.0
 40
7.5
 50
0.0
 51
180.0
  0
ARC
  8
DETAIL
  6
CONTINUOUS
 62
     5
 10
92.479129999999941
 20
-110.9999999999998
 30
0.0
 40
7.5
 50
180.0
 51
0.0
  0
LINE
  8
DETAIL
  6
CONTINUOUS
 62
     5
 10
84.979129999999941
 20
-85.999999999999773
 30
0.0
 11
84.979129999999941
 21
-110.9999999999998
 31
0.0
  0
LINE
  8
DETAIL
  6
CONTINUOUS
 62
     5
 10
99.979129999999714
 20
-85.999999999999773
 30
0.0
 11
99.979129999999714
 21
-110.9999999999998
 31
0.0
  0
LINE
  8
DETAIL
  6
CONTINUOUS
 62
     5
 10
180.00001499999979
 20
-174.0
 30
0.0
 11
180.00001499999979
 21
-199.0
 31
0.0
  0
LINE
  8
DETAIL
  6
CONTINUOUS
 62
     5
 10
165.00001499999999
 20
-174.0
 30
0.0
 11
165.00001499999999
 21
-199.0
 31
0.0
  0
ARC
  8
DETAIL
  6
CONTINUOUS
 62
     5
 10
172.50001499999999
 20
-199.0
 30
0.0
 40
7.5
 50
180.0
 51
0.0
  0
ARC
  8
DETAIL
  6
CONTINUOUS
 62
     5
 10
172.50001499999999
 20
-174.0
 30
0.0
 40
7.5
 50
0.0
 51
180.0
  0
LINE
  8
DETAIL
  6
CONTINUOUS
 62
     5
 10
165.00001499999999
 20
-174.0
 30
0.0
 11
165.00001499999999
 21
-199.0
 31
0.0
  0
LINE
  8
DETAIL
  6
CONTINUOUS
 62
     5
 10
180.00001499999979
 20
-130.0
 30
0.0
 11
180.00001499999979
 21
-155.0
 31
0.0
  0
LINE
  8
DETAIL
  6
CONTINUOUS
 62
     5
 10
165.00001499999999
 20
-130.0
 30
0.0
 11
165.00001499999999
 21
-155.0
 31
0.0
  0
ARC
  8
DETAIL
  6
CONTINUOUS
 62
     5
 10
172.50001499999999
 20
-155.0
 30
0.0
 40
7.5
 50
180.0
 51
0.0
  0
ARC
  8
DETAIL
  6
CONTINUOUS
 62
     5
 10
172.50001499999999
 20
-130.0
 30
0.0
 40
7.5
 50
0.0
 51
180.0
  0
LINE
  8
DETAIL
  6
CONTINUOUS
 62
     5
 10
165.00001499999999
 20
-130.0
 30
0.0
 11
165.00001499999999
 21
-155.0
 31
0.0
  0
LINE
  8
DETAIL
  6
CONTINUOUS
 62
     5
 10
165.00001499999999
 20
-85.999999999999773
 30
0.0
 11
165.00001499999999
 21
-110.9999999999998
 31
0.0
  0
ARC
  8
DETAIL
  6
CONTINUOUS
 62
     5
 10
172.50001499999999
 20
-85.999999999999773
 30
0.0
 40
7.5
 50
0.0
 51
180.0
  0
ARC
  8
DETAIL
  6
CONTINUOUS
 62
     5
 10
172.50001499999999
 20
-110.9999999999998
 30
0.0
 40
7.5
 50
180.0
 51
0.0
  0
LINE
  8
DETAIL
  6
CONTINUOUS
 62
     5
 10
165.00001499999999
 20
-85.999999999999773
 30
0.0
 11
165.00001499999999
 21
-110.9999999999998
 31
0.0
  0
LINE
  8
DETAIL
  6
CONTINUOUS
 62
     5
 10
180.00001499999979
 20
-85.999999999999773
 30
0.0
 11
180.00001499999979
 21
-110.9999999999998
 31
0.0
  0
LINE
  8
DETAIL
  6
CONTINUOUS
 62
     5
 10
60.0
 20
220.5
 30
0.0
 11
60.0
 21
-220.5
 31
0.0
  0
LINE
  8
DETAIL
  6
CONTINUOUS
 62
     5
 10
109.9999999999998
 20
220.5
 30
0.0
 11
109.9999999999998
 21
-220.5
 31
0.0
  0
ARC
  8
DETAIL
  6
CONTINUOUS
 62
     5
 10
153.9999999999998
 20
229.0
 30
0.0
 40
30.0
 50
0.0
 51
90.0
  0
ARC
  8
DETAIL
  6
CONTINUOUS
 62
     5
 10
153.9999999999998
 20
-228.99999999999989
 30
0.0
 40
30.0
 50
270.0
 51
0.0
  0
LINE
  8
SIZE
  6
CONTINUOUS
 62
    30
 10
0.0
 20
279.0
 30
0.0
 11
0.0
 21
561.89362199999971
 31
0.0
  0
LINE
  8
SIZE
  6
CONTINUOUS
 62
    30
 10
183.99999999999989
 20
248.99999999999989
 30
0.0
 11
183.99999999999989
 21
561.89362199999971
 31
0.0
  0
LINE
  8
SIZE
  6
CONTINUOUS
 62
    30
 10
2.0
 20
531.89362199999982
 30
0.0
 11
181.9999999999998
 21
531.89362199999982
 31
0.0
  0
TEXT
  8
SIZE
  6
CONTINUOUS
 62
    30
 10
22.057143
 20
563.89362199999982
 30
0.0
 40
64.0
  1
184
 41
0.9
  0
LINE
  8
SIZE
  6
CONTINUOUS
 62
    30
 10
-20.0
 20
-259.0
 30
0.0
 11
-676.14871286461482
 21
-259.08775681224398
 31
0.0
  0
LINE
  8
SIZE
  6
CONTINUOUS
 62
    30
 10
-20.0
 20
258.99999999999977
 30
0.0
 11
-674.0899779359479
 21
263.61242925920931
 31
0.0
  0
LINE
  8
SIZE
  6
CONTINUOUS
 62
    30
 10
-644.80897097234174
 20
-257.0
 30
0.0
 11
-644.80897097234174
 21
256.99999999999977
 31
0.0
  0
TEXT
  8
SIZE
  6
CONTINUOUS
 62
    30
 10
-676.80897097234174
 20
-68.571428999999881
 30
0.0
 40
64.0
  1
518
 50
90.0
 41
0.9
  0
LINE
  8
SIZE
  6
CONTINUOUS
 62
    30
 10
-40.0
 20
-230.0
 30
0.0
 11
-529.97837842618719
 21
-228.21963587501699
 31
0.0
  0
LINE
  8
SIZE
  6
CONTINUOUS
 62
    30
 10
-40.0
 20
230.0
 30
0.0
 11
-529.97837842618719
 21
232.74430832198229
 31
0.0
  0
LINE
  8
SIZE
  6
CONTINUOUS
 62
    30
 10
-500.91579397234148
 20
-228.0
 30
0.0
 11
-500.91579397234148
 21
227.99999999999989
 31
0.0
  0
TEXT
  8
SIZE
  6
CONTINUOUS
 62
    30
 10
-532.91579397234182
 20
-74.057142999999883
 30
0.0
 40
64.0
  1
460
 50
90.0
 41
0.9
  0
LINE
  8
SIZE
  6
CONTINUOUS
 62
    30
 10
-178.99999999999989
 20
211.4999999999998
 30
0.0
 11
-371.45562532734209
 21
210.10768508441279
 31
0.0
  0
LINE
  8
SIZE
  6
CONTINUOUS
 62
    30
 10
-178.99999999999989
 20
-211.5
 30
0.0
 11
-375.57309518467798
 21
-205.58301263744761
 31
0.0
  0
LINE
  8
SIZE
  6
CONTINUOUS
 62
    30
 10
-342.63329997234172
 20
209.5
 30
0.0
 11
-342.63329997234172
 21
-209.5
 31
0.0
  0
TEXT
  8
SIZE
  6
CONTINUOUS
 62
    30
 10
-374.63329997234172
 20
-106.6971429999999
 30
0.0
 40
64.0
  1
□423
 50
90.0
 41
0.9
  0
LINE
  8
SIZE
  6
CONTINUOUS
 62
    30
 10
-159.0
 20
231.49999999999989
 30
0.0
 11
-159.0
 21
561.89362199999971
 31
0.0
  0
LINE
  8
SIZE
  6
CONTINUOUS
 62
    30
 10
0.0
 20
279.0
 30
0.0
 11
0.0
 21
561.89362199999971
 31
0.0
  0
LINE
  8
SIZE
  6
CONTINUOUS
 62
    30
 10
-157.0
 20
531.89362199999982
 30
0.0
 11
-79.5
 21
531.89362199999982
 31
0.0
  0
LINE
  8
SIZE
  6
CONTINUOUS
 62
    30
 10
-2.0
 20
531.89362199999982
 30
0.0
 11
-79.5
 21
531.89362199999982
 31
0.0
  0
TEXT
  8
SIZE
  6
CONTINUOUS
 62
    30
 10
-146.69999999999999
 20
563.89362199999982
 30
0.0
 40
64.0
  1
159
 41
0.9
  0
CIRCLE
  8
SIZE
  6
CONTINUOUS
 62
    30
 10
0.0
 20
531.89362199999982
 30
0.0
 40
6.0
  0
CIRCLE
  8
SIZE
  6
CONTINUOUS
 62
    30
 10
-159.0
 20
531.89362199999982
 30
0.0
 40
6.0
  0
CIRCLE
  8
SIZE
  6
CONTINUOUS
 62
    30
 10
-342.63329997234172
 20
-211.5
 30
0.0
 40
6.0
  0
CIRCLE
  8
SIZE
  6
CONTINUOUS
 62
    30
 10
-342.63329997234172
 20
211.4999999999998
 30
0.0
 40
6.0
  0
CIRCLE
  8
SIZE
  6
CONTINUOUS
 62
    30
 10
-500.91579397234148
 20
230.0
 30
0.0
 40
6.0
  0
CIRCLE
  8
SIZE
  6
CONTINUOUS
 62
    30
 10
-500.91579397234148
 20
-230.0
 30
0.0
 40
6.0
  0
CIRCLE
  8
SIZE
  6
CONTINUOUS
 62
    30
 10
-644.80897097234174
 20
258.99999999999977
 30
0.0
 40
6.0
  0
CIRCLE
  8
SIZE
  6
CONTINUOUS
 62
    30
 10
-644.80897097234174
 20
-259.0
 30
0.0
 40
6.0
  0
CIRCLE
  8
SIZE
  6
CONTINUOUS
 62
    30
 10
183.99999999999989
 20
531.89362199999982
 30
0.0
 40
6.0
  0
CIRCLE
  8
SIZE
  6
CONTINUOUS
 62
    30
 10
0.0
 20
531.89362199999982
 30
0.0
 40
6.0
  0
LINE
  8
NOTE
  6
CONTINUOUS
 62
     4
 10
19.99999999999989
 20
-230.0
 30
0.0
 11
-20.0
 21
-230.0
 31
0.0
  0
LINE
  8
NOTE
  6
CONTINUOUS
 62
     4
 10
0.0
 20
-210.0
 30
0.0
 11
0.0
 21
-250.0
 31
0.0
  0
LINE
  8
NOTE
  6
CONTINUOUS
 62
     4
 10
19.99999999999989
 20
230.0
 30
0.0
 11
-20.0
 21
230.0
 31
0.0
  0
LINE
  8
NOTE
  6
CONTINUOUS
 62
     4
 10
0.0
 20
249.99999999999989
 30
0.0
 11
0.0
 21
210.0
 31
0.0
  0
LINE
  8
DETAIL
  6
CONTINUOUS
 62
     5
 10
-157.6020177413229
 20
71.427406068612356
 30
0.0
 11
-192.88789355206109
 21
47.626782310025362
 31
0.0
  0
LINE
  8
DETAIL
  6
CONTINUOUS
 62
     5
 10
-159.0
 20
73.5
 30
0.0
 11
-195.38789355206109
 21
48.956055889179027
 31
0.0
  0
ARC
  8
DETAIL
  6
CONTINUOUS
 62
     5
 10
-186.99999999999989
 20
36.520492300853448
 30
0.0
 40
15.0
 50
123.9999999999978
 51
180.0
  0
ARC
  8
DETAIL
  6
CONTINUOUS
 62
     5
 10
-184.49999999999989
 20
35.191218721699727
 30
0.0
 40
15.0
 50
123.9999999999978
 51
180.0
  0
ARC
  8
DETAIL
  6
CONTINUOUS
 62
     5
 10
-186.99999999999989
 20
-58.479507699146502
 30
0.0
 40
15.0
 50
123.9999999999978
 51
180.0
  0
ARC
  8
DETAIL
  6
CONTINUOUS
 62
     5
 10
-184.49999999999989
 20
-59.808781278300103
 30
0.0
 40
15.0
 50
123.9999999999978
 51
180.0
  0
ARC
  8
DETAIL
  6
CONTINUOUS
 62
     5
 10
-186.99999999999989
 20
-153.4795076991465
 30
0.0
 40
15.0
 50
123.9999999999978
 51
180.0
  0
ARC
  8
DETAIL
  6
CONTINUOUS
 62
     5
 10
-184.49999999999989
 20
-154.8087812783001
 30
0.0
 40
15.0
 50
123.9999999999978
 51
180.0
  0
LINE
  8
DETAIL
  6
CONTINUOUS
 62
     5
 10
-199.49999999999989
 20
35.191218721699727
 30
0.0
 11
-199.49999999999989
 21
34.496133775775597
 31
0.0
  0
LINE
  8
DETAIL
  6
CONTINUOUS
 62
     5
 10
-202.00000000000011
 20
36.520492300853448
 30
0.0
 11
-201.99999999999989
 21
34.496133775775597
 31
0.0
  0
LINE
  8
DETAIL
  6
CONTINUOUS
 62
     5
 10
-199.49999999999989
 20
-59.808781278300103
 30
0.0
 11
-199.49999999999989
 21
-60.503866224224168
 31
0.0
  0
LINE
  8
DETAIL
  6
CONTINUOUS
 62
     5
 10
-201.99999999999989
 20
-58.479507699146502
 30
0.0
 11
-201.99999999999989
 21
-60.503866224224168
 31
0.0
  0
LINE
  8
DETAIL
  6
CONTINUOUS
 62
     5
 10
-199.49999999999989
 20
-154.8087812783001
 30
0.0
 11
-199.49999999999989
 21
-155.50386622422411
 31
0.0
  0
LINE
  8
DETAIL
  6
CONTINUOUS
 62
     5
 10
-201.99999999999989
 20
-153.4795076991465
 30
0.0
 11
-201.99999999999989
 21
-155.50386622422411
 31
0.0
  0
LINE
  8
DETAIL
  6
CONTINUOUS
 62
     5
 10
-199.49999999999989
 20
-155.50386622422411
 30
0.0
 11
-201.99999999999989
 21
-155.50386622422411
 31
0.0
  0
LINE
  8
DETAIL
  6
CONTINUOUS
 62
     5
 10
-199.49999999999989
 20
-60.503866224224168
 30
0.0
 11
-201.99999999999989
 21
-60.503866224224168
 31
0.0
  0
LINE
  8
DETAIL
  6
CONTINUOUS
 62
     5
 10
-199.49999999999989
 20
34.496133775775597
 30
0.0
 11
-201.99999999999989
 21
34.496133775775597
 31
0.0
  0
LINE
  8
DETAIL
  6
CONTINUOUS
 62
     5
 10
-157.6020177413229
 20
-118.5725939313875
 30
0.0
 11
-192.88789355206109
 21
-142.37321768997461
 31
0.0
  0
LINE
  8
DETAIL
  6
CONTINUOUS
 62
     5
 10
-157.6020177413229
 20
-23.572593931387619
 30
0.0
 11
-192.88789355206109
 21
-47.373217689974638
 31
0.0
  0
LINE
  8
DETAIL
  6
CONTINUOUS
 62
     5
 10
-159.0
 20
-116.4999999999998
 30
0.0
 11
-195.38789355206109
 21
-141.0439441108208
 31
0.0
  0
LINE
  8
DETAIL
  6
CONTINUOUS
 62
     5
 10
-159.0
 20
-21.500000000000028
 30
0.0
 11
-195.38789355206109
 21
-46.043944110820917
 31
0.0
  0
ARC
  8
DETAIL
  6
CONTINUOUS
 62
     5
 10
-186.99999999999989
 20
131.52049230085339
 30
0.0
 40
15.0
 50
123.9999999999978
 51
180.0
  0
ARC
  8
DETAIL
  6
CONTINUOUS
 62
     5
 10
-184.49999999999989
 20
130.1912187216997
 30
0.0
 40
15.0
 50
123.9999999999978
 51
180.0
  0
LINE
  8
DETAIL
  6
CONTINUOUS
 62
     5
 10
-199.49999999999989
 20
129.49613377577549
 30
0.0
 11
-201.99999999999989
 21
129.49613377577549
 31
0.0
  0
LINE
  8
DETAIL
  6
CONTINUOUS
 62
     5
 10
-199.49999999999989
 20
130.1912187216997
 30
0.0
 11
-199.49999999999989
 21
129.49613377577549
 31
0.0
  0
LINE
  8
DETAIL
  6
CONTINUOUS
 62
     5
 10
-201.99999999999989
 20
131.52049230085339
 30
0.0
 11
-201.99999999999989
 21
129.49613377577549
 31
0.0
  0
LINE
  8
DETAIL
  6
CONTINUOUS
 62
     5
 10
-157.6020177413229
 20
166.42740606861221
 30
0.0
 11
-192.88789355206109
 21
142.62678231002531
 31
0.0
  0
LINE
  8
DETAIL
  6
CONTINUOUS
 62
     5
 10
-159.0
 20
168.4999999999998
 30
0.0
 11
-195.38789355206109
 21
143.95605588917891
 31
0.0
  0
LINE
  8
SIZE
  6
CONTINUOUS
 62
    30
 10
-201.99999999999989
 20
148.17582397544541
 30
0.0
 11
-201.99999999999989
 21
561.89362199999971
 31
0.0
  0
CIRCLE
  8
FIX
  6
CONTINUOUS
 62
    11
 10
0.0
 20
230.0
 30
0.0
 40
5.0
  0
CIRCLE
  8
FIX
  6
CONTINUOUS
 62
    11
 10
0.0
 20
-230.0
 30
0.0
 40
5.0
  0
ARC
  8
DETAIL
  6
CONTINUOUS
 62
     5
 10
-149.0
 20
201.4999999999998
 30
0.0
 40
10.0
 50
90.0
 51
180.0
  0
ARC
  8
DETAIL
  6
CONTINUOUS
 62
     5
 10
-149.0
 20
-201.5
 30
0.0
 40
10.0
 50
180.0
 51
270.0
  0
LINE
  8
OUTLINE
  6
CONTINUOUS
 62
     3
 10
183.99999999999989
 20
229.0
 30
0.0
 11
183.99999999999989
 21
-228.99999999999989
 31
0.0
  0
LINE
  8
OUTLINE
  6
CONTINUOUS
 62
     3
 10
0.0
 20
258.99999999999977
 30
0.0
 11
0.0
 21
-259.0
 31
0.0
  0
LINE
  8
OUTLINE
  6
CONTINUOUS
 62
     3
 10
-159.0
 20
201.4999999999998
 30
0.0
 11
-159.0
 21
-201.5
 31
0.0
  0
CIRCLE
  8
ARRANGE
  6
CONTINUOUS
 62
     1
 10
0.0
 20
0.0
 30
0.0
 40
54.482759999999992
  0
POINT
  8
ARRANGE
  6
CONTINUOUS
 62
     1
 10
0.0
 20
0.0
 30
0.0
  0
LINE
  8
OUTLINE
  6
CONTINUOUS
 62
     3
 10
-149.0
 20
-211.5
 30
0.0
 11
0.0
 21
-211.5
 31
0.0
  0
ARC
  8
OUTLINE
  6
CONTINUOUS
 62
     3
 10
-149.0
 20
-201.5
 30
0.0
 40
10.0
 50
180.0
 51
270.0
  0
LINE
  8
OUTLINE
  6
CONTINUOUS
 62
     3
 10
0.0
 20
-259.0
 30
0.0
 11
153.9999999999998
 21
-259.0
 31
0.0
  0
ARC
  8
OUTLINE
  6
CONTINUOUS
 62
     3
 10
153.9999999999998
 20
-228.99999999999989
 30
0.0
 40
30.0
 50
270.0
 51
0.0
  0
LINE
  8
OUTLINE
  6
CONTINUOUS
 62
     3
 10
-149.0
 20
211.4999999999998
 30
0.0
 11
0.0
 21
211.4999999999998
 31
0.0
  0
ARC
  8
OUTLINE
  6
CONTINUOUS
 62
     3
 10
-149.0
 20
201.4999999999998
 30
0.0
 40
10.0
 50
90.0
 51
180.0
  0
LINE
  8
OUTLINE
  6
CONTINUOUS
 62
     3
 10
0.0
 20
258.99999999999977
 30
0.0
 11
153.9999999999998
 21
258.99999999999977
 31
0.0
  0
ARC
  8
OUTLINE
  6
CONTINUOUS
 62
     3
 10
153.9999999999998
 20
229.0
 30
0.0
 40
30.0
 50
0.0
 51
90.0
  0
TEXT
  8
ETC
  6
CONTINUOUS
 62
    61
 10
331.17310121108949
 20
659.43735917215486
 30
0.0
 40
64.0
  1
EFG-40MSB2_5
 41
0.9
  0
TEXT
  8
ETC
  6
CONTINUOUS
 62
    61
 10
433.35769427517153
 20
483.82515583988152
 30
0.0
 40
50.0
  1
EFG-40MSB2
 41
0.9
  0
TEXT
  8
ETC
  6
CONTINUOUS
 62
    61
 10
330.59405909870071
 20
568.66913591386776
 30
0.0
 40
64.0
  1
産業扇
 41
0.9
  0
LINE
  8
NOTE
  6
CONTINUOUS
 62
     4
 10
-29.822050400963239
 20
263.42367963062469
 30
0.0
 11
0.0
 21
230.0
 31
0.0
  0
LINE
  8
NOTE
  6
CONTINUOUS
 62
     4
 10
0.0
 20
230.0
 30
0.0
 11
-46.292929555903363
 21
240.7857116783434
 31
0.0
  0
LINE
  8
SIZE
  6
CONTINUOUS
 62
    30
 10
-159.0
 20
531.89362199999982
 30
0.0
 11
-353.06306517715598
 21
531.89362199999982
 31
0.0
  0
CIRCLE
  8
SIZE
  6
CONTINUOUS
 62
    30
 10
-201.99999999999989
 20
531.89362199999982
 30
0.0
 40
6.0
  0
TEXT
  8
SIZE
  6
CONTINUOUS
 62
    30
 10
-348.46827419220881
 20
563.89362199999982
 30
0.0
 40
64.0
  1
43
 41
0.9
  0
ENDSEC
  0
EOF
