  0
SECTION
  2
HEADER
  9
$ACADVER
  1
AC1009
  9
$DWGCODEPAGE
  3
ansi_932
  9
$INSBASE
 10
0.0
 20
0.0
 30
0.0
  9
$EXTMIN
 10
-549.709822773184
 20
-246.8095089999999
 30
0.0
  9
$EXTMAX
 10
1023.845913609257
 20
742.5140211555298
 30
50.0
  9
$LIMMIN
 10
-2970.0
 20
-2100.0
  9
$LIMMAX
 10
2970.0
 20
2100.0
  9
$ORTHOMODE
 70
     1
  9
$REGENMODE
 70
     0
  9
$FILLMODE
 70
     1
  9
$QTEXTMODE
 70
     0
  9
$MIRRTEXT
 70
     0
  9
$DRAGMODE
 70
     2
  9
$LTSCALE
 40
20.0
  9
$OSMODE
 70
    37
  9
$ATTMODE
 70
     1
  9
$TEXTSIZE
 40
64.0
  9
$TRACEWID
 40
0.05
  9
$TEXTSTYLE
  7
STANDARD
  9
$CLAYER
  8
DETAIL
  9
$CELTYPE
  6
CONTINUOUS
  9
$CECOLOR
 62
     5
  9
$DIMSCALE
 40
1.0
  9
$DIMASZ
 40
12.0
  9
$DIMEXO
 40
20.0
  9
$DIMDLI
 40
200.0
  9
$DIMRND
 40
0.0
  9
$DIMDLE
 40
0.0
  9
$DIMEXE
 40
20.0
  9
$DIMTP
 40
0.0
  9
$DIMTM
 40
0.0
  9
$DIMTXT
 40
64.0
  9
$DIMCEN
 40
0.09
  9
$DIMTSZ
 40
0.0
  9
$DIMTOL
 70
     0
  9
$DIMLIM
 70
     0
  9
$DIMTIH
 70
     0
  9
$DIMTOH
 70
     0
  9
$DIMSE1
 70
     0
  9
$DIMSE2
 70
     0
  9
$DIMTAD
 70
     1
  9
$DIMZIN
 70
     8
  9
$DIMBLK
  1
DOT1
  9
$DIMASO
 70
     1
  9
$DIMSHO
 70
     0
  9
$DIMPOST
  1

  9
$DIMAPOST
  1

  9
$DIMALT
 70
     0
  9
$DIMALTD
 70
     2
  9
$DIMALTF
 40
25.4
  9
$DIMLFAC
 40
1.0
  9
$DIMTOFL
 70
     1
  9
$DIMTVP
 40
0.0
  9
$DIMTIX
 70
     1
  9
$DIMSOXD
 70
     0
  9
$DIMSAH
 70
     1
  9
$DIMBLK1
  1
ORIGIN
  9
$DIMBLK2
  1
ORIGIN
  9
$DIMSTYLE
  2
STANDARD
  9
$DIMCLRD
 70
     0
  9
$DIMCLRE
 70
     0
  9
$DIMCLRT
 70
     0
  9
$DIMTFAC
 40
1.0
  9
$DIMGAP
 40
0.09
  9
$LUNITS
 70
     2
  9
$LUPREC
 70
     4
  9
$SKETCHINC
 40
0.1
  9
$FILLETRAD
 40
10.0
  9
$AUNITS
 70
     1
  9
$AUPREC
 70
     3
  9
$MENU
  1
ACAD
  9
$ELEVATION
 40
0.0
  9
$PELEVATION
 40
0.0
  9
$THICKNESS
 40
50.0
  9
$LIMCHECK
 70
     0
  9
$CHAMFERA
 40
0.0
  9
$CHAMFERB
 40
0.0
  9
$SKPOLY
 70
     0
  9
$TDCREATE
 40
2451453.493850799
  9
$TDUPDATE
 40
2457485.555258866
  9
$TDINDWG
 40
0.6537404051
  9
$TDUSRTIMER
 40
0.6537402083
  9
$USRTIMER
 70
     1
  9
$ANGBASE
 50
0.0
  9
$ANGDIR
 70
     0
  9
$PDMODE
 70
     3
  9
$PDSIZE
 40
-2.0
  9
$PLINEWID
 40
0.0
  9
$COORDS
 70
     1
  9
$SPLFRAME
 70
     0
  9
$SPLINETYPE
 70
     6
  9
$SPLINESEGS
 70
     8
  9
$ATTDIA
 70
     0
  9
$ATTREQ
 70
     1
  9
$HANDLING
 70
     1
  9
$HANDSEED
  5
3D2
  9
$SURFTAB1
 70
     6
  9
$SURFTAB2
 70
     6
  9
$SURFTYPE
 70
     6
  9
$SURFU
 70
     6
  9
$SURFV
 70
     6
  9
$UCSNAME
  2

  9
$UCSORG
 10
0.0
 20
0.0
 30
0.0
  9
$UCSXDIR
 10
1.0
 20
0.0
 30
0.0
  9
$UCSYDIR
 10
0.0
 20
1.0
 30
0.0
  9
$PUCSNAME
  2

  9
$PUCSORG
 10
0.0
 20
0.0
 30
0.0
  9
$PUCSXDIR
 10
1.0
 20
0.0
 30
0.0
  9
$PUCSYDIR
 10
0.0
 20
1.0
 30
0.0
  9
$USERI1
 70
     0
  9
$USERI2
 70
     0
  9
$USERI3
 70
     0
  9
$USERI4
 70
     0
  9
$USERI5
 70
     0
  9
$USERR1
 40
20.0
  9
$USERR2
 40
0.0
  9
$USERR3
 40
0.0
  9
$USERR4
 40
0.0
  9
$USERR5
 40
0.0
  9
$WORLDVIEW
 70
     1
  9
$SHADEDGE
 70
     3
  9
$SHADEDIF
 70
    70
  9
$TILEMODE
 70
     1
  9
$MAXACTVP
 70
    64
  9
$PLIMCHECK
 70
     0
  9
$PEXTMIN
 10
1.000000000000000E+20
 20
1.000000000000000E+20
 30
1.000000000000000E+20
  9
$PEXTMAX
 10
-1.000000000000000E+20
 20
-1.000000000000000E+20
 30
-1.000000000000000E+20
  9
$PLIMMIN
 10
0.0
 20
0.0
  9
$PLIMMAX
 10
12.0
 20
9.0
  9
$UNITMODE
 70
     0
  9
$VISRETAIN
 70
     1
  9
$PLINEGEN
 70
     0
  9
$PSLTSCALE
 70
     1
  0
ENDSEC
  0
SECTION
  2
TABLES
  0
TABLE
  2
VPORT
 70
     1
  0
VPORT
  2
*ACTIVE
 70
     0
 10
0.0
 20
0.0
 11
1.0
 21
1.0
 12
205.3269192312018
 22
246.7436243980691
 13
0.0
 23
0.0
 14
1.0
 24
1.0
 15
0.0
 25
0.0
 16
0.0
 26
0.0
 36
1.0
 17
0.0
 27
0.0
 37
0.0
 40
1421.412275942472
 41
1.493654822335025
 42
50.0
 43
0.0
 44
0.0
 50
0.0
 51
0.0
 71
     0
 72
   100
 73
     1
 74
     0
 75
     0
 76
     0
 77
     0
 78
     0
  0
ENDTAB
  0
TABLE
  2
LTYPE
 70
     2
  0
LTYPE
  2
CONTINUOUS
 70
     0
  3
実線
 72
    65
 73
     0
 40
0.0
  0
LTYPE
  2
DASHDOT
 70
     0
  3
____ _ ____ _ ____ _ ____ _ ____ _ ____ _ ____
 72
    65
 73
     4
 40
5.5
 49
4.0
 49
-0.6
 49
0.3
 49
-0.6
  0
ENDTAB
  0
TABLE
  2
LAYER
 70
    12
  0
LAYER
  2
0
 70
     0
 62
     7
  6
CONTINUOUS
  0
LAYER
  2
DETAIL
 70
     0
 62
     5
  6
CONTINUOUS
  0
LAYER
  2
SIZE
 70
     0
 62
    30
  6
CONTINUOUS
  0
LAYER
  2
BASIS
 70
     0
 62
     6
  6
DASHDOT
  0
LAYER
  2
OUTLINE
 70
     0
 62
     3
  6
CONTINUOUS
  0
LAYER
  2
ARRANGE
 70
     0
 62
     1
  6
CONTINUOUS
  0
LAYER
  2
DEFPOINTS
 70
     0
 62
     7
  6
CONTINUOUS
  0
LAYER
  2
ETC
 70
     0
 62
    61
  6
CONTINUOUS
  0
LAYER
  2
FIX
 70
     0
 62
    11
  6
CONTINUOUS
  0
LAYER
  2
NOTE
 70
     0
 62
     4
  6
CONTINUOUS
  0
LAYER
  2
SERVICESPACE
 70
     0
 62
     2
  6
DASHDOT
  0
LAYER
  2
SYMBOLLINE
 70
     0
 62
    15
  6
CONTINUOUS
  0
ENDTAB
  0
TABLE
  2
STYLE
 70
     1
  0
STYLE
  2
STANDARD
 70
     0
 40
64.0
 41
0.9
 50
0.0
 71
     0
 42
64.0
  3
SIMPLEX.shx
  4
BIGFONT.shx
  0
ENDTAB
  0
TABLE
  2
VIEW
 70
     1
  0
VIEW
  2
ALL
 70
     0
 40
4282.619807999997
 10
0.0
 20
41.30990399999999
 41
5940.0
 11
0.0
 21
0.0
 31
1.0
 12
0.0
 22
0.0
 32
0.0
 42
50.0
 43
0.0
 44
0.0
 50
0.0
 71
     0
  0
ENDTAB
  0
TABLE
  2
UCS
 70
     0
  0
ENDTAB
  0
TABLE
  2
APPID
 70
     1
  0
APPID
  2
ACAD
 70
     0
  0
ENDTAB
  0
TABLE
  2
DIMSTYLE
 70
     1
  0
DIMSTYLE
  2
STANDARD
 70
     0
  3

  4

  5

  6

  7

 40
1.0
 41
0.18
 42
0.0625
 43
0.38
 44
0.18
 45
0.0
 46
0.0
 47
0.0
 48
0.0
140
0.18
141
0.09
142
0.0
143
25.4
144
1.0
145
0.0
146
1.0
147
0.09
 71
     0
 72
     0
 73
     1
 74
     1
 75
     0
 76
     0
 77
     0
 78
     0
170
     0
171
     2
172
     0
173
     0
174
     0
175
     0
176
     0
177
     0
178
     0
  0
ENDTAB
  0
ENDSEC
  0
SECTION
  2
BLOCKS
  0
BLOCK
  8
0
  2
$MODEL_SPACE
 70
     0
 10
0.0
 20
0.0
 30
0.0
  3
$MODEL_SPACE
  1

  0
ENDBLK
  5
272
  8
0
  0
BLOCK
 67
     1
  8
0
  2
$PAPER_SPACE
 70
     0
 10
0.0
 20
0.0
 30
0.0
  3
$PAPER_SPACE
  1

  0
ENDBLK
  5
26E
 67
     1
  8
0
  0
BLOCK
  8
0
  2
DOT1
 70
     0
 10
0.0
 20
0.0
 30
0.0
  3
DOT1
  1

  0
CIRCLE
  5
28D
  8
SIZE
  6
CONTINUOUS
 62
     7
 10
0.0
 20
0.0
 30
0.0
 40
3.0
  0
ENDBLK
  5
28E
  8
0
  0
BLOCK
  8
0
  2
_ORIGIN
 70
     0
 10
0.0
 20
0.0
 30
0.0
  3
_ORIGIN
  1

  0
CIRCLE
  5
291
  8
0
  6
CONTINUOUS
 62
     7
 10
0.0
 20
0.0
 30
0.0
 40
0.5
  0
LINE
  5
292
  8
0
  6
CONTINUOUS
 62
     7
 10
0.0
 20
0.0
 30
0.0
 11
-1.0
 21
0.0
 31
0.0
  0
ENDBLK
  5
293
  8
0
  0
ENDSEC
  0
SECTION
  2
ENTITIES
  0
TEXT
  5
294
  8
ETC
  6
CONTINUOUS
 62
    61
 10
420.5900486681553
 20
678.5140211555292
 30
0.0
 40
64.0
  1
EFG-40SB_1
 41
0.9
  0
TEXT
  5
295
  8
ETC
  6
CONTINUOUS
 62
    61
 10
412.5165706681556
 20
580.4952961555292
 30
0.0
 40
64.0
  1
産業扇
 41
0.9
  0
LINE
  5
296
  8
BASIS
  6
DASHDOT
 62
     6
 10
0.0
 20
212.246731
 30
0.0
 11
0.0
 21
-158.877575
 31
0.0
  0
POINT
  5
297
  8
ARRANGE
  6
CONTINUOUS
 62
     1
 10
0.0
 20
0.0
 30
0.0
  0
LINE
  5
298
  8
DETAIL
  6
CONTINUOUS
 62
     5
 10
-211.5
 20
149.0
 30
0.0
 11
-211.5
 21
0.0
 31
0.0
  0
LINE
  5
299
  8
DETAIL
  6
CONTINUOUS
 62
     5
 10
211.4999999999998
 20
149.0
 30
0.0
 11
211.4999999999998
 21
0.0
 31
0.0
  0
LINE
  5
29A
  8
NOTE
  6
CONTINUOUS
 62
     4
 10
229.9999999999998
 20
0.0
 30
0.0
 11
353.8731379999999
 21
-102.6040129999999
 31
0.0
  0
LINE
  5
29B
  8
NOTE
  6
CONTINUOUS
 62
     4
 10
353.8731379999999
 20
-102.6040129999999
 30
0.0
 11
646.8410579999999
 21
-102.6040129999999
 31
0.0
  0
LINE
  5
29C
  8
NOTE
  6
CONTINUOUS
 62
     4
 10
-249.913799
 20
0.0
 30
0.0
 11
-195.431039
 21
0.0
 31
0.0
  0
LINE
  5
29D
  8
DETAIL
  6
CONTINUOUS
 62
     5
 10
-259.0
 20
0.0
 30
0.0
 11
-214.500005
 21
0.0
 31
0.0
  0
CIRCLE
  5
29E
  8
ARRANGE
  6
CONTINUOUS
 62
     1
 10
0.0
 20
0.0
 30
0.0
 40
54.48275999999999
  0
LINE
  5
29F
  8
DETAIL
  6
CONTINUOUS
 62
     5
 10
214.5000049999998
 20
0.0
 30
0.0
 11
258.9999999999998
 21
0.0
 31
0.0
  0
LINE
  5
2A0
  8
DETAIL
  6
CONTINUOUS
 62
     5
 10
-214.500005
 20
0.0
 30
0.0
 11
214.5000049999998
 21
0.0
 31
0.0
  0
LINE
  5
2A1
  8
NOTE
  6
CONTINUOUS
 62
     4
 10
-229.9999999999999
 20
-20.0
 30
0.0
 11
-229.9999999999999
 21
20.0
 31
0.0
  0
LINE
  5
2A2
  8
NOTE
  6
CONTINUOUS
 62
     4
 10
-250.0
 20
0.0
 30
0.0
 11
-209.9999999999998
 21
0.0
 31
0.0
  0
LINE
  5
2A3
  8
NOTE
  6
CONTINUOUS
 62
     4
 10
229.9999999999998
 20
-20.0
 30
0.0
 11
229.9999999999998
 21
20.0
 31
0.0
  0
LINE
  5
2A4
  8
NOTE
  6
CONTINUOUS
 62
     4
 10
209.9999999999998
 20
0.0
 30
0.0
 11
249.9999999999998
 21
0.0
 31
0.0
  0
TEXT
  5
2A5
  8
NOTE
  6
CONTINUOUS
 62
     4
 10
356.405817
 20
-76.33802699999998
 30
0.0
 40
64.0
  1
4-φ14
 41
0.9
  0
LINE
  5
2A6
  8
NOTE
  6
CONTINUOUS
 62
     4
 10
266.347072
 20
-16.700012
 30
0.0
 11
229.9999999999998
 21
0.0
 31
0.0
  0
LINE
  5
2A7
  8
NOTE
  6
CONTINUOUS
 62
     4
 10
229.9999999999998
 20
0.0
 30
0.0
 11
253.127481
 21
-32.63616999999999
 31
0.0
  0
LINE
  5
2A8
  8
SIZE
  6
CONTINUOUS
 62
    30
 10
-211.5
 20
175.0
 30
0.0
 11
-211.5
 21
328.2448014199156
 31
0.0
  0
LINE
  5
2A9
  8
SIZE
  6
CONTINUOUS
 62
    30
 10
211.4999999999998
 20
175.0
 30
0.0
 11
211.4999999999998
 21
328.2448014199156
 31
0.0
  0
LINE
  5
2AA
  8
SIZE
  6
CONTINUOUS
 62
    30
 10
-199.4999999999998
 20
307.2111769083297
 30
0.0
 11
199.4999999999998
 21
307.2111769083297
 31
0.0
  0
CIRCLE
  5
2AB
  8
SIZE
  6
CONTINUOUS
 62
    30
 10
-211.5
 20
307.2111769083297
 30
0.0
 40
6.0
  0
LINE
  5
2AC
  8
SIZE
  6
CONTINUOUS
 62
    30
 10
-211.5
 20
307.2111769083297
 30
0.0
 11
-199.4999999999998
 21
307.2111769083297
 31
0.0
  0
CIRCLE
  5
2AD
  8
SIZE
  6
CONTINUOUS
 62
    30
 10
211.4999999999998
 20
307.2111769083297
 30
0.0
 40
6.0
  0
LINE
  5
2AE
  8
SIZE
  6
CONTINUOUS
 62
    30
 10
211.4999999999998
 20
307.2111769083297
 30
0.0
 11
199.4999999999998
 21
307.2111769083297
 31
0.0
  0
TEXT
  5
2AF
  8
SIZE
  6
CONTINUOUS
 62
    30
 10
-106.9714285714286
 20
332.2111769083297
 30
0.0
 40
64.0
  1
□423
 41
0.9
 72
     1
 11
0.0
 21
332.2111769083297
 31
0.0
  0
LINE
  5
2B0
  8
SIZE
  6
CONTINUOUS
 62
    30
 10
-229.9999999999999
 20
40.0
 30
0.0
 11
-229.9999999999999
 21
467.592563507299
 31
0.0
  0
LINE
  5
2B1
  8
SIZE
  6
CONTINUOUS
 62
    30
 10
229.9999999999998
 20
40.0
 30
0.0
 11
229.9999999999998
 21
467.592563507299
 31
0.0
  0
LINE
  5
2B2
  8
SIZE
  6
CONTINUOUS
 62
    30
 10
-217.9999999999998
 20
446.6157689083299
 30
0.0
 11
217.9999999999998
 21
446.6157689083299
 31
0.0
  0
CIRCLE
  5
2B3
  8
SIZE
  6
CONTINUOUS
 62
    30
 10
-229.9999999999999
 20
446.6157689083299
 30
0.0
 40
6.0
  0
LINE
  5
2B4
  8
SIZE
  6
CONTINUOUS
 62
    30
 10
-229.9999999999999
 20
446.6157689083299
 30
0.0
 11
-217.9999999999998
 21
446.6157689083299
 31
0.0
  0
CIRCLE
  5
2B5
  8
SIZE
  6
CONTINUOUS
 62
    30
 10
229.9999999999998
 20
446.6157689083299
 30
0.0
 40
6.0
  0
LINE
  5
2B6
  8
SIZE
  6
CONTINUOUS
 62
    30
 10
229.9999999999998
 20
446.6157689083299
 30
0.0
 11
217.9999999999998
 21
446.6157689083299
 31
0.0
  0
TEXT
  5
2B7
  8
SIZE
  6
CONTINUOUS
 62
    30
 10
-82.28571428571429
 20
471.6157689083297
 30
0.0
 40
64.0
  1
460
 41
0.9
 72
     1
 11
0.0
 21
471.6157689083297
 31
0.0
  0
LINE
  5
2B8
  8
SIZE
  6
CONTINUOUS
 62
    30
 10
258.9999999999998
 20
20.0
 30
0.0
 11
258.9999999999998
 21
606.9403231797155
 31
0.0
  0
LINE
  5
2B9
  8
SIZE
  6
CONTINUOUS
 62
    30
 10
-259.0
 20
20.0
 30
0.0
 11
-259.0
 21
606.9403231797155
 31
0.0
  0
LINE
  5
2BA
  8
SIZE
  6
CONTINUOUS
 62
    30
 10
246.9999999999998
 20
586.9570419083299
 30
0.0
 11
-247.0
 21
586.9570419083299
 31
0.0
  0
CIRCLE
  5
2BB
  8
SIZE
  6
CONTINUOUS
 62
    30
 10
258.9999999999998
 20
586.9570419083299
 30
0.0
 40
6.0
  0
LINE
  5
2BC
  8
SIZE
  6
CONTINUOUS
 62
    30
 10
258.9999999999998
 20
586.9570419083299
 30
0.0
 11
246.9999999999998
 21
586.9570419083299
 31
0.0
  0
CIRCLE
  5
2BD
  8
SIZE
  6
CONTINUOUS
 62
    30
 10
-259.0
 20
586.9570419083299
 30
0.0
 40
6.0
  0
LINE
  5
2BE
  8
SIZE
  6
CONTINUOUS
 62
    30
 10
-259.0
 20
586.9570419083299
 30
0.0
 11
-247.0
 21
586.9570419083299
 31
0.0
  0
TEXT
  5
2BF
  8
SIZE
  6
CONTINUOUS
 62
    30
 10
-106.9714285714286
 20
611.9570419083299
 30
0.0
 40
64.0
  1
□518
 41
0.9
 72
     1
 11
0.0
 21
611.9570419083299
 31
0.0
  0
LINE
  5
2C0
  8
DETAIL
  6
CONTINUOUS
 62
     5
 10
-201.5
 20
159.0
 30
0.0
 11
201.4999999999998
 21
159.0
 31
0.0
  0
LINE
  5
2C1
  8
DETAIL
  6
CONTINUOUS
 62
     5
 10
-245.776744
 20
-92.0
 30
0.0
 11
245.7767439999999
 21
-92.0
 31
0.0
  0
LINE
  5
2C2
  8
SIZE
  6
CONTINUOUS
 62
    30
 10
-231.4999999999999
 20
159.0
 30
0.0
 11
-551.8936219999997
 21
159.0
 31
0.0
  0
LINE
  5
2C3
  8
SIZE
  6
CONTINUOUS
 62
    30
 10
-279.0
 20
0.0
 30
0.0
 11
-551.8936219999997
 21
0.0
 31
0.0
  0
LINE
  5
2C4
  8
SIZE
  6
CONTINUOUS
 62
    30
 10
-531.8936219999998
 20
147.0
 30
0.0
 11
-531.8936219999998
 21
12.0
 31
0.0
  0
TEXT
  5
2C5
  8
SIZE
  6
CONTINUOUS
 62
    30
 10
-556.8514019999999
 20
-5.528571428571439
 30
0.0
 40
64.0
  1
159
 50
90.0
 41
0.9
 72
     1
 11
-556.8514019999999
 21
79.5
 31
0.0
  0
CIRCLE
  5
2C6
  8
SIZE
  6
CONTINUOUS
 62
    30
 10
-531.8936219999998
 20
159.0
 30
0.0
 40
6.0
  0
LINE
  5
2C7
  8
SIZE
  6
CONTINUOUS
 62
    30
 10
-531.8936219999998
 20
159.0
 30
0.0
 11
-531.8936219999998
 21
147.0
 31
0.0
  0
CIRCLE
  5
2C8
  8
SIZE
  6
CONTINUOUS
 62
    30
 10
-531.8936219999998
 20
0.0
 30
0.0
 40
6.0
  0
LINE
  5
2C9
  8
SIZE
  6
CONTINUOUS
 62
    30
 10
-531.8936219999998
 20
0.0
 30
0.0
 11
-531.8936219999998
 21
12.0
 31
0.0
  0
LINE
  5
2CA
  8
SIZE
  6
CONTINUOUS
 62
    30
 10
-279.0
 20
0.0
 30
0.0
 11
-551.8936219999997
 21
0.0
 31
0.0
  0
LINE
  5
2CB
  8
SIZE
  6
CONTINUOUS
 62
    30
 10
-265.7767439999999
 20
-92.0
 30
0.0
 11
-551.8936219999997
 21
-92.0
 31
0.0
  0
LINE
  5
2CC
  8
SIZE
  6
CONTINUOUS
 62
    30
 10
-531.8936219999998
 20
-12.0
 30
0.0
 11
-531.8936219999998
 21
-80.0
 31
0.0
  0
TEXT
  5
2CD
  8
SIZE
  6
CONTINUOUS
 62
    30
 10
-556.8514019999999
 20
-212.9523108571429
 30
0.0
 40
64.0
  1
92
 50
90.0
 41
0.9
 72
     1
 11
-556.8514019999999
 21
-158.095168
 31
0.0
  0
CIRCLE
  5
2CE
  8
SIZE
  6
CONTINUOUS
 62
    30
 10
-531.8936219999998
 20
0.0
 30
0.0
 40
6.0
  0
LINE
  5
2CF
  8
SIZE
  6
CONTINUOUS
 62
    30
 10
-531.8936219999998
 20
0.0
 30
0.0
 11
-531.8936219999998
 21
-12.0
 31
0.0
  0
CIRCLE
  5
2D0
  8
SIZE
  6
CONTINUOUS
 62
    30
 10
-531.8936219999998
 20
-92.0
 30
0.0
 40
6.0
  0
LINE
  5
2D1
  8
SIZE
  6
CONTINUOUS
 62
    30
 10
-531.8936219999998
 20
-92.0
 30
0.0
 11
-531.8936219999998
 21
-80.0
 31
0.0
  0
LINE
  5
2D2
  8
SIZE
  6
CONTINUOUS
 62
    30
 10
-265.7767439999999
 20
-92.0
 30
0.0
 11
-415.5785259999999
 21
-92.0
 31
0.0
  0
LINE
  5
2D3
  8
SIZE
  6
CONTINUOUS
 62
    30
 10
-160.34123
 20
-125.0
 30
0.0
 11
-415.5785259999999
 21
-125.0
 31
0.0
  0
LINE
  5
2D4
  8
SIZE
  6
CONTINUOUS
 62
    30
 10
-395.5785259999999
 20
-80.0
 30
0.0
 11
-395.5785259999999
 21
-68.0
 31
0.0
  0
LINE
  5
2D5
  8
SIZE
  6
CONTINUOUS
 62
    30
 10
-395.5785259999999
 20
-137.0
 30
0.0
 11
-395.5785259999999
 21
-149.0
 31
0.0
  0
TEXT
  5
2D6
  8
SIZE
  6
CONTINUOUS
 62
    30
 10
-419.4351209999999
 20
-249.9116398571428
 30
0.0
 40
64.0
  1
33
 50
90.0
 41
0.9
 72
     1
 11
-419.4351209999999
 21
-195.0544969999999
 31
0.0
  0
LINE
  5
2D7
  8
SIZE
  6
CONTINUOUS
 62
    30
 10
-395.5785259999999
 20
-92.0
 30
0.0
 11
-395.5785259999999
 21
-125.0
 31
0.0
  0
LINE
  5
2D8
  8
SIZE
  6
CONTINUOUS
 62
    30
 10
-395.5785259999999
 20
-92.0
 30
0.0
 11
-395.5785259999999
 21
-125.0
 31
0.0
  0
CIRCLE
  5
2D9
  8
SIZE
  6
CONTINUOUS
 62
    30
 10
-395.5785259999999
 20
-92.0
 30
0.0
 40
6.0
  0
LINE
  5
2DA
  8
SIZE
  6
CONTINUOUS
 62
    30
 10
-395.5785259999999
 20
-92.0
 30
0.0
 11
-395.5785259999999
 21
-80.0
 31
0.0
  0
CIRCLE
  5
2DB
  8
SIZE
  6
CONTINUOUS
 62
    30
 10
-395.5785259999999
 20
-125.0
 30
0.0
 40
6.0
  0
LINE
  5
2DC
  8
SIZE
  6
CONTINUOUS
 62
    30
 10
-395.5785259999999
 20
-125.0
 30
0.0
 11
-395.5785259999999
 21
-137.0
 31
0.0
  0
LINE
  5
2DD
  8
SIZE
  6
CONTINUOUS
 62
    30
 10
-395.5785259999999
 20
-125.0
 30
0.0
 11
-395.5785259999999
 21
-246.8095089999999
 31
0.0
  0
LINE
  5
2DE
  8
SIZE
  6
CONTINUOUS
 62
    30
 10
-531.8936219999998
 20
-94.0
 30
0.0
 11
-531.8936219999998
 21
-208.4985019999999
 31
0.0
  0
LINE
  5
2DF
  8
OUTLINE
  6
CONTINUOUS
 62
     3
 10
-201.5
 20
159.0
 30
0.0
 11
201.4999999999998
 21
159.0
 31
0.0
  0
LINE
  5
2E0
  8
OUTLINE
  6
CONTINUOUS
 62
     3
 10
-214.500005
 20
0.0
 30
0.0
 11
214.5000049999998
 21
0.0
 31
0.0
  0
LINE
  5
2E1
  8
OUTLINE
  6
CONTINUOUS
 62
     3
 10
214.5000049999998
 20
0.0
 30
0.0
 11
258.9999999999998
 21
0.0
 31
0.0
  0
LINE
  5
2E2
  8
OUTLINE
  6
CONTINUOUS
 62
     3
 10
-259.0
 20
0.0
 30
0.0
 11
-214.500005
 21
0.0
 31
0.0
  0
LINE
  5
2E3
  8
OUTLINE
  6
CONTINUOUS
 62
     3
 10
211.4999999999998
 20
149.0
 30
0.0
 11
211.4999999999998
 21
0.0
 31
0.0
  0
LINE
  5
2E4
  8
OUTLINE
  6
CONTINUOUS
 62
     3
 10
-211.5
 20
149.0
 30
0.0
 11
-211.5
 21
0.0
 31
0.0
  0
LINE
  5
2E5
  8
DETAIL
  6
CONTINUOUS
 62
     5
 10
-259.0
 20
0.0
 30
0.0
 11
-255.7690639999999
 21
-82.39184200000003
 31
0.0
  0
ARC
  5
2E6
  8
DETAIL
  6
CONTINUOUS
 62
     5
 10
-245.776744
 20
-82.0
 30
0.0
 40
10.0
 50
182.245662
 51
270.0
  0
LINE
  5
2E7
  8
DETAIL
  6
CONTINUOUS
 62
     5
 10
258.9999999999998
 20
0.0
 30
0.0
 11
255.769064
 21
-82.39184200000003
 31
0.0
  0
ARC
  5
2E8
  8
DETAIL
  6
CONTINUOUS
 62
     5
 10
245.7767439999999
 20
-82.0
 30
0.0
 40
10.0
 50
270.0
 51
357.7543379999997
  0
CIRCLE
  5
2E9
  8
FIX
  6
CONTINUOUS
 62
    11
 39
50.0
 10
-229.9999999999999
 20
0.0
 30
0.0
 40
7.0
  0
CIRCLE
  5
2EA
  8
FIX
  6
CONTINUOUS
 62
    11
 39
50.0
 10
229.9999999999998
 20
0.0
 30
0.0
 40
7.0
  0
LINE
  5
2EB
  8
OUTLINE
  6
CONTINUOUS
 62
     3
 10
-259.0
 20
0.0
 30
0.0
 11
-255.7690639999999
 21
-82.39184200000003
 31
0.0
  0
ARC
  5
2EC
  8
OUTLINE
  6
CONTINUOUS
 62
     3
 10
-245.776744
 20
-82.0
 30
0.0
 40
10.0
 50
182.245662
 51
270.0
  0
LINE
  5
2ED
  8
OUTLINE
  6
CONTINUOUS
 62
     3
 10
258.9999999999998
 20
0.0
 30
0.0
 11
255.769064
 21
-82.39184200000003
 31
0.0
  0
LINE
  5
2EE
  8
OUTLINE
  6
CONTINUOUS
 62
     3
 10
-245.776744
 20
-92.0
 30
0.0
 11
245.7767439999999
 21
-92.0
 31
0.0
  0
ARC
  5
2EF
  8
OUTLINE
  6
CONTINUOUS
 62
     3
 10
245.7767439999999
 20
-82.0
 30
0.0
 40
10.0
 50
270.0
 51
357.7543379999997
  0
ARC
  5
2F0
  8
DETAIL
  6
CONTINUOUS
 62
     5
 10
-144.634646
 20
-104.040396
 30
0.0
 40
21.006176
 50
230.1911629999999
 51
266.1839909999998
  0
ARC
  5
2F1
  8
DETAIL
  6
CONTINUOUS
 62
     5
 10
-113.74817
 20
-93.489348
 30
0.0
 40
61.459573
 50
180.1551190000007
 51
188.7862209999999
  0
LINE
  5
2F2
  8
DETAIL
  6
CONTINUOUS
 62
     5
 10
-175.236629
 20
-92.0
 30
0.0
 11
-175.2075179999997
 21
-93.65574
 31
0.0
  0
ARC
  5
2F3
  8
DETAIL
  6
CONTINUOUS
 62
     5
 10
-108.547731
 20
-56.782575
 30
0.0
 40
80.45270399999997
 50
214.95553
 51
231.996357
  0
LINE
  5
2F4
  8
DETAIL
  6
CONTINUOUS
 62
     5
 10
-143.236629
 20
-125.0
 30
0.0
 11
-140.34123
 21
-125.0
 31
0.0
  0
LINE
  5
2F5
  8
DETAIL
  6
CONTINUOUS
 62
     5
 10
-146.032664
 20
-125.0
 30
0.0
 11
-143.236629
 21
-125.0
 31
0.0
  0
ARC
  5
2F6
  8
DETAIL
  6
CONTINUOUS
 62
     5
 10
-133.650259
 20
-122.032212
 30
0.0
 40
2.0
 50
278.062684
 51
305.5584680000005
  0
ARC
  5
2F7
  8
DETAIL
  6
CONTINUOUS
 62
     5
 10
-130.429157
 20
-119.72966
 30
0.0
 40
2.0
 50
305.5584679999996
 51
328.8398520000001
  0
LINE
  5
2F8
  8
DETAIL
  6
CONTINUOUS
 62
     5
 10
-133.369746
 20
-124.0124429999999
 30
0.0
 11
-140.34123
 21
-125.0
 31
0.0
  0
LINE
  5
2F9
  8
DETAIL
  6
CONTINUOUS
 62
     5
 10
-129.26609
 20
-121.3567049999999
 30
0.0
 11
-132.487192
 21
-123.659257
 31
0.0
  0
LINE
  5
2FA
  8
DETAIL
  6
CONTINUOUS
 62
     5
 10
-126.652124
 20
-117.348479
 30
0.0
 11
-128.717708
 21
-120.764523
 31
0.0
  0
LINE
  5
2FB
  8
DETAIL
  6
CONTINUOUS
 62
     5
 10
-123.38488
 20
-111.0670899999997
 30
0.0
 11
-126.652124
 21
-117.348479
 31
0.0
  0
ARC
  5
2FC
  8
DETAIL
  6
CONTINUOUS
 62
     5
 10
76.3976119999997
 20
-144.03476
 30
0.0
 40
202.484349
 50
165.1089609999999
 51
170.6296209999998
  0
ARC
  5
2FD
  8
DETAIL
  6
CONTINUOUS
 62
     5
 10
14.027619
 20
-16.162122
 30
0.0
 40
107.3088749999999
 50
259.535118
 51
315.0309169999999
  0
ARC
  5
2FE
  8
DETAIL
  6
CONTINUOUS
 62
     5
 10
-9.982007000000024
 20
-54.33832299999998
 30
0.0
 40
57.837425
 50
276.0583409999999
 51
319.370544
  0
ARC
  5
2FF
  8
DETAIL
  6
CONTINUOUS
 62
     5
 10
-4.231237999999991
 20
-116.8402139999999
 30
0.0
 40
5.0
 50
85.94631299999998
 51
255.7359149999997
  0
ARC
  5
300
  8
DETAIL
  6
CONTINUOUS
 62
     5
 10
142.0791049999998
 20
-14.89534799999999
 30
0.0
 40
107.395697
 50
233.920476
 51
267.509656
  0
ARC
  5
301
  8
DETAIL
  6
CONTINUOUS
 62
     5
 10
213.3424719999998
 20
49.598303
 30
0.0
 40
187.820198
 50
228.9296509999998
 51
246.154694
  0
TEXT
  5
302
  8
ETC
  6
CONTINUOUS
 62
    61
 10
497.1348959424757
 20
496.0360259268036
 30
0.0
 40
50.0
  1
EFG-40SB
 41
0.9
  0
LINE
  5
303
  8
SIZE
  6
CONTINUOUS
 62
    30
 39
50.0
 10
-531.8936219999998
 20
159.0
 30
0.0
 11
-531.8936219999998
 21
336.1324109136312
 31
0.0
  0
CIRCLE
  5
304
  8
SIZE
  6
CONTINUOUS
 62
    30
 39
50.0
 10
-531.8936219999998
 20
202.0011011220104
 30
0.0
 40
6.0
  0
TEXT
  5
305
  8
SIZE
  6
CONTINUOUS
 62
    30
 10
-556.8514019999999
 20
218.2369855929428
 30
0.0
 40
64.0
  1
43
 50
90.0
 41
0.9
 72
     1
 11
-556.8514019999999
 21
273.0941284500857
 31
0.0
  0
LINE
  5
306
  8
SIZE
  6
CONTINUOUS
 62
    30
 10
-224.8837784389683
 20
202.0
 30
0.0
 11
-551.8936219999997
 21
202.0
 31
0.0
  0
LINE
  5
307
  8
DETAIL
  6
CONTINUOUS
 62
     5
 39
50.0
 10
-201.5
 20
202.0
 30
0.0
 11
201.4999999999998
 21
202.0
 31
0.0
  0
ARC
  5
308
  8
DETAIL
  6
CONTINUOUS
 62
     5
 10
-201.5
 20
149.0
 30
0.0
 40
10.0
 50
90.0
 51
180.0
  0
ARC
  5
309
  8
DETAIL
  6
CONTINUOUS
 62
     5
 10
201.4999999999998
 20
149.0
 30
0.0
 40
10.0
 50
0.0
 51
90.0
  0
LINE
  5
30A
  8
DETAIL
  6
CONTINUOUS
 62
     5
 39
50.0
 10
201.4999999999998
 20
202.0
 30
0.0
 11
201.4999999999998
 21
159.0
 31
0.0
  0
LINE
  5
30B
  8
DETAIL
  6
CONTINUOUS
 62
     5
 39
50.0
 10
-201.5
 20
202.0
 30
0.0
 11
-201.5
 21
159.0
 31
0.0
  0
ARC
  5
30C
  8
OUTLINE
  6
CONTINUOUS
 62
     3
 10
201.4999999999998
 20
149.0
 30
0.0
 40
10.0
 50
0.0
 51
90.0
  0
ARC
  5
30D
  8
OUTLINE
  6
CONTINUOUS
 62
     3
 10
-201.5
 20
149.0
 30
0.0
 40
10.0
 50
90.0
 51
180.0
  0
ENDSEC
  0
EOF
