  0
SECTION
  2
HEADER
  9
$ACADVER
  1
AC1009
  9
$DWGCODEPAGE
  3
ansi_932
  9
$INSBASE
 10
0.0
 20
0.0
 30
0.0
  9
$EXTMIN
 10
-674.8860556773888
 20
-349.9774496903846
 30
0.0
  9
$EXTMAX
 10
942.8742684009293
 20
596.0164437819916
 30
50.0
  9
$LIMMIN
 10
-2970.0
 20
-2100.0
  9
$LIMMAX
 10
2970.0
 20
2100.0
  9
$ORTHOMODE
 70
     1
  9
$REGENMODE
 70
     0
  9
$FILLMODE
 70
     1
  9
$QTEXTMODE
 70
     0
  9
$MIRRTEXT
 70
     0
  9
$DRAGMODE
 70
     2
  9
$LTSCALE
 40
20.0
  9
$OSMODE
 70
    37
  9
$ATTMODE
 70
     1
  9
$TEXTSIZE
 40
64.0
  9
$TRACEWID
 40
0.05
  9
$TEXTSTYLE
  7
STANDARD
  9
$CLAYER
  8
OUTLINE
  9
$CELTYPE
  6
CONTINUOUS
  9
$CECOLOR
 62
     3
  9
$DIMSCALE
 40
1.0
  9
$DIMASZ
 40
12.0
  9
$DIMEXO
 40
20.0
  9
$DIMDLI
 40
200.0
  9
$DIMRND
 40
0.0
  9
$DIMDLE
 40
0.0
  9
$DIMEXE
 40
20.0
  9
$DIMTP
 40
0.0
  9
$DIMTM
 40
0.0
  9
$DIMTXT
 40
64.0
  9
$DIMCEN
 40
0.09
  9
$DIMTSZ
 40
0.0
  9
$DIMTOL
 70
     0
  9
$DIMLIM
 70
     0
  9
$DIMTIH
 70
     0
  9
$DIMTOH
 70
     0
  9
$DIMSE1
 70
     0
  9
$DIMSE2
 70
     0
  9
$DIMTAD
 70
     1
  9
$DIMZIN
 70
     8
  9
$DIMBLK
  1
DOT1
  9
$DIMASO
 70
     1
  9
$DIMSHO
 70
     0
  9
$DIMPOST
  1

  9
$DIMAPOST
  1

  9
$DIMALT
 70
     0
  9
$DIMALTD
 70
     2
  9
$DIMALTF
 40
25.4
  9
$DIMLFAC
 40
1.0
  9
$DIMTOFL
 70
     1
  9
$DIMTVP
 40
0.0
  9
$DIMTIX
 70
     1
  9
$DIMSOXD
 70
     0
  9
$DIMSAH
 70
     1
  9
$DIMBLK1
  1
ORIGIN
  9
$DIMBLK2
  1
ORIGIN
  9
$DIMSTYLE
  2
STANDARD
  9
$DIMCLRD
 70
     0
  9
$DIMCLRE
 70
     0
  9
$DIMCLRT
 70
     0
  9
$DIMTFAC
 40
1.0
  9
$DIMGAP
 40
0.09
  9
$LUNITS
 70
     2
  9
$LUPREC
 70
     4
  9
$SKETCHINC
 40
0.1
  9
$FILLETRAD
 40
10.0
  9
$AUNITS
 70
     1
  9
$AUPREC
 70
     3
  9
$MENU
  1
ACAD
  9
$ELEVATION
 40
0.0
  9
$PELEVATION
 40
0.0
  9
$THICKNESS
 40
50.0
  9
$LIMCHECK
 70
     0
  9
$CHAMFERA
 40
0.0
  9
$CHAMFERB
 40
0.0
  9
$SKPOLY
 70
     0
  9
$TDCREATE
 40
2451453.493850799
  9
$TDUPDATE
 40
2457485.555262836
  9
$TDINDWG
 40
0.5721871181
  9
$TDUSRTIMER
 40
0.5721863657
  9
$USRTIMER
 70
     1
  9
$ANGBASE
 50
0.0
  9
$ANGDIR
 70
     0
  9
$PDMODE
 70
     3
  9
$PDSIZE
 40
-2.0
  9
$PLINEWID
 40
0.0
  9
$COORDS
 70
     1
  9
$SPLFRAME
 70
     0
  9
$SPLINETYPE
 70
     6
  9
$SPLINESEGS
 70
     8
  9
$ATTDIA
 70
     0
  9
$ATTREQ
 70
     1
  9
$HANDLING
 70
     1
  9
$HANDSEED
  5
531
  9
$SURFTAB1
 70
     6
  9
$SURFTAB2
 70
     6
  9
$SURFTYPE
 70
     6
  9
$SURFU
 70
     6
  9
$SURFV
 70
     6
  9
$UCSNAME
  2

  9
$UCSORG
 10
0.0
 20
0.0
 30
0.0
  9
$UCSXDIR
 10
1.0
 20
0.0
 30
0.0
  9
$UCSYDIR
 10
0.0
 20
1.0
 30
0.0
  9
$PUCSNAME
  2

  9
$PUCSORG
 10
0.0
 20
0.0
 30
0.0
  9
$PUCSXDIR
 10
1.0
 20
0.0
 30
0.0
  9
$PUCSYDIR
 10
0.0
 20
1.0
 30
0.0
  9
$USERI1
 70
     0
  9
$USERI2
 70
     0
  9
$USERI3
 70
     0
  9
$USERI4
 70
     0
  9
$USERI5
 70
     0
  9
$USERR1
 40
20.0
  9
$USERR2
 40
0.0
  9
$USERR3
 40
0.0
  9
$USERR4
 40
0.0
  9
$USERR5
 40
0.0
  9
$WORLDVIEW
 70
     1
  9
$SHADEDGE
 70
     3
  9
$SHADEDIF
 70
    70
  9
$TILEMODE
 70
     1
  9
$MAXACTVP
 70
    64
  9
$PLIMCHECK
 70
     0
  9
$PEXTMIN
 10
1.000000000000000E+20
 20
1.000000000000000E+20
 30
1.000000000000000E+20
  9
$PEXTMAX
 10
-1.000000000000000E+20
 20
-1.000000000000000E+20
 30
-1.000000000000000E+20
  9
$PLIMMIN
 10
0.0
 20
0.0
  9
$PLIMMAX
 10
12.0
 20
9.0
  9
$UNITMODE
 70
     0
  9
$VISRETAIN
 70
     1
  9
$PLINEGEN
 70
     0
  9
$PSLTSCALE
 70
     1
  0
ENDSEC
  0
SECTION
  2
TABLES
  0
TABLE
  2
VPORT
 70
     1
  0
VPORT
  2
*ACTIVE
 70
     0
 10
0.0
 20
0.0
 11
1.0
 21
1.0
 12
106.5327109148656
 22
121.7948813338741
 13
0.0
 23
0.0
 14
1.0
 24
1.0
 15
0.0
 25
0.0
 16
0.0
 26
0.0
 36
1.0
 17
0.0
 27
0.0
 37
0.0
 40
1421.01820040636
 41
1.493654822335025
 42
50.0
 43
0.0
 44
0.0
 50
0.0
 51
0.0
 71
     0
 72
   100
 73
     1
 74
     0
 75
     0
 76
     0
 77
     0
 78
     0
  0
ENDTAB
  0
TABLE
  2
LTYPE
 70
     2
  0
LTYPE
  2
CONTINUOUS
 70
     0
  3
実線
 72
    65
 73
     0
 40
0.0
  0
LTYPE
  2
DASHDOT
 70
     0
  3
____ _ ____ _ ____ _ ____ _ ____ _ ____ _ ____
 72
    65
 73
     4
 40
5.5
 49
4.0
 49
-0.6
 49
0.3
 49
-0.6
  0
ENDTAB
  0
TABLE
  2
LAYER
 70
    12
  0
LAYER
  2
0
 70
     0
 62
     7
  6
CONTINUOUS
  0
LAYER
  2
OUTLINE
 70
     0
 62
     3
  6
CONTINUOUS
  0
LAYER
  2
SIZE
 70
     0
 62
    30
  6
CONTINUOUS
  0
LAYER
  2
BASIS
 70
     0
 62
     6
  6
DASHDOT
  0
LAYER
  2
DETAIL
 70
     0
 62
     5
  6
CONTINUOUS
  0
LAYER
  2
ARRANGE
 70
     0
 62
     1
  6
CONTINUOUS
  0
LAYER
  2
DEFPOINTS
 70
     0
 62
     7
  6
CONTINUOUS
  0
LAYER
  2
ETC
 70
     0
 62
    61
  6
CONTINUOUS
  0
LAYER
  2
FIX
 70
     0
 62
    11
  6
CONTINUOUS
  0
LAYER
  2
NOTE
 70
     0
 62
     4
  6
CONTINUOUS
  0
LAYER
  2
SERVICESPACE
 70
     0
 62
     2
  6
DASHDOT
  0
LAYER
  2
SYMBOLLINE
 70
     0
 62
    15
  6
CONTINUOUS
  0
ENDTAB
  0
TABLE
  2
STYLE
 70
     1
  0
STYLE
  2
STANDARD
 70
     0
 40
64.0
 41
0.9
 50
0.0
 71
     0
 42
64.0
  3
SIMPLEX.shx
  4
BIGFONT.shx
  0
ENDTAB
  0
TABLE
  2
VIEW
 70
     1
  0
VIEW
  2
ALL
 70
     0
 40
4282.619807999997
 10
0.0
 20
41.30990399999999
 41
5940.0
 11
0.0
 21
0.0
 31
1.0
 12
0.0
 22
0.0
 32
0.0
 42
50.0
 43
0.0
 44
0.0
 50
0.0
 71
     0
  0
ENDTAB
  0
TABLE
  2
UCS
 70
     0
  0
ENDTAB
  0
TABLE
  2
APPID
 70
     1
  0
APPID
  2
ACAD
 70
     0
  0
ENDTAB
  0
TABLE
  2
DIMSTYLE
 70
     1
  0
DIMSTYLE
  2
STANDARD
 70
     0
  3

  4

  5

  6

  7

 40
1.0
 41
0.18
 42
0.0625
 43
0.38
 44
0.18
 45
0.0
 46
0.0
 47
0.0
 48
0.0
140
0.18
141
0.09
142
0.0
143
25.4
144
1.0
145
0.0
146
1.0
147
0.09
 71
     0
 72
     0
 73
     1
 74
     1
 75
     0
 76
     0
 77
     0
 78
     0
170
     0
171
     2
172
     0
173
     0
174
     0
175
     0
176
     0
177
     0
178
     0
  0
ENDTAB
  0
ENDSEC
  0
SECTION
  2
BLOCKS
  0
BLOCK
  8
0
  2
$MODEL_SPACE
 70
     0
 10
0.0
 20
0.0
 30
0.0
  3
$MODEL_SPACE
  1

  0
ENDBLK
  5
3B4
  8
0
  0
BLOCK
 67
     1
  8
0
  2
$PAPER_SPACE
 70
     0
 10
0.0
 20
0.0
 30
0.0
  3
$PAPER_SPACE
  1

  0
ENDBLK
  5
3B0
 67
     1
  8
0
  0
BLOCK
  8
0
  2
DOT1
 70
     0
 10
0.0
 20
0.0
 30
0.0
  3
DOT1
  1

  0
CIRCLE
  5
3CF
  8
SIZE
  6
CONTINUOUS
 62
     7
 10
0.0
 20
0.0
 30
0.0
 40
3.0
  0
ENDBLK
  5
3D0
  8
0
  0
BLOCK
  8
0
  2
_ORIGIN
 70
     0
 10
0.0
 20
0.0
 30
0.0
  3
_ORIGIN
  1

  0
CIRCLE
  5
3D3
  8
0
  6
CONTINUOUS
 62
     7
 10
0.0
 20
0.0
 30
0.0
 40
0.5
  0
LINE
  5
3D4
  8
0
  6
CONTINUOUS
 62
     7
 10
0.0
 20
0.0
 30
0.0
 11
-1.0
 21
0.0
 31
0.0
  0
ENDBLK
  5
3D5
  8
0
  0
ENDSEC
  0
SECTION
  2
ENTITIES
  0
LINE
  5
3D6
  8
BASIS
  6
DASHDOT
 62
     6
 10
-185.6472989999997
 20
0.0
 30
0.0
 11
158.8775749999999
 21
0.0
 31
0.0
  0
POINT
  5
3D7
  8
ARRANGE
  6
CONTINUOUS
 62
     1
 10
0.0
 20
0.0
 30
0.0
  0
LINE
  5
3D8
  8
DETAIL
  6
CONTINUOUS
 62
     5
 10
-149.0
 20
211.4999999999999
 30
0.0
 11
0.0
 21
211.4999999999999
 31
0.0
  0
LINE
  5
3D9
  8
DETAIL
  6
CONTINUOUS
 62
     5
 10
-149.0
 20
-211.4999999999999
 30
0.0
 11
0.0
 21
-211.4999999999999
 31
0.0
  0
LINE
  5
3DA
  8
NOTE
  6
CONTINUOUS
 62
     4
 10
0.0
 20
230.0
 30
0.0
 11
-233.4983536936967
 21
420.8506656663443
 31
0.0
  0
LINE
  5
3DB
  8
NOTE
  6
CONTINUOUS
 62
     4
 10
-232.047019788064
 20
417.6383170523792
 30
0.0
 11
-525.014939788064
 21
417.6383170523792
 31
0.0
  0
LINE
  5
3DC
  8
NOTE
  6
CONTINUOUS
 62
     4
 10
0.0
 20
249.913799
 30
0.0
 11
0.0
 21
195.4310389999999
 31
0.0
  0
LINE
  5
3DD
  8
DETAIL
  6
CONTINUOUS
 62
     5
 10
0.0
 20
259.0
 30
0.0
 11
0.0
 21
214.500005
 31
0.0
  0
CIRCLE
  5
3DE
  8
ARRANGE
  6
CONTINUOUS
 62
     1
 10
0.0
 20
0.0
 30
0.0
 40
54.48275999999999
  0
LINE
  5
3DF
  8
DETAIL
  6
CONTINUOUS
 62
     5
 10
0.0
 20
-214.5000049999999
 30
0.0
 11
0.0
 21
-258.9999999999999
 31
0.0
  0
LINE
  5
3E0
  8
DETAIL
  6
CONTINUOUS
 62
     5
 10
0.0
 20
214.500005
 30
0.0
 11
0.0
 21
-214.5000049999999
 31
0.0
  0
LINE
  5
3E1
  8
NOTE
  6
CONTINUOUS
 62
     4
 10
20.0
 20
230.0
 30
0.0
 11
-19.99999999999997
 21
230.0
 31
0.0
  0
LINE
  5
3E2
  8
NOTE
  6
CONTINUOUS
 62
     4
 10
0.0
 20
250.0
 30
0.0
 11
0.0
 21
209.9999999999999
 31
0.0
  0
LINE
  5
3E3
  8
NOTE
  6
CONTINUOUS
 62
     4
 10
20.0
 20
-229.9999999999999
 30
0.0
 11
-19.99999999999997
 21
-229.9999999999999
 31
0.0
  0
LINE
  5
3E4
  8
NOTE
  6
CONTINUOUS
 62
     4
 10
0.0
 20
-209.9999999999999
 30
0.0
 11
0.0
 21
-249.9999999999999
 31
0.0
  0
TEXT
  5
3E5
  8
NOTE
  6
CONTINUOUS
 62
     4
 10
-514.8996987880639
 20
443.9043030523789
 30
0.0
 40
64.0
  1
4-φ14
 41
0.9
  0
LINE
  5
3E6
  8
NOTE
  6
CONTINUOUS
 62
     4
 10
-21.36670953740938
 20
262.1192030927062
 30
0.0
 11
0.0
 21
230.0
 31
0.0
  0
LINE
  5
3E7
  8
NOTE
  6
CONTINUOUS
 62
     4
 10
0.0
 20
230.0
 30
0.0
 11
-36.60489979280915
 21
249.2924190117651
 31
0.0
  0
LINE
  5
3E8
  8
SIZE
  6
CONTINUOUS
 62
    30
 10
-158.9999999999996
 20
223.801412759363
 30
0.0
 11
-158.9999999999996
 21
551.8936219999996
 31
0.0
  0
LINE
  5
3E9
  8
SIZE
  6
CONTINUOUS
 62
    30
 10
0.0
 20
279.0
 30
0.0
 11
0.0
 21
551.8936219999996
 31
0.0
  0
LINE
  5
3EA
  8
SIZE
  6
CONTINUOUS
 62
    30
 10
-146.9999999999998
 20
531.8936219999995
 30
0.0
 11
-11.99999999999997
 21
531.8936219999995
 31
0.0
  0
TEXT
  5
3EB
  8
SIZE
  6
CONTINUOUS
 62
    30
 10
-164.5285714285714
 20
555.502991
 30
0.0
 40
64.0
  1
159
 41
0.9
 72
     1
 11
-79.49999999999993
 21
555.502991
 31
0.0
  0
CIRCLE
  5
3EC
  8
SIZE
  6
CONTINUOUS
 62
    30
 10
-158.9999999999996
 20
531.8936219999995
 30
0.0
 40
6.0
  0
LINE
  5
3ED
  8
SIZE
  6
CONTINUOUS
 62
    30
 10
-158.9999999999996
 20
531.8936219999995
 30
0.0
 11
-146.9999999999998
 21
531.8936219999995
 31
0.0
  0
CIRCLE
  5
3EE
  8
SIZE
  6
CONTINUOUS
 62
    30
 10
0.0
 20
531.8936219999995
 30
0.0
 40
6.0
  0
LINE
  5
3EF
  8
SIZE
  6
CONTINUOUS
 62
    30
 10
0.0
 20
531.8936219999995
 30
0.0
 11
-11.99999999999997
 21
531.8936219999995
 31
0.0
  0
LINE
  5
3F0
  8
SIZE
  6
CONTINUOUS
 62
    30
 10
0.0
 20
279.0
 30
0.0
 11
0.0
 21
551.8936219999996
 31
0.0
  0
LINE
  5
3F1
  8
SIZE
  6
CONTINUOUS
 62
    30
 10
91.99999999999991
 20
265.7767439999998
 30
0.0
 11
91.99999999999991
 21
551.8936219999996
 31
0.0
  0
LINE
  5
3F2
  8
SIZE
  6
CONTINUOUS
 62
    30
 10
12.00000000000002
 20
531.8936219999995
 30
0.0
 11
80.00000000000003
 21
531.8936219999995
 31
0.0
  0
TEXT
  5
3F3
  8
SIZE
  6
CONTINUOUS
 62
    30
 10
103.2380251428572
 20
558.012129
 30
0.0
 40
64.0
  1
92
 41
0.9
 72
     1
 11
158.095168
 21
558.012129
 31
0.0
  0
CIRCLE
  5
3F4
  8
SIZE
  6
CONTINUOUS
 62
    30
 10
0.0
 20
531.8936219999995
 30
0.0
 40
6.0
  0
LINE
  5
3F5
  8
SIZE
  6
CONTINUOUS
 62
    30
 10
0.0
 20
531.8936219999995
 30
0.0
 11
12.00000000000002
 21
531.8936219999995
 31
0.0
  0
CIRCLE
  5
3F6
  8
SIZE
  6
CONTINUOUS
 62
    30
 10
91.99999999999991
 20
531.8936219999995
 30
0.0
 40
6.0
  0
LINE
  5
3F7
  8
SIZE
  6
CONTINUOUS
 62
    30
 10
91.99999999999991
 20
531.8936219999995
 30
0.0
 11
80.00000000000003
 21
531.8936219999995
 31
0.0
  0
LINE
  5
3F8
  8
SIZE
  6
CONTINUOUS
 62
    30
 10
91.99999999999991
 20
265.7767439999998
 30
0.0
 11
91.99999999999991
 21
415.5785259999998
 31
0.0
  0
LINE
  5
3F9
  8
SIZE
  6
CONTINUOUS
 62
    30
 10
125.0
 20
163.236629
 30
0.0
 11
125.0
 21
415.5785259999998
 31
0.0
  0
LINE
  5
3FA
  8
SIZE
  6
CONTINUOUS
 62
    30
 10
80.00000000000003
 20
395.5785259999998
 30
0.0
 11
68.00000000000001
 21
395.5785259999998
 31
0.0
  0
LINE
  5
3FB
  8
SIZE
  6
CONTINUOUS
 62
    30
 10
137.0
 20
395.5785259999998
 30
0.0
 11
149.0
 21
395.5785259999998
 31
0.0
  0
TEXT
  5
3FC
  8
SIZE
  6
CONTINUOUS
 62
    30
 10
140.1973541428568
 20
420.0096189999999
 30
0.0
 40
64.0
  1
33
 41
0.9
 72
     1
 11
195.0544969999996
 21
420.0096189999999
 31
0.0
  0
LINE
  5
3FD
  8
SIZE
  6
CONTINUOUS
 62
    30
 10
91.99999999999991
 20
395.5785259999998
 30
0.0
 11
125.0
 21
395.5785259999998
 31
0.0
  0
LINE
  5
3FE
  8
SIZE
  6
CONTINUOUS
 62
    30
 10
91.99999999999991
 20
395.5785259999998
 30
0.0
 11
125.0
 21
395.5785259999998
 31
0.0
  0
CIRCLE
  5
3FF
  8
SIZE
  6
CONTINUOUS
 62
    30
 10
91.99999999999991
 20
395.5785259999998
 30
0.0
 40
6.0
  0
LINE
  5
400
  8
SIZE
  6
CONTINUOUS
 62
    30
 10
91.99999999999991
 20
395.5785259999998
 30
0.0
 11
80.00000000000003
 21
395.5785259999998
 31
0.0
  0
CIRCLE
  5
401
  8
SIZE
  6
CONTINUOUS
 62
    30
 10
125.0
 20
395.5785259999998
 30
0.0
 40
6.0
  0
LINE
  5
402
  8
SIZE
  6
CONTINUOUS
 62
    30
 10
125.0
 20
395.5785259999998
 30
0.0
 11
137.0
 21
395.5785259999998
 31
0.0
  0
LINE
  5
403
  8
SIZE
  6
CONTINUOUS
 62
    30
 10
125.0
 20
395.5785259999998
 30
0.0
 11
246.809509
 21
395.5785259999998
 31
0.0
  0
LINE
  5
404
  8
SIZE
  6
CONTINUOUS
 62
    30
 10
93.99999999999991
 20
531.8936219999995
 30
0.0
 11
208.4985019999999
 21
531.8936219999995
 31
0.0
  0
LINE
  5
405
  8
OUTLINE
  6
CONTINUOUS
 62
     3
 10
0.0
 20
214.500005
 30
0.0
 11
0.0
 21
-214.5000049999999
 31
0.0
  0
LINE
  5
406
  8
OUTLINE
  6
CONTINUOUS
 62
     3
 10
0.0
 20
-214.5000049999999
 30
0.0
 11
0.0
 21
-258.9999999999999
 31
0.0
  0
LINE
  5
407
  8
OUTLINE
  6
CONTINUOUS
 62
     3
 10
0.0
 20
259.0
 30
0.0
 11
0.0
 21
214.500005
 31
0.0
  0
LINE
  5
408
  8
OUTLINE
  6
CONTINUOUS
 62
     3
 10
-149.0
 20
-211.4999999999999
 30
0.0
 11
0.0
 21
-211.4999999999999
 31
0.0
  0
LINE
  5
409
  8
OUTLINE
  6
CONTINUOUS
 62
     3
 10
-149.0
 20
211.4999999999999
 30
0.0
 11
0.0
 21
211.4999999999999
 31
0.0
  0
LINE
  5
40A
  8
SIZE
  6
CONTINUOUS
 62
    30
 10
-39.99999999999995
 20
230.0
 30
0.0
 11
-479.340469
 21
230.0
 31
0.0
  0
LINE
  5
40B
  8
SIZE
  6
CONTINUOUS
 62
    30
 10
-39.99999999999995
 20
-229.9999999999999
 30
0.0
 11
-479.340469
 21
-229.9999999999999
 31
0.0
  0
LINE
  5
40C
  8
SIZE
  6
CONTINUOUS
 62
    30
 10
-459.340469
 20
217.9999999999999
 30
0.0
 11
-459.340469
 21
-217.9999999999999
 31
0.0
  0
TEXT
  5
40D
  8
SIZE
  6
CONTINUOUS
 62
    30
 10
-483.629608
 20
-82.28571428571429
 30
0.0
 40
64.0
  1
460
 50
90.0
 41
0.9
 72
     1
 11
-483.629608
 21
0.0
 31
0.0
  0
CIRCLE
  5
40E
  8
SIZE
  6
CONTINUOUS
 62
    30
 10
-459.340469
 20
230.0
 30
0.0
 40
6.0
  0
LINE
  5
40F
  8
SIZE
  6
CONTINUOUS
 62
    30
 10
-459.340469
 20
230.0
 30
0.0
 11
-459.340469
 21
217.9999999999999
 31
0.0
  0
CIRCLE
  5
410
  8
SIZE
  6
CONTINUOUS
 62
    30
 10
-459.340469
 20
-229.9999999999999
 30
0.0
 40
6.0
  0
LINE
  5
411
  8
SIZE
  6
CONTINUOUS
 62
    30
 10
-459.340469
 20
-229.9999999999999
 30
0.0
 11
-459.340469
 21
-217.9999999999999
 31
0.0
  0
LINE
  5
412
  8
SIZE
  6
CONTINUOUS
 62
    30
 10
-19.99999999999997
 20
259.0
 30
0.0
 11
-625.052293
 21
259.0
 31
0.0
  0
LINE
  5
413
  8
SIZE
  6
CONTINUOUS
 62
    30
 10
-19.99999999999997
 20
-258.9999999999999
 30
0.0
 11
-625.052293
 21
-258.9999999999999
 31
0.0
  0
LINE
  5
414
  8
SIZE
  6
CONTINUOUS
 62
    30
 10
-605.052293
 20
246.9999999999997
 30
0.0
 11
-605.052293
 21
-246.9999999999999
 31
0.0
  0
TEXT
  5
415
  8
SIZE
  6
CONTINUOUS
 62
    30
 10
-630.134296
 20
-106.9714285714286
 30
0.0
 40
64.0
  1
□518
 50
90.0
 41
0.9
 72
     1
 11
-630.134296
 21
0.0
 31
0.0
  0
CIRCLE
  5
416
  8
SIZE
  6
CONTINUOUS
 62
    30
 10
-605.052293
 20
259.0
 30
0.0
 40
6.0
  0
LINE
  5
417
  8
SIZE
  6
CONTINUOUS
 62
    30
 10
-605.052293
 20
259.0
 30
0.0
 11
-605.052293
 21
246.9999999999997
 31
0.0
  0
CIRCLE
  5
418
  8
SIZE
  6
CONTINUOUS
 62
    30
 10
-605.052293
 20
-258.9999999999999
 30
0.0
 40
6.0
  0
LINE
  5
419
  8
SIZE
  6
CONTINUOUS
 62
    30
 10
-605.052293
 20
-258.9999999999999
 30
0.0
 11
-605.052293
 21
-246.9999999999999
 31
0.0
  0
LINE
  5
41A
  8
SIZE
  6
CONTINUOUS
 62
    30
 10
-179.0
 20
211.4999999999999
 30
0.0
 11
-347.5888819999998
 21
211.4999999999999
 31
0.0
  0
LINE
  5
41B
  8
SIZE
  6
CONTINUOUS
 62
    30
 10
-179.0
 20
-211.4999999999999
 30
0.0
 11
-347.5888819999998
 21
-211.4999999999999
 31
0.0
  0
LINE
  5
41C
  8
SIZE
  6
CONTINUOUS
 62
    30
 10
-327.5888819999999
 20
199.4999999999999
 30
0.0
 11
-327.5888819999999
 21
-199.4999999999999
 31
0.0
  0
TEXT
  5
41D
  8
SIZE
  6
CONTINUOUS
 62
    30
 10
-350.8169529999999
 20
-106.9714285714286
 30
0.0
 40
64.0
  1
□423
 50
90.0
 41
0.9
 72
     1
 11
-350.8169529999999
 21
0.0
 31
0.0
  0
CIRCLE
  5
41E
  8
SIZE
  6
CONTINUOUS
 62
    30
 10
-327.5888819999999
 20
211.4999999999999
 30
0.0
 40
6.0
  0
LINE
  5
41F
  8
SIZE
  6
CONTINUOUS
 62
    30
 10
-327.5888819999999
 20
211.4999999999999
 30
0.0
 11
-327.5888819999999
 21
199.4999999999999
 31
0.0
  0
CIRCLE
  5
420
  8
SIZE
  6
CONTINUOUS
 62
    30
 10
-327.5888819999999
 20
-211.4999999999999
 30
0.0
 40
6.0
  0
LINE
  5
421
  8
SIZE
  6
CONTINUOUS
 62
    30
 10
-327.5888819999999
 20
-211.4999999999999
 30
0.0
 11
-327.5888819999999
 21
-199.4999999999999
 31
0.0
  0
LINE
  5
422
  8
DETAIL
  6
CONTINUOUS
 62
     5
 10
91.99999999999991
 20
245.776744
 30
0.0
 11
91.99999999999991
 21
-245.776744
 31
0.0
  0
LINE
  5
423
  8
OUTLINE
  6
CONTINUOUS
 62
     3
 10
91.99999999999991
 20
245.776744
 30
0.0
 11
91.99999999999991
 21
-245.776744
 31
0.0
  0
ARC
  5
424
  8
DETAIL
  6
CONTINUOUS
 62
     5
 10
82.00000000000001
 20
-245.776744
 30
0.0
 40
10.0
 50
272.2456619999999
 51
0.0
  0
ARC
  5
425
  8
OUTLINE
  6
CONTINUOUS
 62
     3
 10
82.00000000000001
 20
-245.776744
 30
0.0
 40
10.0
 50
272.2456619999999
 51
0.0
  0
ARC
  5
426
  8
DETAIL
  6
CONTINUOUS
 62
     5
 10
82.00000000000001
 20
245.776744
 30
0.0
 40
10.0
 50
0.0
 51
87.754338
  0
ARC
  5
427
  8
OUTLINE
  6
CONTINUOUS
 62
     3
 10
82.00000000000001
 20
245.776744
 30
0.0
 40
10.0
 50
0.0
 51
87.754338
  0
LINE
  5
428
  8
DETAIL
  6
CONTINUOUS
 62
     5
 10
0.0
 20
-258.9999999999999
 30
0.0
 11
82.39184200000003
 21
-255.769064
 31
0.0
  0
LINE
  5
429
  8
OUTLINE
  6
CONTINUOUS
 62
     3
 10
0.0
 20
-258.9999999999999
 30
0.0
 11
82.39184200000003
 21
-255.769064
 31
0.0
  0
LINE
  5
42A
  8
DETAIL
  6
CONTINUOUS
 62
     5
 10
0.0
 20
259.0
 30
0.0
 11
82.39184200000003
 21
255.769064
 31
0.0
  0
LINE
  5
42B
  8
OUTLINE
  6
CONTINUOUS
 62
     3
 10
0.0
 20
259.0
 30
0.0
 11
82.39184200000003
 21
255.769064
 31
0.0
  0
CIRCLE
  5
42C
  8
FIX
  6
CONTINUOUS
 62
    11
 39
50.0
 10
0.0
 20
230.0
 30
0.0
 40
7.0
  0
CIRCLE
  5
42D
  8
FIX
  6
CONTINUOUS
 62
    11
 39
50.0
 10
0.0
 20
-229.9999999999999
 30
0.0
 40
7.0
  0
ARC
  5
42E
  8
DETAIL
  6
CONTINUOUS
 62
     5
 10
16.16212200000004
 20
-14.02761900000002
 30
0.0
 40
107.3088749999999
 50
314.969083
 51
10.46488199999996
  0
ARC
  5
42F
  8
DETAIL
  6
CONTINUOUS
 62
     5
 10
54.33832300000003
 20
9.982006999999996
 30
0.0
 40
57.837425
 50
310.629456
 51
353.9416589999999
  0
ARC
  5
430
  8
DETAIL
  6
CONTINUOUS
 62
     5
 10
14.89534800000004
 20
-142.0791049999997
 30
0.0
 40
107.395697
 50
2.490343999999934
 51
36.07952399999999
  0
ARC
  5
431
  8
DETAIL
  6
CONTINUOUS
 62
     5
 10
-49.59830299999997
 20
-213.342472
 30
0.0
 40
187.820198
 50
23.845306
 51
41.070349
  0
ARC
  5
432
  8
DETAIL
  6
CONTINUOUS
 62
     5
 10
56.78257500000005
 20
108.547731
 30
0.0
 40
80.45270399999997
 50
38.003643
 51
55.04446999999998
  0
ARC
  5
433
  8
DETAIL
  6
CONTINUOUS
 62
     5
 10
116.840214
 20
4.231238000000005
 30
0.0
 40
5.0
 50
14.26408499999993
 51
184.0536869999999
  0
LINE
  5
434
  8
DETAIL
  6
CONTINUOUS
 62
     5
 10
125.0
 20
143.236629
 30
0.0
 11
125.0
 21
140.34123
 31
0.0
  0
LINE
  5
435
  8
DETAIL
  6
CONTINUOUS
 62
     5
 10
125.0
 20
146.032664
 30
0.0
 11
125.0
 21
143.236629
 31
0.0
  0
ARC
  5
436
  8
DETAIL
  6
CONTINUOUS
 62
     5
 10
122.032212
 20
133.650259
 30
0.0
 40
2.0
 50
324.4415320000004
 51
351.9373160000001
  0
ARC
  5
437
  8
DETAIL
  6
CONTINUOUS
 62
     5
 10
119.72966
 20
130.429157
 30
0.0
 40
2.0
 50
301.1601479999996
 51
324.4415319999998
  0
LINE
  5
438
  8
DETAIL
  6
CONTINUOUS
 62
     5
 10
124.0124429999998
 20
133.369746
 30
0.0
 11
125.0
 21
140.34123
 31
0.0
  0
LINE
  5
439
  8
DETAIL
  6
CONTINUOUS
 62
     5
 10
121.3567049999999
 20
129.26609
 30
0.0
 11
123.6592569999998
 21
132.487192
 31
0.0
  0
LINE
  5
43A
  8
DETAIL
  6
CONTINUOUS
 62
     5
 10
111.0670899999999
 20
123.38488
 30
0.0
 11
117.348479
 21
126.652124
 31
0.0
  0
ARC
  5
43B
  8
DETAIL
  6
CONTINUOUS
 62
     5
 10
144.0347599999998
 20
-76.39761199999984
 30
0.0
 40
202.484349
 50
99.37037899999997
 51
104.8910389999999
  0
LINE
  5
43C
  8
DETAIL
  6
CONTINUOUS
 62
     5
 10
117.348479
 20
126.652124
 30
0.0
 11
120.7645229999998
 21
128.717708
 31
0.0
  0
ARC
  5
43D
  8
DETAIL
  6
CONTINUOUS
 62
     5
 10
104.0403959999999
 20
144.634646
 30
0.0
 40
21.006176
 50
3.816008999999974
 51
39.808837
  0
ARC
  5
43E
  8
DETAIL
  6
CONTINUOUS
 62
     5
 10
93.48934799999992
 20
113.74817
 30
0.0
 40
61.459573
 50
81.213779
 51
89.844881
  0
LINE
  5
43F
  8
DETAIL
  6
CONTINUOUS
 62
     5
 10
91.99999999999991
 20
175.236629
 30
0.0
 11
93.65573999999982
 21
175.207518
 31
0.0
  0
TEXT
  5
440
  8
ETC
  6
CONTINUOUS
 62
    61
 10
366.8260280783178
 20
616.9938934723757
 30
0.0
 40
64.0
  1
EFG-40SB_5
 41
0.9
  0
TEXT
  5
441
  8
ETC
  6
CONTINUOUS
 62
    61
 10
443.3708753526379
 20
434.5158982436502
 30
0.0
 40
50.0
  1
EFG-40SB
 41
0.9
  0
TEXT
  5
442
  8
ETC
  6
CONTINUOUS
 62
    61
 10
358.7525500783177
 20
518.9751684723757
 30
0.0
 40
64.0
  1
産業扇
 41
0.9
  0
LINE
  5
443
  8
DETAIL
  6
CONTINUOUS
 62
     5
 10
-158.9999999999996
 20
201.4999999999999
 30
0.0
 11
-158.9999999999996
 21
-201.4999999999999
 31
0.0
  0
LINE
  5
444
  8
DETAIL
  6
CONTINUOUS
 62
     5
 39
50.0
 10
-158.9999999999996
 20
73.50000000000001
 30
0.0
 11
-195.3878935520608
 21
48.95605588917903
 31
0.0
  0
LINE
  5
445
  8
DETAIL
  6
CONTINUOUS
 62
     5
 39
50.0
 10
-157.602017741323
 20
71.42740606861241
 30
0.0
 11
-192.8878935520612
 21
47.62678231002536
 31
0.0
  0
LINE
  5
446
  8
DETAIL
  6
CONTINUOUS
 62
     5
 39
50.0
 10
-202.0
 20
-58.47950769914644
 30
0.0
 11
-202.0
 21
-60.50386622422423
 31
0.0
  0
LINE
  5
447
  8
DETAIL
  6
CONTINUOUS
 62
     5
 39
50.0
 10
-158.9999999999996
 20
-21.49999999999983
 30
0.0
 11
-195.3878935520608
 21
-46.04394411082083
 31
0.0
  0
ARC
  5
448
  8
DETAIL
  6
CONTINUOUS
 62
     5
 39
50.0
 10
-186.9999999999999
 20
-58.47950769914644
 30
0.0
 40
15.0
 50
123.999999999999
 51
180.0
  0
LINE
  5
449
  8
DETAIL
  6
CONTINUOUS
 62
     5
 39
50.0
 10
-199.4999999999999
 20
-59.80878127830022
 30
0.0
 11
-199.4999999999999
 21
-60.50386622422423
 31
0.0
  0
LINE
  5
44A
  8
DETAIL
  6
CONTINUOUS
 62
     5
 39
50.0
 10
-157.602017741323
 20
-23.57259393138733
 30
0.0
 11
-192.8878935520612
 21
-47.37321768997464
 31
0.0
  0
ARC
  5
44B
  8
DETAIL
  6
CONTINUOUS
 62
     5
 39
50.0
 10
-184.4999999999999
 20
-59.80878127830022
 30
0.0
 40
15.0
 50
123.999999999999
 51
180.0
  0
LINE
  5
44C
  8
DETAIL
  6
CONTINUOUS
 62
     5
 39
50.0
 10
-201.9999999999997
 20
-153.4795076991464
 30
0.0
 11
-202.0
 21
-155.5038662242242
 31
0.0
  0
LINE
  5
44D
  8
DETAIL
  6
CONTINUOUS
 62
     5
 39
50.0
 10
-158.9999999999996
 20
-116.4999999999997
 30
0.0
 11
-195.3878935520608
 21
-141.0439441108208
 31
0.0
  0
ARC
  5
44E
  8
DETAIL
  6
CONTINUOUS
 62
     5
 39
50.0
 10
-186.9999999999997
 20
-153.4795076991464
 30
0.0
 40
15.0
 50
123.999999999999
 51
180.0
  0
LINE
  5
44F
  8
DETAIL
  6
CONTINUOUS
 62
     5
 39
50.0
 10
-199.4999999999999
 20
-154.8087812783001
 30
0.0
 11
-199.4999999999999
 21
-155.5038662242242
 31
0.0
  0
LINE
  5
450
  8
DETAIL
  6
CONTINUOUS
 62
     5
 39
50.0
 10
-157.602017741323
 20
-118.5725939313875
 30
0.0
 11
-192.8878935520612
 21
-142.3732176899744
 31
0.0
  0
ARC
  5
451
  8
DETAIL
  6
CONTINUOUS
 62
     5
 39
50.0
 10
-184.4999999999999
 20
-154.8087812783001
 30
0.0
 40
15.0
 50
123.999999999999
 51
180.0
  0
LINE
  5
452
  8
DETAIL
  6
CONTINUOUS
 62
     5
 39
50.0
 10
-199.4999999999999
 20
-60.50386622422423
 30
0.0
 11
-202.0
 21
-60.50386622422423
 31
0.0
  0
LINE
  5
453
  8
DETAIL
  6
CONTINUOUS
 62
     5
 39
50.0
 10
-199.4999999999999
 20
-155.5038662242242
 30
0.0
 11
-202.0
 21
-155.5038662242242
 31
0.0
  0
LINE
  5
454
  8
DETAIL
  6
CONTINUOUS
 62
     5
 39
50.0
 10
-202.0
 20
36.52049230085346
 30
0.0
 11
-202.0
 21
34.4961337757756
 31
0.0
  0
ARC
  5
455
  8
DETAIL
  6
CONTINUOUS
 62
     5
 39
50.0
 10
-186.9999999999999
 20
36.52049230085343
 30
0.0
 40
15.0
 50
123.9999999999989
 51
180.0
  0
LINE
  5
456
  8
DETAIL
  6
CONTINUOUS
 62
     5
 39
50.0
 10
-199.4999999999999
 20
35.19121872169973
 30
0.0
 11
-199.4999999999999
 21
34.4961337757756
 31
0.0
  0
ARC
  5
457
  8
DETAIL
  6
CONTINUOUS
 62
     5
 39
50.0
 10
-184.4999999999999
 20
35.19121872169973
 30
0.0
 40
15.0
 50
123.9999999999989
 51
180.0
  0
LINE
  5
458
  8
DETAIL
  6
CONTINUOUS
 62
     5
 39
50.0
 10
-199.4999999999999
 20
34.4961337757756
 30
0.0
 11
-202.0
 21
34.4961337757756
 31
0.0
  0
ARC
  5
459
  8
DETAIL
  6
CONTINUOUS
 62
     5
 10
-149.0
 20
-201.4999999999999
 30
0.0
 40
10.0
 50
180.0
 51
270.0
  0
LINE
  5
45A
  8
DETAIL
  6
CONTINUOUS
 62
     5
 39
50.0
 10
-202.0
 20
131.5204923008534
 30
0.0
 11
-202.0
 21
129.4961337757756
 31
0.0
  0
LINE
  5
45B
  8
DETAIL
  6
CONTINUOUS
 62
     5
 39
50.0
 10
-158.9999999999996
 20
168.5
 30
0.0
 11
-195.3878935520608
 21
143.956055889179
 31
0.0
  0
ARC
  5
45C
  8
DETAIL
  6
CONTINUOUS
 62
     5
 39
50.0
 10
-186.9999999999999
 20
131.5204923008534
 30
0.0
 40
15.0
 50
123.999999999999
 51
180.0
  0
LINE
  5
45D
  8
DETAIL
  6
CONTINUOUS
 62
     5
 39
50.0
 10
-199.4999999999999
 20
130.1912187216997
 30
0.0
 11
-199.4999999999999
 21
129.4961337757756
 31
0.0
  0
LINE
  5
45E
  8
DETAIL
  6
CONTINUOUS
 62
     5
 39
50.0
 10
-157.602017741323
 20
166.4274060686124
 30
0.0
 11
-192.8878935520612
 21
142.6267823100254
 31
0.0
  0
ARC
  5
45F
  8
DETAIL
  6
CONTINUOUS
 62
     5
 39
50.0
 10
-184.4999999999999
 20
130.1912187216997
 30
0.0
 40
15.0
 50
123.999999999999
 51
180.0
  0
LINE
  5
460
  8
DETAIL
  6
CONTINUOUS
 62
     5
 39
50.0
 10
-199.4999999999999
 20
129.4961337757756
 30
0.0
 11
-202.0
 21
129.4961337757756
 31
0.0
  0
ARC
  5
461
  8
DETAIL
  6
CONTINUOUS
 62
     5
 10
-149.0
 20
201.4999999999999
 30
0.0
 40
10.0
 50
90.0
 51
180.0
  0
ARC
  5
462
  8
DETAIL
  6
CONTINUOUS
 62
     5
 10
-149.0
 20
201.4999999999999
 30
0.0
 40
10.0
 50
90.0
 51
180.0
  0
ARC
  5
463
  8
DETAIL
  6
CONTINUOUS
 62
     5
 10
-149.0
 20
201.4999999999999
 30
0.0
 40
10.0
 50
90.0
 51
180.0
  0
ARC
  5
464
  8
DETAIL
  6
CONTINUOUS
 62
     5
 10
-149.0
 20
201.4999999999999
 30
0.0
 40
10.0
 50
90.0
 51
180.0
  0
ARC
  5
465
  8
DETAIL
  6
CONTINUOUS
 62
     5
 10
-149.0
 20
201.4999999999999
 30
0.0
 40
10.0
 50
90.0
 51
180.0
  0
ARC
  5
466
  8
OUTLINE
  6
CONTINUOUS
 62
     3
 10
-149.0
 20
201.4999999999999
 30
0.0
 40
10.0
 50
90.0
 51
180.0
  0
ARC
  5
467
  8
OUTLINE
  6
CONTINUOUS
 62
     3
 10
-149.0
 20
-201.4999999999999
 30
0.0
 40
10.0
 50
180.0
 51
270.0
  0
LINE
  5
468
  8
SIZE
  6
CONTINUOUS
 62
    30
 10
-202.0
 20
141.3226805468889
 30
0.0
 11
-202.0
 21
551.8936219999996
 31
0.0
  0
LINE
  5
469
  8
SIZE
  6
CONTINUOUS
 62
    30
 39
50.0
 10
-158.9999999999996
 20
531.8936219999995
 30
0.0
 11
-326.9325202597045
 21
531.8936219999995
 31
0.0
  0
CIRCLE
  5
46A
  8
SIZE
  6
CONTINUOUS
 62
    30
 39
50.0
 10
-202.0
 20
531.8936219999995
 30
0.0
 40
6.0
  0
TEXT
  5
46B
  8
SIZE
  6
CONTINUOUS
 62
    30
 10
-317.0152131025072
 20
558.012129
 30
0.0
 40
64.0
  1
43
 41
0.9
 72
     1
 11
-262.1580702453643
 21
558.012129
 31
0.0
  0
LINE
  5
46C
  8
OUTLINE
  6
CONTINUOUS
 62
     3
 39
50.0
 10
-158.9999999999998
 20
201.4999999999999
 30
0.0
 11
-158.9999999999998
 21
-201.4999999999999
 31
0.0
  0
ENDSEC
  0
EOF
