  0
SECTION
  2
HEADER
  9
$ACADVER
  1
AC1009
  9
$DWGCODEPAGE
  3
dos932
  9
$INSBASE
 10
0.0
 20
0.0
 30
0.0
  9
$EXTMIN
 10
-620.86485159916992
 20
-247.05504177493819
 30
-0.0015257624927045
  9
$EXTMAX
 10
977.97547537830542
 20
711.68518882673743
 30
0.0022888765696933
  9
$LIMMIN
 10
-2970.0
 20
-2100.0
  9
$LIMMAX
 10
2970.0
 20
2100.0
  9
$ORTHOMODE
 70
     1
  9
$REGENMODE
 70
     1
  9
$FILLMODE
 70
     1
  9
$QTEXTMODE
 70
     0
  9
$MIRRTEXT
 70
     0
  9
$LTSCALE
 40
20.0
  9
$ATTMODE
 70
     1
  9
$TEXTSIZE
 40
64.0
  9
$TRACEWID
 40
0.05
  9
$TEXTSTYLE
  7
STANDARD
  9
$CLAYER
  8
SIZE
  9
$CELTYPE
  6
CONTINUOUS
  9
$CECOLOR
 62
     7
  9
$DIMSCALE
 40
1.0
  9
$DIMASZ
 40
12.0
  9
$DIMEXO
 40
20.0
  9
$DIMDLI
 40
200.0
  9
$DIMRND
 40
0.0
  9
$DIMDLE
 40
0.0
  9
$DIMEXE
 40
20.0
  9
$DIMTP
 40
0.0
  9
$DIMTM
 40
0.0
  9
$DIMTXT
 40
64.0
  9
$DIMCEN
 40
0.09
  9
$DIMTSZ
 40
0.0
  9
$DIMTOL
 70
     0
  9
$DIMLIM
 70
     0
  9
$DIMTIH
 70
     0
  9
$DIMTOH
 70
     0
  9
$DIMSE1
 70
     0
  9
$DIMSE2
 70
     0
  9
$DIMTAD
 70
     1
  9
$DIMZIN
 70
     8
  9
$DIMBLK
  1

  9
$DIMASO
 70
     1
  9
$DIMSHO
 70
     0
  9
$DIMPOST
  1

  9
$DIMAPOST
  1

  9
$DIMALT
 70
     0
  9
$DIMALTD
 70
     2
  9
$DIMALTF
 40
25.399999999999999
  9
$DIMLFAC
 40
1.0
  9
$DIMTOFL
 70
     1
  9
$DIMTVP
 40
0.0
  9
$DIMTIX
 70
     1
  9
$DIMSOXD
 70
     0
  9
$DIMSAH
 70
     0
  9
$DIMBLK1
  1

  9
$DIMBLK2
  1

  9
$DIMSTYLE
  2
STANDARD
  9
$DIMCLRD
 70
     7
  9
$DIMCLRE
 70
     7
  9
$DIMCLRT
 70
     7
  9
$DIMTFAC
 40
1.0
  9
$DIMGAP
 40
25.0
  9
$LUNITS
 70
     2
  9
$LUPREC
 70
     4
  9
$SKETCHINC
 40
0.1
  9
$FILLETRAD
 40
3.0
  9
$AUNITS
 70
     1
  9
$AUPREC
 70
     3
  9
$MENU
  1
ACAD
  9
$ELEVATION
 40
0.0
  9
$PELEVATION
 40
0.0
  9
$THICKNESS
 40
50.0
  9
$LIMCHECK
 70
     0
  9
$CHAMFERA
 40
0.0
  9
$CHAMFERB
 40
0.0
  9
$SKPOLY
 70
     0
  9
$TDCREATE
 40
2453019.62301037
  9
$TDUPDATE
 40
2458949.434879931
  9
$TDINDWG
 40
1.7134766319
  9
$TDUSRTIMER
 40
1.7134766319
  9
$USRTIMER
 70
     1
  9
$ANGBASE
 50
0.0
  9
$ANGDIR
 70
     0
  9
$PDMODE
 70
     3
  9
$PDSIZE
 40
-2.0
  9
$PLINEWID
 40
0.0
  9
$SPLFRAME
 70
     0
  9
$SPLINETYPE
 70
     6
  9
$SPLINESEGS
 70
     8
  9
$SURFTAB1
 70
     6
  9
$SURFTAB2
 70
     6
  9
$SURFTYPE
 70
     6
  9
$SURFU
 70
     6
  9
$SURFV
 70
     6
  9
$UCSNAME
  2

  9
$UCSORG
 10
0.0
 20
0.0
 30
0.0
  9
$UCSXDIR
 10
1.0
 20
0.0
 30
0.0
  9
$UCSYDIR
 10
0.0
 20
1.0
 30
0.0
  9
$PUCSNAME
  2

  9
$PUCSORG
 10
0.0
 20
0.0
 30
0.0
  9
$PUCSXDIR
 10
1.0
 20
0.0
 30
0.0
  9
$PUCSYDIR
 10
0.0
 20
1.0
 30
0.0
  9
$USERI1
 70
     0
  9
$USERI2
 70
     0
  9
$USERI3
 70
     0
  9
$USERI4
 70
     0
  9
$USERI5
 70
     0
  9
$USERR1
 40
20.0
  9
$USERR2
 40
0.0
  9
$USERR3
 40
0.0
  9
$USERR4
 40
0.0
  9
$USERR5
 40
0.0
  9
$WORLDVIEW
 70
     1
  9
$SHADEDGE
 70
     3
  9
$SHADEDIF
 70
    70
  9
$TILEMODE
 70
     1
  9
$MAXACTVP
 70
    48
  9
$PINSBASE
 10
0.0
 20
0.0
 30
0.0
  9
$PLIMCHECK
 70
     0
  9
$PEXTMIN
 10
-100000000000000000000.0
 20
-100000000000000000000.0
 30
-100000000000000000000.0
  9
$PEXTMAX
 10
100000000000000000000.0
 20
100000000000000000000.0
 30
100000000000000000000.0
  9
$PLIMMIN
 10
0.0
 20
0.0
  9
$PLIMMAX
 10
12.0
 20
9.0
  9
$UNITMODE
 70
     0
  9
$VISRETAIN
 70
     0
  9
$PLINEGEN
 70
     0
  9
$PSLTSCALE
 70
     0
  9
$TREEDEPTH
 70
  3020
  9
$ATTDIA
 70
     0
  9
$ATTREQ
 70
     1
  9
$BLIPMODE
 70
     1
  9
$COORDS
 70
     1
  9
$DRAGMODE
 70
     2
  9
$OSMODE
 70
     0
  9
$HANDLING
 70
     0
  9
$HANDSEED
  5
F085
  0
ENDSEC
  0
SECTION
  2
TABLES
  0
TABLE
  2
LTYPE
 70
     2
  0
LTYPE
  2
CONTINUOUS
 70
     0
  3
実線
 72
    65
 73
     0
 40
0.0
  0
LTYPE
  2
DASHDOT
 70
     0
  3
____ _ ____ _ ____ _ ____ _ ____ _ ____ _ ____
 72
    65
 73
     4
 40
5.5
 49
4.0
 49
-0.6
 49
0.3
 49
-0.6
  0
ENDTAB
  0
TABLE
  2
LAYER
 70
    12
  0
LAYER
  2
0
 70
     0
 62
     7
  6
CONTINUOUS
  0
LAYER
  2
BASIS
 70
     0
 62
     6
  6
DASHDOT
  0
LAYER
  2
OUTLINE
 70
     0
 62
     3
  6
CONTINUOUS
  0
LAYER
  2
DETAIL
 70
     0
 62
     5
  6
CONTINUOUS
  0
LAYER
  2
SIZE
 70
     0
 62
    30
  6
CONTINUOUS
  0
LAYER
  2
ARRANGE
 70
     0
 62
     1
  6
CONTINUOUS
  0
LAYER
  2
ETC
 70
     0
 62
    61
  6
CONTINUOUS
  0
LAYER
  2
FIX
 70
     0
 62
    11
  6
CONTINUOUS
  0
LAYER
  2
NOTE
 70
     0
 62
     4
  6
CONTINUOUS
  0
LAYER
  2
DEFPOINTS
 70
    64
 62
     7
  6
CONTINUOUS
  0
LAYER
  2
SERVICESPACE
 70
    64
 62
     2
  6
DASHDOT
  0
LAYER
  2
SYMBOLLINE
 70
    64
 62
    15
  6
CONTINUOUS
  0
ENDTAB
  0
TABLE
  2
STYLE
 70
     1
  0
STYLE
  2
STANDARD
 70
     0
 40
64.0
 41
0.9
 50
0.0
 71
     0
 42
64.0
  3
SIMPLEX.shx
  4
BIGFONT.shx
  0
ENDTAB
  0
TABLE
  2
APPID
 70
    19
  0
APPID
  2
ACAD
 70
     0
  0
APPID
  2
AUTOCAD_POSTSCRIPT_FIGURE
 70
     0
  0
APPID
  2
ACAD_EXEMPT_FROM_CAD_STANDARDS
 70
     0
  0
APPID
  2
ACAD_PSEXT
 70
     0
  0
APPID
  2
ACAUTHENVIRON
 70
     0
  0
APPID
  2
GENIUS_GENOENT_13
 70
     0
  0
APPID
  2
GENIUS_GENCFG_13
 70
     0
  0
APPID
  2
GENIUS_GENCFG0_13
 70
     0
  0
APPID
  2
GENIUS_GENCFG1_13
 70
     0
  0
APPID
  2
GENIUS_GENCFG2_13
 70
     0
  0
APPID
  2
GENIUS_GENCFG3_13
 70
     0
  0
APPID
  2
GENIUS_GENCFG4_13
 70
     0
  0
APPID
  2
GENIUS_GEVCFG0_13
 70
     0
  0
APPID
  2
CONTENTBLOCKICON
 70
     0
  0
APPID
  2
CONTENTBLOCKDESCRIPTION
 70
     0
  0
APPID
  2
ACAD_NAV_VCDISPLAY
 70
     0
  0
APPID
  2
ACAD_MLEADERVER
 70
     0
  0
APPID
  2
ACDBDYNAMICBLOCKTRUENAME
 70
     0
  0
APPID
  2
ACDBDYNAMICBLOCKGUID
 70
     0
  0
ENDTAB
  0
TABLE
  2
DIMSTYLE
 70
     1
  0
DIMSTYLE
  2
STANDARD
 70
     0
  3

  4

  5
_ORIGIN
  6

  7

 40
1.0
 41
12.0
 42
20.0
 43
200.0
 44
20.0
 45
0.0
 46
0.0
 47
0.0
 48
0.0
140
64.0
141
0.09
142
0.0
143
25.399999999999999
144
1.0
145
0.0
146
1.0
147
25.0
 71
     0
 72
     0
 73
     0
 74
     0
 75
     0
 76
     0
 77
     1
 78
     8
170
     0
171
     2
172
     1
173
     0
174
     1
175
     0
176
     7
177
     7
178
     7
  0
ENDTAB
  0
TABLE
  2
VIEW
 70
     1
  0
VIEW
  2
ALL
 70
     0
 40
4282.6198079999986
 10
0.0
 20
41.309904000000003
 41
5940.0
 11
0.0
 21
0.0
 31
1.0
 12
0.0
 22
0.0
 32
0.0
 42
50.0
 43
0.0
 44
0.0
 50
0.0
 71
     0
  0
ENDTAB
  0
TABLE
  2
UCS
 70
     0
  0
ENDTAB
  0
TABLE
  2
VPORT
 70
     1
  0
VPORT
  2
*ACTIVE
 70
     0
 10
0.0
 20
0.0
 11
1.0
 21
1.0
 12
178.5553118895678
 22
232.31507352589961
 13
0.0
 23
0.0
 14
1.0
 24
1.0
 15
0.0
 25
0.0
 16
0.0
 26
0.0
 36
1.0
 17
0.0
 27
0.0
 37
0.0
 40
965.09651942334426
 41
1.747787610619469
 42
50.0
 43
0.0
 44
0.0
 50
0.0
 51
0.0
 71
     0
 72
  1000
 73
     1
 74
     3
 75
     0
 76
     0
 77
     0
 78
     0
  0
ENDTAB
  0
ENDSEC
  0
SECTION
  2
BLOCKS
  0
BLOCK
  8
0
  2
_ORIGIN
 70
     0
 10
0.0
 20
0.0
 30
0.0
  3
_ORIGIN
  1
_ORIGIN
  0
CIRCLE
  8
0
  6
CONTINUOUS
 62
     7
 10
0.0
 20
0.0
 30
0.0
 40
0.5
  0
LINE
  8
0
  6
CONTINUOUS
 62
     7
 10
0.0
 20
0.0
 30
0.0
 11
-1.0
 21
0.0
 31
0.0
  0
ENDBLK
  8
0
  0
ENDSEC
  0
SECTION
  2
ENTITIES
  0
LINE
  8
NOTE
  6
CONTINUOUS
 62
     4
 10
211.5
 20
0.0
 30
0.0
 11
381.85023799999999
 21
260.60537099999988
 31
0.0
  0
LINE
  8
NOTE
  6
CONTINUOUS
 62
     4
 10
381.85023799999999
 20
260.60537099999988
 30
0.0
 11
490.87686200000007
 21
260.60537099999988
 31
0.0
  0
LINE
  8
BASIS
  6
DASHDOT
 62
     6
 10
0.0
 20
212.24673100000001
 30
0.0
 11
0.0
 21
-158.87757500000001
 31
0.0
  0
POINT
  8
ARRANGE
  6
CONTINUOUS
 62
     1
 10
0.0
 20
0.0
 30
0.0
  0
LINE
  8
DETAIL
  6
CONTINUOUS
 62
     5
 10
-211.5
 20
149.0
 30
0.0
 11
-211.5
 21
0.0
 31
0.0
  0
LINE
  8
DETAIL
  6
CONTINUOUS
 62
     5
 10
211.5
 20
149.0
 30
0.0
 11
211.5
 21
0.0
 31
0.0
  0
LINE
  8
NOTE
  6
CONTINUOUS
 62
     4
 10
230.0
 20
0.0
 30
0.0
 11
353.87313799999993
 21
-102.6040129999999
 31
0.0
  0
LINE
  8
NOTE
  6
CONTINUOUS
 62
     4
 10
353.87313799999993
 20
-102.6040129999999
 30
0.0
 11
646.84105799999975
 21
-102.6040129999999
 31
0.0
  0
LINE
  8
NOTE
  6
CONTINUOUS
 62
     4
 10
-249.91379900000001
 20
0.0
 30
0.0
 11
-195.431039
 21
0.0
 31
0.0
  0
LINE
  8
DETAIL
  6
CONTINUOUS
 62
     5
 10
-259.0
 20
0.0
 30
0.0
 11
-214.5000049999999
 21
0.0
 31
0.0
  0
CIRCLE
  8
ARRANGE
  6
CONTINUOUS
 62
     1
 10
0.0
 20
0.0
 30
0.0
 40
54.482759999999992
  0
LINE
  8
DETAIL
  6
CONTINUOUS
 62
     5
 10
214.5000049999999
 20
0.0
 30
0.0
 11
259.0
 21
0.0
 31
0.0
  0
LINE
  8
DETAIL
  6
CONTINUOUS
 62
     5
 10
-214.5000049999999
 20
0.0
 30
0.0
 11
214.5000049999999
 21
0.0
 31
0.0
  0
LINE
  8
NOTE
  6
CONTINUOUS
 62
     4
 10
-230.0
 20
-20.0
 30
0.0
 11
-230.0
 21
20.0
 31
0.0
  0
LINE
  8
NOTE
  6
CONTINUOUS
 62
     4
 10
-250.0
 20
0.0
 30
0.0
 11
-210.0
 21
0.0
 31
0.0
  0
LINE
  8
NOTE
  6
CONTINUOUS
 62
     4
 10
211.5
 20
-20.0
 30
0.0
 11
211.5
 21
20.0
 31
0.0
  0
LINE
  8
NOTE
  6
CONTINUOUS
 62
     4
 10
191.5
 20
0.0
 30
0.0
 11
231.49999999999989
 21
0.0
 31
0.0
  0
LINE
  8
NOTE
  6
CONTINUOUS
 62
     4
 10
230.0
 20
-20.0
 30
0.0
 11
230.0
 21
20.0
 31
0.0
  0
LINE
  8
NOTE
  6
CONTINUOUS
 62
     4
 10
210.0
 20
0.0
 30
0.0
 11
250.0
 21
0.0
 31
0.0
  0
LINE
  8
NOTE
  6
CONTINUOUS
 62
     4
 10
241.30577000000011
 20
26.676132999999989
 30
0.0
 11
211.5
 21
0.0
 31
0.0
  0
LINE
  8
NOTE
  6
CONTINUOUS
 62
     4
 10
211.5
 20
0.0
 30
0.0
 11
223.97448799999981
 21
38.005093999999993
 31
0.0
  0
TEXT
  8
NOTE
  6
CONTINUOUS
 62
     4
 10
392.88068357142862
 20
275.37209599999971
 30
0.0
 40
64.0
  1
EL
 41
0.9
  0
TEXT
  8
NOTE
  6
CONTINUOUS
 62
     4
 10
356.40581700000013
 20
-76.338027000000011
 30
0.0
 40
64.0
  1
4-φ14
 41
0.9
  0
LINE
  8
NOTE
  6
CONTINUOUS
 62
     4
 10
266.34707200000003
 20
-16.700012000000019
 30
0.0
 11
230.0
 21
0.0
 31
0.0
  0
LINE
  8
NOTE
  6
CONTINUOUS
 62
     4
 10
230.0
 20
0.0
 30
0.0
 11
253.12748099999999
 21
-32.636169999999993
 31
0.0
  0
LINE
  8
SIZE
  6
CONTINUOUS
 62
    30
 10
-211.5
 20
175.0
 30
0.0
 11
-211.5
 21
324.30099788054167
 31
0.0
  0
LINE
  8
SIZE
  6
CONTINUOUS
 62
    30
 10
211.5
 20
175.0
 30
0.0
 11
211.5
 21
322.98639589576112
 31
0.0
  0
LINE
  8
SIZE
  6
CONTINUOUS
 62
    30
 10
-199.5
 20
301.95277138417521
 30
0.0
 11
199.5
 21
301.95277138417521
 31
0.0
  0
CIRCLE
  8
SIZE
  6
CONTINUOUS
 62
    30
 10
-211.5
 20
301.95277138417521
 30
0.0
 40
6.0
  0
LINE
  8
SIZE
  6
CONTINUOUS
 62
    30
 10
-211.5
 20
301.95277138417521
 30
0.0
 11
-199.5
 21
301.95277138417521
 31
0.0
  0
CIRCLE
  8
SIZE
  6
CONTINUOUS
 62
    30
 10
211.5
 20
301.95277138417521
 30
0.0
 40
6.0
  0
LINE
  8
SIZE
  6
CONTINUOUS
 62
    30
 10
211.5
 20
301.95277138417521
 30
0.0
 11
199.5
 21
301.95277138417521
 31
0.0
  0
TEXT
  8
SIZE
  6
CONTINUOUS
 62
    30
 10
-110.5371428571429
 20
326.95277138417521
 30
0.0
 40
64.0
  1
□423
 41
0.9
 72
     1
 11
0.0
 21
326.95277138417521
 31
0.0
  0
LINE
  8
SIZE
  6
CONTINUOUS
 62
    30
 10
-230.0
 20
40.0
 30
0.0
 11
-230.0
 21
462.33415556817732
 31
0.0
  0
LINE
  8
SIZE
  6
CONTINUOUS
 62
    30
 10
230.0
 20
40.0
 30
0.0
 11
230.0
 21
462.33415556817732
 31
0.0
  0
LINE
  8
SIZE
  6
CONTINUOUS
 62
    30
 10
-218.0
 20
441.35736338417541
 30
0.0
 11
218.0
 21
441.35736338417541
 31
0.0
  0
CIRCLE
  8
SIZE
  6
CONTINUOUS
 62
    30
 10
-230.0
 20
441.35736338417541
 30
0.0
 40
6.0
  0
LINE
  8
SIZE
  6
CONTINUOUS
 62
    30
 10
-230.0
 20
441.35736338417541
 30
0.0
 11
-218.0
 21
441.35736338417541
 31
0.0
  0
CIRCLE
  8
SIZE
  6
CONTINUOUS
 62
    30
 10
230.0
 20
441.35736338417541
 30
0.0
 40
6.0
  0
LINE
  8
SIZE
  6
CONTINUOUS
 62
    30
 10
230.0
 20
441.35736338417541
 30
0.0
 11
218.0
 21
441.35736338417541
 31
0.0
  0
TEXT
  8
SIZE
  6
CONTINUOUS
 62
    30
 10
-74.05714285714285
 20
466.35736338417519
 30
0.0
 40
64.0
  1
460
 41
0.9
 72
     1
 11
0.0
 21
466.35736338417519
 31
0.0
  0
LINE
  8
SIZE
  6
CONTINUOUS
 62
    30
 10
259.0
 20
20.0
 30
0.0
 11
259.0
 21
601.68191765556094
 31
0.0
  0
LINE
  8
SIZE
  6
CONTINUOUS
 62
    30
 10
-259.0
 20
20.0
 30
0.0
 11
-259.0
 21
604.31111921015406
 31
0.0
  0
LINE
  8
SIZE
  6
CONTINUOUS
 62
    30
 10
247.0
 20
581.6986363841753
 30
0.0
 11
-247.0
 21
581.6986363841753
 31
0.0
  0
CIRCLE
  8
SIZE
  6
CONTINUOUS
 62
    30
 10
259.0
 20
581.6986363841753
 30
0.0
 40
6.0
  0
LINE
  8
SIZE
  6
CONTINUOUS
 62
    30
 10
259.0
 20
581.6986363841753
 30
0.0
 11
247.0
 21
581.6986363841753
 31
0.0
  0
CIRCLE
  8
SIZE
  6
CONTINUOUS
 62
    30
 10
-259.0
 20
581.6986363841753
 30
0.0
 40
6.0
  0
LINE
  8
SIZE
  6
CONTINUOUS
 62
    30
 10
-259.0
 20
581.6986363841753
 30
0.0
 11
-247.0
 21
581.6986363841753
 31
0.0
  0
TEXT
  8
SIZE
  6
CONTINUOUS
 62
    30
 10
-105.0514285714286
 20
606.6986363841753
 30
0.0
 40
64.0
  1
□518
 41
0.9
 72
     1
 11
0.0
 21
606.6986363841753
 31
0.0
  0
LINE
  8
DETAIL
  6
CONTINUOUS
 62
     5
 10
-201.5
 20
159.0
 30
0.0
 11
201.5
 21
159.0
 31
0.0
  0
LINE
  8
DETAIL
  6
CONTINUOUS
 62
     5
 10
-245.77674400000001
 20
-92.0
 30
0.0
 11
245.77674400000001
 21
-92.0
 31
0.0
  0
LINE
  8
SIZE
  6
CONTINUOUS
 62
    30
 10
-231.49999999999989
 20
159.0
 30
0.0
 11
-551.89362200000005
 21
159.0
 31
0.0
  0
LINE
  8
SIZE
  6
CONTINUOUS
 62
    30
 10
-279.0
 20
0.0
 30
0.0
 11
-551.89362200000005
 21
0.0
 31
0.0
  0
LINE
  8
SIZE
  6
CONTINUOUS
 62
    30
 10
-531.89362200000005
 20
147.0
 30
0.0
 11
-531.89362200000005
 21
12.0
 31
0.0
  0
TEXT
  8
SIZE
  6
CONTINUOUS
 62
    30
 10
-556.85140200000001
 20
12.30000000000001
 30
0.0
 40
64.0
  1
159
 50
90.0
 41
0.9
 72
     1
 11
-556.85140200000001
 21
79.5
 31
0.0
  0
CIRCLE
  8
SIZE
  6
CONTINUOUS
 62
    30
 10
-531.89362200000005
 20
159.0
 30
0.0
 40
6.0
  0
LINE
  8
SIZE
  6
CONTINUOUS
 62
    30
 10
-531.89362200000005
 20
159.0
 30
0.0
 11
-531.89362200000005
 21
147.0
 31
0.0
  0
CIRCLE
  8
SIZE
  6
CONTINUOUS
 62
    30
 10
-531.89362200000005
 20
0.0
 30
0.0
 40
6.0
  0
LINE
  8
SIZE
  6
CONTINUOUS
 62
    30
 10
-531.89362200000005
 20
0.0
 30
0.0
 11
-531.89362200000005
 21
12.0
 31
0.0
  0
LINE
  8
SIZE
  6
CONTINUOUS
 62
    30
 10
-279.0
 20
0.0
 30
0.0
 11
-551.89362200000005
 21
0.0
 31
0.0
  0
LINE
  8
SIZE
  6
CONTINUOUS
 62
    30
 10
-265.77674400000001
 20
-92.0
 30
0.0
 11
-551.89362200000005
 21
-92.0
 31
0.0
  0
LINE
  8
SIZE
  6
CONTINUOUS
 62
    30
 10
-531.89362200000005
 20
-12.0
 30
0.0
 11
-531.89362200000005
 21
-80.0
 31
0.0
  0
TEXT
  8
SIZE
  6
CONTINUOUS
 62
    30
 10
-556.85140200000001
 20
-204.72373942857141
 30
0.0
 40
64.0
  1
92
 50
90.0
 41
0.9
 72
     1
 11
-556.85140200000001
 21
-158.095168
 31
0.0
  0
CIRCLE
  8
SIZE
  6
CONTINUOUS
 62
    30
 10
-531.89362200000005
 20
0.0
 30
0.0
 40
6.0
  0
LINE
  8
SIZE
  6
CONTINUOUS
 62
    30
 10
-531.89362200000005
 20
0.0
 30
0.0
 11
-531.89362200000005
 21
-12.0
 31
0.0
  0
CIRCLE
  8
SIZE
  6
CONTINUOUS
 62
    30
 10
-531.89362200000005
 20
-92.0
 30
0.0
 40
6.0
  0
LINE
  8
SIZE
  6
CONTINUOUS
 62
    30
 10
-531.89362200000005
 20
-92.0
 30
0.0
 11
-531.89362200000005
 21
-80.0
 31
0.0
  0
LINE
  8
SIZE
  6
CONTINUOUS
 62
    30
 10
-265.77674400000001
 20
-92.0
 30
0.0
 11
-415.57852600000001
 21
-92.0
 31
0.0
  0
LINE
  8
SIZE
  6
CONTINUOUS
 62
    30
 10
-160.34123
 20
-125.0
 30
0.0
 11
-415.57852600000001
 21
-125.0
 31
0.0
  0
LINE
  8
SIZE
  6
CONTINUOUS
 62
    30
 10
-395.57852599999978
 20
-80.0
 30
0.0
 11
-395.57852599999978
 21
-68.0
 31
0.0
  0
LINE
  8
SIZE
  6
CONTINUOUS
 62
    30
 10
-395.57852599999978
 20
-137.0
 30
0.0
 11
-395.57852599999978
 21
-149.0
 31
0.0
  0
TEXT
  8
SIZE
  6
CONTINUOUS
 62
    30
 10
-419.43512099999992
 20
-241.68306842857129
 30
0.0
 40
64.0
  1
33
 50
90.0
 41
0.9
 72
     1
 11
-419.43512099999992
 21
-195.05449699999991
 31
0.0
  0
LINE
  8
SIZE
  6
CONTINUOUS
 62
    30
 10
-395.57852599999978
 20
-92.0
 30
0.0
 11
-395.57852599999978
 21
-125.0
 31
0.0
  0
LINE
  8
SIZE
  6
CONTINUOUS
 62
    30
 10
-395.57852599999978
 20
-92.0
 30
0.0
 11
-395.57852599999978
 21
-125.0
 31
0.0
  0
CIRCLE
  8
SIZE
  6
CONTINUOUS
 62
    30
 10
-395.57852599999978
 20
-92.0
 30
0.0
 40
6.0
  0
LINE
  8
SIZE
  6
CONTINUOUS
 62
    30
 10
-395.57852599999978
 20
-92.0
 30
0.0
 11
-395.57852599999978
 21
-80.0
 31
0.0
  0
CIRCLE
  8
SIZE
  6
CONTINUOUS
 62
    30
 10
-395.57852599999978
 20
-125.0
 30
0.0
 40
6.0
  0
LINE
  8
SIZE
  6
CONTINUOUS
 62
    30
 10
-395.57852599999978
 20
-125.0
 30
0.0
 11
-395.57852599999978
 21
-137.0
 31
0.0
  0
LINE
  8
SIZE
  6
CONTINUOUS
 62
    30
 10
-395.57852599999978
 20
-125.0
 30
0.0
 11
-395.57852599999978
 21
-246.80950899999991
 31
0.0
  0
LINE
  8
SIZE
  6
CONTINUOUS
 62
    30
 10
-531.89362200000005
 20
-94.0
 30
0.0
 11
-531.89362200000005
 21
-208.49850199999989
 31
0.0
  0
LINE
  8
OUTLINE
  6
CONTINUOUS
 62
     3
 10
-201.5
 20
159.0
 30
0.0
 11
201.5
 21
159.0
 31
0.0
  0
LINE
  8
OUTLINE
  6
CONTINUOUS
 62
     3
 10
-214.5000049999999
 20
0.0
 30
0.0
 11
214.5000049999999
 21
0.0
 31
0.0
  0
LINE
  8
OUTLINE
  6
CONTINUOUS
 62
     3
 10
214.5000049999999
 20
0.0
 30
0.0
 11
259.0
 21
0.0
 31
0.0
  0
LINE
  8
OUTLINE
  6
CONTINUOUS
 62
     3
 10
-259.0
 20
0.0
 30
0.0
 11
-214.5000049999999
 21
0.0
 31
0.0
  0
LINE
  8
OUTLINE
  6
CONTINUOUS
 62
     3
 10
211.5
 20
149.0
 30
0.0
 11
211.5
 21
0.0
 31
0.0
  0
LINE
  8
OUTLINE
  6
CONTINUOUS
 62
     3
 10
-211.5
 20
149.0
 30
0.0
 11
-211.5
 21
0.0
 31
0.0
  0
LINE
  8
DETAIL
  6
CONTINUOUS
 62
     5
 10
-259.0
 20
0.0
 30
0.0
 11
-255.76906399999999
 21
-82.391841999999997
 31
0.0
  0
ARC
  8
DETAIL
  6
CONTINUOUS
 62
     5
 10
-245.77674400000001
 20
-82.0
 30
0.0
 40
10.0
 50
182.2456619999989
 51
270.0
  0
LINE
  8
DETAIL
  6
CONTINUOUS
 62
     5
 10
259.0
 20
0.0
 30
0.0
 11
255.76906399999999
 21
-82.391841999999997
 31
0.0
  0
ARC
  8
DETAIL
  6
CONTINUOUS
 62
     5
 10
245.77674400000001
 20
-82.0
 30
0.0
 40
10.0
 50
270.0
 51
357.75433800000098
  0
CIRCLE
  8
FIX
  6
CONTINUOUS
 62
    11
 10
-230.0
 20
0.0
 30
0.0
 40
7.0
  0
CIRCLE
  8
FIX
  6
CONTINUOUS
 62
    11
 10
230.0
 20
0.0
 30
0.0
 40
7.0
  0
LINE
  8
OUTLINE
  6
CONTINUOUS
 62
     3
 10
-259.0
 20
0.0
 30
0.0
 11
-255.76906399999999
 21
-82.391841999999997
 31
0.0
  0
ARC
  8
OUTLINE
  6
CONTINUOUS
 62
     3
 10
-245.77674400000001
 20
-82.0
 30
0.0
 40
10.0
 50
182.2456619999989
 51
270.0
  0
LINE
  8
OUTLINE
  6
CONTINUOUS
 62
     3
 10
259.0
 20
0.0
 30
0.0
 11
255.76906399999999
 21
-82.391841999999997
 31
0.0
  0
LINE
  8
OUTLINE
  6
CONTINUOUS
 62
     3
 10
-245.77674400000001
 20
-92.0
 30
0.0
 11
245.77674400000001
 21
-92.0
 31
0.0
  0
ARC
  8
OUTLINE
  6
CONTINUOUS
 62
     3
 10
245.77674400000001
 20
-82.0
 30
0.0
 40
10.0
 50
270.0
 51
357.75433800000098
  0
ARC
  8
DETAIL
  6
CONTINUOUS
 62
     5
 10
-4.2312379999999621
 20
-116.8402139999999
 30
0.0
 40
5.0
 50
85.946312999998227
 51
255.7359150000012
  0
LINE
  8
DETAIL
  6
CONTINUOUS
 62
     5
 10
-123.38488
 20
-111.06708999999969
 30
0.0
 11
-126.652124
 21
-117.348479
 31
0.0
  0
LINE
  8
DETAIL
  6
CONTINUOUS
 62
     5
 10
-126.652124
 20
-117.348479
 30
0.0
 11
-128.7177079999999
 21
-120.764523
 31
0.0
  0
LINE
  8
DETAIL
  6
CONTINUOUS
 62
     5
 10
-129.26608999999999
 20
-121.35670499999991
 30
0.0
 11
-132.48719199999991
 21
-123.659257
 31
0.0
  0
LINE
  8
DETAIL
  6
CONTINUOUS
 62
     5
 10
-133.36974599999999
 20
-124.01244299999991
 30
0.0
 11
-140.34123
 21
-125.0
 31
0.0
  0
ARC
  8
DETAIL
  6
CONTINUOUS
 62
     5
 10
-130.42915699999969
 20
-119.72966
 30
0.0
 40
2.0
 50
305.55846799999711
 51
328.83985200000188
  0
ARC
  8
DETAIL
  6
CONTINUOUS
 62
     5
 10
-133.65025900000001
 20
-122.032212
 30
0.0
 40
2.0
 50
278.06268400000317
 51
305.55846799999711
  0
LINE
  8
DETAIL
  6
CONTINUOUS
 62
     5
 10
-146.0326639999999
 20
-125.0
 30
0.0
 11
-143.23662899999999
 21
-125.0
 31
0.0
  0
LINE
  8
DETAIL
  6
CONTINUOUS
 62
     5
 10
-143.23662899999999
 20
-125.0
 30
0.0
 11
-140.34123
 21
-125.0
 31
0.0
  0
ARC
  8
DETAIL
  6
CONTINUOUS
 62
     5
 10
-108.5477309999999
 20
-56.782575000000008
 30
0.0
 40
80.452703999999983
 50
214.95553000000081
 51
231.99635700000059
  0
LINE
  8
DETAIL
  6
CONTINUOUS
 62
     5
 10
-175.23662899999991
 20
-92.0
 30
0.0
 11
-175.20751799999999
 21
-93.65573999999998
 31
0.0
  0
ARC
  8
DETAIL
  6
CONTINUOUS
 62
     5
 10
-113.74817
 20
-93.489348000000007
 30
0.0
 40
61.459572999999999
 50
180.15511899999979
 51
188.78622100000021
  0
ARC
  8
DETAIL
  6
CONTINUOUS
 62
     5
 10
-144.634646
 20
-104.040396
 30
0.0
 40
21.006176
 50
230.1911630000028
 51
266.18399099999851
  0
ARC
  8
DETAIL
  6
CONTINUOUS
 62
     5
 10
76.397611999999981
 20
-144.03476000000001
 30
0.0
 40
202.48434900000001
 50
165.10896100000059
 51
170.62962099999959
  0
ARC
  8
DETAIL
  6
CONTINUOUS
 62
     5
 10
213.3424719999999
 20
49.598302999999987
 30
0.0
 40
187.820198
 50
228.92965100000191
 51
246.15469400000069
  0
ARC
  8
DETAIL
  6
CONTINUOUS
 62
     5
 10
142.079105
 20
-14.895348000000009
 30
0.0
 40
107.395697
 50
233.92047599999961
 51
267.50965600000097
  0
ARC
  8
DETAIL
  6
CONTINUOUS
 62
     5
 10
14.027618999999961
 20
-16.162122000000011
 30
0.0
 40
107.3088749999999
 50
259.5351179999995
 51
315.03091699999771
  0
ARC
  8
DETAIL
  6
CONTINUOUS
 62
     5
 10
-9.9820069999999532
 20
-54.338323000000003
 30
0.0
 40
57.837425000000003
 50
276.05834100000311
 51
319.37054399999988
  0
TEXT
  8
ETC
  6
CONTINUOUS
 62
    61
 10
374.27497093989371
 20
647.44135549779958
 30
0.0
 40
64.0
  1
EFG-40STB2_6
 41
0.9
  0
TEXT
  8
ETC
  6
CONTINUOUS
 62
    61
 10
366.20149293989402
 20
549.42263049779956
 30
0.0
 40
64.0
  1
産業扇
 41
0.9
  0
TEXT
  8
ETC
  6
CONTINUOUS
 62
    61
 10
450.81981821421408
 20
464.96336026907443
 30
0.0
 40
50.0
  1
EFG-40STB2
 41
0.9
  0
LINE
  8
SIZE
  6
CONTINUOUS
 62
    30
 10
-213.78072043896799
 20
202.0
 30
0.0
 11
-551.89362200000005
 21
202.0
 31
0.0
  0
LINE
  8
SIZE
  6
CONTINUOUS
 62
    30
 10
-531.89362200000005
 20
159.0
 30
0.0
 11
-531.89362200000005
 21
345.33462239212707
 31
0.0
  0
CIRCLE
  8
SIZE
  6
CONTINUOUS
 62
    30
 10
-531.89362200000005
 20
202.0
 30
0.0
 40
6.0
  0
TEXT
  8
SIZE
  6
CONTINUOUS
 62
    30
 10
-556.85140200000001
 20
235.66776850001011
 30
0.0
 40
64.0
  1
43
 50
90.0
 41
0.9
 72
     1
 11
-556.85140200000001
 21
282.29633992858157
 31
0.0
  0
LINE
  8
DETAIL
  6
CONTINUOUS
 62
     5
 10
-201.5
 20
202.0
 30
0.0
 11
-201.5
 21
159.0
 31
0.0
  0
LINE
  8
DETAIL
  6
CONTINUOUS
 62
     5
 10
-201.5
 20
202.0
 30
0.0
 11
201.5
 21
201.9999999999998
 31
0.0
  0
LINE
  8
DETAIL
  6
CONTINUOUS
 62
     5
 10
201.5
 20
201.9999999999998
 30
0.0
 11
201.5
 21
159.0
 31
0.0
  0
ARC
  8
DETAIL
  6
CONTINUOUS
 62
     5
 10
-201.5
 20
149.0
 30
0.0
 40
10.0
 50
90.0
 51
180.0
  0
ARC
  8
DETAIL
  6
CONTINUOUS
 62
     5
 10
201.5
 20
149.0
 30
0.0
 40
10.0
 50
0.0
 51
90.0
  0
ARC
  8
OUTLINE
  6
CONTINUOUS
 62
     3
 10
-201.5
 20
149.0
 30
0.0
 40
10.0
 50
90.0
 51
180.0
  0
ARC
  8
OUTLINE
  6
CONTINUOUS
 62
     3
 10
201.5
 20
149.0
 30
0.0
 40
10.0
 50
0.0
 51
90.0
  0
ENDSEC
  0
EOF
