  0
SECTION
  2
HEADER
  9
$ACADVER
  1
AC1009
  9
$INSBASE
 10
0.0
 20
0.0
 30
0.0
  9
$EXTMIN
 10
-630.21775199999979
 20
-389.07758299999989
 30
0.0
  9
$EXTMAX
 10
1050.551069771695
 20
715.42820076792384
 30
50.0
  9
$LIMMIN
 10
-2970.0
 20
-2100.0
  9
$LIMMAX
 10
2970.0
 20
2100.0
  9
$ORTHOMODE
 70
     1
  9
$REGENMODE
 70
     0
  9
$FILLMODE
 70
     1
  9
$QTEXTMODE
 70
     0
  9
$MIRRTEXT
 70
     0
  9
$DRAGMODE
 70
     2
  9
$LTSCALE
 40
20.0
  9
$OSMODE
 70
   423
  9
$ATTMODE
 70
     1
  9
$TEXTSIZE
 40
64.0
  9
$TRACEWID
 40
0.05
  9
$TEXTSTYLE
  7
STANDARD
  9
$CLAYER
  8
SIZE
  9
$CELTYPE
  6
CONTINUOUS
  9
$CECOLOR
 62
     8
  9
$DIMSCALE
 40
1.0
  9
$DIMASZ
 40
12.0
  9
$DIMEXO
 40
20.0
  9
$DIMDLI
 40
200.0
  9
$DIMRND
 40
0.0
  9
$DIMDLE
 40
0.0
  9
$DIMEXE
 40
20.0
  9
$DIMTP
 40
0.0
  9
$DIMTM
 40
0.0
  9
$DIMTXT
 40
64.0
  9
$DIMCEN
 40
0.09
  9
$DIMTSZ
 40
0.0
  9
$DIMTOL
 70
     0
  9
$DIMLIM
 70
     0
  9
$DIMTIH
 70
     0
  9
$DIMTOH
 70
     0
  9
$DIMSE1
 70
     0
  9
$DIMSE2
 70
     0
  9
$DIMTAD
 70
     1
  9
$DIMZIN
 70
     8
  9
$DIMBLK
  1
DOT1
  9
$DIMASO
 70
     1
  9
$DIMSHO
 70
     0
  9
$DIMPOST
  1

  9
$DIMAPOST
  1

  9
$DIMALT
 70
     0
  9
$DIMALTD
 70
     2
  9
$DIMALTF
 40
25.399999999999999
  9
$DIMLFAC
 40
1.0
  9
$DIMTOFL
 70
     1
  9
$DIMTVP
 40
0.0
  9
$DIMTIX
 70
     1
  9
$DIMSOXD
 70
     0
  9
$DIMSAH
 70
     1
  9
$DIMBLK1
  1
ORIGIN
  9
$DIMBLK2
  1
ORIGIN
  9
$DIMSTYLE
  2
STANDARD
  9
$DIMCLRD
 70
     0
  9
$DIMCLRE
 70
     0
  9
$DIMCLRT
 70
     0
  9
$DIMTFAC
 40
1.0
  9
$DIMGAP
 40
0.09
  9
$LUNITS
 70
     2
  9
$LUPREC
 70
     4
  9
$SKETCHINC
 40
0.1
  9
$FILLETRAD
 40
15.0
  9
$AUNITS
 70
     1
  9
$AUPREC
 70
     3
  9
$MENU
  1
ACAD
  9
$ELEVATION
 40
0.0
  9
$PELEVATION
 40
0.0
  9
$THICKNESS
 40
50.0
  9
$LIMCHECK
 70
     0
  9
$BLIPMODE
 70
     0
  9
$CHAMFERA
 40
0.0
  9
$CHAMFERB
 40
0.0
  9
$SKPOLY
 70
     0
  9
$TDCREATE
 40
2451453.4938508091
  9
$TDUPDATE
 40
2454950.7734644669
  9
$TDINDWG
 40
0.6191721296
  9
$TDUSRTIMER
 40
0.6191712153
  9
$USRTIMER
 70
     1
  9
$ANGBASE
 50
0.0
  9
$ANGDIR
 70
     0
  9
$PDMODE
 70
     3
  9
$PDSIZE
 40
-2.0
  9
$PLINEWID
 40
0.0
  9
$COORDS
 70
     2
  9
$SPLFRAME
 70
     0
  9
$SPLINETYPE
 70
     6
  9
$SPLINESEGS
 70
     8
  9
$ATTDIA
 70
     0
  9
$ATTREQ
 70
     1
  9
$HANDLING
 70
 22529
  9
$HANDSEED
  5
35F
  9
$SURFTAB1
 70
     6
  9
$SURFTAB2
 70
     6
  9
$SURFTYPE
 70
     6
  9
$SURFU
 70
     6
  9
$SURFV
 70
     6
  9
$UCSNAME
  2

  9
$UCSORG
 10
0.0
 20
0.0
 30
0.0
  9
$UCSXDIR
 10
1.0
 20
0.0
 30
0.0
  9
$UCSYDIR
 10
0.0
 20
1.0
 30
0.0
  9
$PUCSNAME
  2

  9
$PUCSORG
 10
0.0
 20
0.0
 30
0.0
  9
$PUCSXDIR
 10
1.0
 20
0.0
 30
0.0
  9
$PUCSYDIR
 10
0.0
 20
1.0
 30
0.0
  9
$USERI1
 70
     0
  9
$USERI2
 70
     0
  9
$USERI3
 70
     0
  9
$USERI4
 70
     0
  9
$USERI5
 70
     0
  9
$USERR1
 40
20.0
  9
$USERR2
 40
0.0
  9
$USERR3
 40
0.0
  9
$USERR4
 40
0.0
  9
$USERR5
 40
0.0
  9
$WORLDVIEW
 70
     1
  9
$SHADEDGE
 70
     3
  9
$SHADEDIF
 70
    70
  9
$TILEMODE
 70
     1
  9
$MAXACTVP
 70
    64
  9
$PLIMCHECK
 70
     0
  9
$PEXTMIN
 10
1.0000000000000000E+020
 20
1.0000000000000000E+020
 30
1.0000000000000000E+020
  9
$PEXTMAX
 10
-1.0000000000000000E+020
 20
-1.0000000000000000E+020
 30
-1.0000000000000000E+020
  9
$PLIMMIN
 10
0.0
 20
0.0
  9
$PLIMMAX
 10
12.0
 20
9.0
  9
$UNITMODE
 70
     0
  9
$VISRETAIN
 70
     1
  9
$PLINEGEN
 70
     0
  9
$PSLTSCALE
 70
     1
  0
ENDSEC
  0
SECTION
  2
TABLES
  0
TABLE
  2
VPORT
 70
     3
  0
VPORT
  2
*ACTIVE
 70
     0
 10
0.0
 20
0.0
 11
1.0
 21
1.0
 12
196.4546739987199
 22
164.96786415928091
 13
0.0
 23
0.0
 14
1.0
 24
1.0
 15
0.0
 25
0.0
 16
0.0
 26
0.0
 36
1.0
 17
0.0
 27
0.0
 37
0.0
 40
1413.505181825363
 41
1.493654822335025
 42
50.0
 43
0.0
 44
0.0
 50
0.0
 51
0.0
 71
     0
 72
   100
 73
     1
 74
     0
 75
     0
 76
     0
 77
     0
 78
     0
  0
ENDTAB
  0
TABLE
  2
LTYPE
 70
     2
  0
LTYPE
  2
CONTINUOUS
 70
     0
  3
実線
 72
    65
 73
     0
 40
0.0
  0
LTYPE
  2
DASHDOT
 70
     0
  3
____ _ ____ _ ____ _ ____ _ ____ _ ____ _ ____
 72
    65
 73
     4
 40
5.5
 49
4.0
 49
-0.6
 49
0.3
 49
-0.6
  0
ENDTAB
  0
TABLE
  2
LAYER
 70
    12
  0
LAYER
  2
0
 70
     0
 62
     7
  6
CONTINUOUS
  0
LAYER
  2
SIZE
 70
     0
 62
    30
  6
CONTINUOUS
  0
LAYER
  2
BASIS
 70
     0
 62
     6
  6
DASHDOT
  0
LAYER
  2
OUTLINE
 70
     0
 62
     3
  6
CONTINUOUS
  0
LAYER
  2
DETAIL
 70
     0
 62
     5
  6
CONTINUOUS
  0
LAYER
  2
ARRANGE
 70
     0
 62
     1
  6
CONTINUOUS
  0
LAYER
  2
DEFPOINTS
 70
     0
 62
     7
  6
CONTINUOUS
  0
LAYER
  2
ETC
 70
     0
 62
    61
  6
CONTINUOUS
  0
LAYER
  2
FIX
 70
     0
 62
    11
  6
CONTINUOUS
  0
LAYER
  2
NOTE
 70
     0
 62
     4
  6
CONTINUOUS
  0
LAYER
  2
SERVICESPACE
 70
     0
 62
     2
  6
DASHDOT
  0
LAYER
  2
SYMBOLLINE
 70
     0
 62
    15
  6
CONTINUOUS
  0
ENDTAB
  0
TABLE
  2
STYLE
 70
     1
  0
STYLE
  2
STANDARD
 70
     0
 40
64.0
 41
0.9
 50
0.0
 71
     0
 42
64.0
  3
SIMPLEX.shx
  4
BIGFONT.shx
  0
ENDTAB
  0
TABLE
  2
VIEW
 70
     1
  0
VIEW
  2
ALL
 70
     0
 40
4282.6198079999967
 10
0.0
 20
41.309903999999989
 41
5940.0
 11
0.0
 21
0.0
 31
1.0
 12
0.0
 22
0.0
 32
0.0
 42
50.0
 43
0.0
 44
0.0
 50
0.0
 71
     0
  0
ENDTAB
  0
TABLE
  2
UCS
 70
     0
  0
ENDTAB
  0
TABLE
  2
APPID
 70
     1
  0
APPID
  2
ACAD
 70
     0
  0
ENDTAB
  0
TABLE
  2
DIMSTYLE
 70
     1
  0
DIMSTYLE
  2
STANDARD
 70
     0
  3

  4

  5

  6

  7

 40
1.0
 41
0.18
 42
0.0625
 43
0.38
 44
0.18
 45
0.0
 46
0.0
 47
0.0
 48
0.0
140
0.18
141
0.09
142
0.0
143
25.399999999999999
144
1.0
145
0.0
146
1.0
147
0.09
 71
     0
 72
     0
 73
     1
 74
     1
 75
     0
 76
     0
 77
     0
 78
     0
170
     0
171
     2
172
     0
173
     0
174
     0
175
     0
176
     0
177
     0
178
     0
  0
ENDTAB
  0
ENDSEC
  0
SECTION
  2
BLOCKS
  0
BLOCK
  8
0
  2
$MODEL_SPACE
 70
     0
 10
0.0
 20
0.0
 30
0.0
  3
$MODEL_SPACE
  1

  0
ENDBLK
  5
2A0
  8
0
  0
BLOCK
 67
     1
  8
0
  2
$PAPER_SPACE
 70
     0
 10
0.0
 20
0.0
 30
0.0
  3
$PAPER_SPACE
  1

  0
ENDBLK
  5
29C
 67
     1
  8
0
  0
BLOCK
  8
0
  2
DOT1
 70
     0
 10
0.0
 20
0.0
 30
0.0
  3
DOT1
  1

  0
CIRCLE
  5
2BB
  8
SIZE
  6
CONTINUOUS
 62
     7
 10
0.0
 20
0.0
 30
0.0
 40
3.0
  0
ENDBLK
  5
2BC
  8
0
  0
BLOCK
  8
0
  2
_ORIGIN
 70
     0
 10
0.0
 20
0.0
 30
0.0
  3
_ORIGIN
  1

  0
CIRCLE
  5
2BF
  8
0
  6
CONTINUOUS
 62
     7
 10
0.0
 20
0.0
 30
0.0
 40
0.5
  0
LINE
  5
2C0
  8
0
  6
CONTINUOUS
 62
     7
 10
0.0
 20
0.0
 30
0.0
 11
-1.0
 21
0.0
 31
0.0
  0
ENDBLK
  5
2C1
  8
0
  0
ENDSEC
  0
SECTION
  2
ENTITIES
  0
LINE
  5
2C2
  8
BASIS
  6
DASHDOT
 62
     6
 10
0.0
 20
311.66547599999973
 30
0.0
 11
0.0
 21
-335.73719299999982
 31
0.0
  0
POINT
  5
2C3
  8
ARRANGE
  6
CONTINUOUS
 62
     1
 10
0.0
 20
0.0
 30
0.0
  0
LINE
  5
2C4
  8
DETAIL
  6
CONTINUOUS
 62
     5
 10
259.0
 20
-229.0
 30
0.0
 11
259.0
 21
229.0
 31
0.0
  0
LINE
  5
2C5
  8
DETAIL
  6
CONTINUOUS
 62
     5
 10
-259.0
 20
229.0
 30
0.0
 11
-259.0
 21
-229.0
 31
0.0
  0
LINE
  5
2C6
  8
NOTE
  6
CONTINUOUS
 62
     4
 10
-230.0
 20
-230.0
 30
0.0
 11
-337.24983300000002
 21
-349.87331399999999
 31
0.0
  0
LINE
  5
2C7
  8
NOTE
  6
CONTINUOUS
 62
     4
 10
-337.24983300000002
 20
-349.87331399999999
 30
0.0
 11
-630.21775199999979
 21
-349.87331399999999
 31
0.0
  0
CIRCLE
  5
2C8
  8
ARRANGE
  6
CONTINUOUS
 62
     1
 10
0.0
 20
0.0
 30
0.0
 40
54.482759999999992
  0
LINE
  5
2C9
  8
BASIS
  6
DASHDOT
 62
     6
 10
-306.64205600000003
 20
0.0
 30
0.0
 11
286.613225
 21
0.0
 31
0.0
  0
TEXT
  5
2CA
  8
NOTE
  6
CONTINUOUS
 62
     4
 10
-620.10251100000005
 20
-323.60732699999988
 30
0.0
 40
64.0
  1
4-φ14
 41
0.9
  0
LINE
  5
2CB
  8
NOTE
  6
CONTINUOUS
 62
     4
 10
-263.46171299999992
 20
-251.9160609999999
 30
0.0
 11
-230.0
 21
-230.0
 31
0.0
  0
LINE
  5
2CC
  8
NOTE
  6
CONTINUOUS
 62
     4
 10
-230.0
 20
-230.0
 30
0.0
 11
-248.02066300000001
 21
-265.71072299999992
 31
0.0
  0
LINE
  5
2CD
  8
DETAIL
  6
CONTINUOUS
 62
     5
 10
-229.0
 20
259.0
 30
0.0
 11
229.0
 21
259.0
 31
0.0
  0
LINE
  5
2CE
  8
DETAIL
  6
CONTINUOUS
 62
     5
 10
-229.0
 20
-259.0
 30
0.0
 11
229.0
 21
-259.0
 31
0.0
  0
ARC
  5
2CF
  8
DETAIL
  6
CONTINUOUS
 62
     5
 10
-229.0
 20
229.0
 30
0.0
 40
30.0
 50
90.0
 51
180.0
  0
ARC
  5
2D0
  8
DETAIL
  6
CONTINUOUS
 62
     5
 10
229.0
 20
229.0
 30
0.0
 40
30.0
 50
0.0
 51
90.0
  0
ARC
  5
2D1
  8
DETAIL
  6
CONTINUOUS
 62
     5
 10
229.0
 20
-229.0
 30
0.0
 40
30.0
 50
270.0
 51
0.0
  0
ARC
  5
2D2
  8
DETAIL
  6
CONTINUOUS
 62
     5
 10
-229.0
 20
-229.0
 30
0.0
 40
30.0
 50
180.0
 51
270.0
  0
LINE
  5
2D3
  8
NOTE
  6
CONTINUOUS
 62
     4
 10
-230.0
 20
210.0
 30
0.0
 11
-230.0
 21
250.0
 31
0.0
  0
LINE
  5
2D4
  8
NOTE
  6
CONTINUOUS
 62
     4
 10
-250.0
 20
230.0
 30
0.0
 11
-210.0
 21
230.0
 31
0.0
  0
LINE
  5
2D5
  8
NOTE
  6
CONTINUOUS
 62
     4
 10
230.0
 20
210.0
 30
0.0
 11
230.0
 21
250.0
 31
0.0
  0
LINE
  5
2D6
  8
NOTE
  6
CONTINUOUS
 62
     4
 10
210.0
 20
230.0
 30
0.0
 11
250.0
 21
230.0
 31
0.0
  0
LINE
  5
2D7
  8
NOTE
  6
CONTINUOUS
 62
     4
 10
230.0
 20
-250.0
 30
0.0
 11
230.0
 21
-210.0
 31
0.0
  0
LINE
  5
2D8
  8
NOTE
  6
CONTINUOUS
 62
     4
 10
210.0
 20
-230.0
 30
0.0
 11
250.0
 21
-230.0
 31
0.0
  0
LINE
  5
2D9
  8
NOTE
  6
CONTINUOUS
 62
     4
 10
-230.0
 20
-250.0
 30
0.0
 11
-230.0
 21
-210.0
 31
0.0
  0
LINE
  5
2DA
  8
NOTE
  6
CONTINUOUS
 62
     4
 10
-250.0
 20
-230.0
 30
0.0
 11
-210.0
 21
-230.0
 31
0.0
  0
LINE
  5
2DB
  8
NOTE
  6
CONTINUOUS
 62
     4
 10
-211.5
 20
-231.49999999999989
 30
0.0
 11
-211.5
 21
-191.5
 31
0.0
  0
LINE
  5
2DC
  8
NOTE
  6
CONTINUOUS
 62
     4
 10
-191.5
 20
-211.5
 30
0.0
 11
-231.49999999999989
 21
-211.5
 31
0.0
  0
LINE
  5
2DD
  8
SIZE
  6
CONTINUOUS
 62
    30
 10
-230.0
 20
270.0
 30
0.0
 11
-230.0
 21
497.53520999999989
 31
0.0
  0
LINE
  5
2DE
  8
SIZE
  6
CONTINUOUS
 62
    30
 10
230.0
 20
270.0
 30
0.0
 11
230.0
 21
497.53520999999989
 31
0.0
  0
LINE
  5
2DF
  8
SIZE
  6
CONTINUOUS
 62
    30
 10
-218.0
 20
477.53520999999989
 30
0.0
 11
218.0
 21
477.53520999999989
 31
0.0
  0
TEXT
  5
2E0
  8
SIZE
  6
CONTINUOUS
 62
    30
 10
-65.835342857142848
 20
502.53520999999989
 30
0.0
 40
64.0
  1
460
 41
0.9
 72
     1
 11
8.2217999999999982
 21
502.53520999999989
 31
0.0
  0
CIRCLE
  5
2E1
  8
SIZE
  6
CONTINUOUS
 62
    30
 10
-230.0
 20
477.53520999999989
 30
0.0
 40
6.0
  0
LINE
  5
2E2
  8
SIZE
  6
CONTINUOUS
 62
    30
 10
-230.0
 20
477.53520999999989
 30
0.0
 11
-218.0
 21
477.53520999999989
 31
0.0
  0
CIRCLE
  5
2E3
  8
SIZE
  6
CONTINUOUS
 62
    30
 10
230.0
 20
477.53520999999989
 30
0.0
 40
6.0
  0
LINE
  5
2E4
  8
SIZE
  6
CONTINUOUS
 62
    30
 10
230.0
 20
477.53520999999989
 30
0.0
 11
218.0
 21
477.53520999999989
 31
0.0
  0
LINE
  5
2E5
  8
SIZE
  6
CONTINUOUS
 62
    30
 10
-259.0
 20
249.0
 30
0.0
 11
-259.0
 21
615.86216399999978
 31
0.0
  0
LINE
  5
2E6
  8
SIZE
  6
CONTINUOUS
 62
    30
 10
259.0
 20
249.0
 30
0.0
 11
259.0
 21
615.86216399999978
 31
0.0
  0
LINE
  5
2E7
  8
SIZE
  6
CONTINUOUS
 62
    30
 10
-247.0
 20
595.86216400000001
 30
0.0
 11
247.0
 21
595.86216400000001
 31
0.0
  0
TEXT
  5
2E8
  8
SIZE
  6
CONTINUOUS
 62
    30
 10
-105.0514285714285
 20
618.11037699999986
 30
0.0
 40
64.0
  1
□518
 41
0.9
 72
     1
 11
0.0
 21
618.11037699999986
 31
0.0
  0
CIRCLE
  5
2E9
  8
SIZE
  6
CONTINUOUS
 62
    30
 10
-259.0
 20
595.86216400000001
 30
0.0
 40
6.0
  0
LINE
  5
2EA
  8
SIZE
  6
CONTINUOUS
 62
    30
 10
-259.0
 20
595.86216400000001
 30
0.0
 11
-247.0
 21
595.86216400000001
 31
0.0
  0
CIRCLE
  5
2EB
  8
SIZE
  6
CONTINUOUS
 62
    30
 10
259.0
 20
595.86216400000001
 30
0.0
 40
6.0
  0
LINE
  5
2EC
  8
SIZE
  6
CONTINUOUS
 62
    30
 10
259.0
 20
595.86216400000001
 30
0.0
 11
247.0
 21
595.86216400000001
 31
0.0
  0
ARC
  5
2ED
  8
OUTLINE
  6
CONTINUOUS
 62
     3
 10
229.0
 20
-229.0
 30
0.0
 40
30.0
 50
270.0
 51
0.0
  0
ARC
  5
2EE
  8
OUTLINE
  6
CONTINUOUS
 62
     3
 10
229.0
 20
229.0
 30
0.0
 40
30.0
 50
0.0
 51
90.0
  0
LINE
  5
2EF
  8
OUTLINE
  6
CONTINUOUS
 62
     3
 10
259.0
 20
-229.0
 30
0.0
 11
259.0
 21
229.0
 31
0.0
  0
ARC
  5
2F0
  8
OUTLINE
  6
CONTINUOUS
 62
     3
 10
-229.0
 20
-229.0
 30
0.0
 40
30.0
 50
180.0
 51
270.0
  0
LINE
  5
2F1
  8
OUTLINE
  6
CONTINUOUS
 62
     3
 10
-229.0
 20
-259.0
 30
0.0
 11
229.0
 21
-259.0
 31
0.0
  0
ARC
  5
2F2
  8
OUTLINE
  6
CONTINUOUS
 62
     3
 10
-229.0
 20
229.0
 30
0.0
 40
30.0
 50
90.0
 51
180.0
  0
LINE
  5
2F3
  8
OUTLINE
  6
CONTINUOUS
 62
     3
 10
-259.0
 20
229.0
 30
0.0
 11
-259.0
 21
-229.0
 31
0.0
  0
LINE
  5
2F4
  8
OUTLINE
  6
CONTINUOUS
 62
     3
 10
-229.0
 20
259.0
 30
0.0
 11
229.0
 21
259.0
 31
0.0
  0
LINE
  5
2F5
  8
DETAIL
  6
CONTINUOUS
 62
     5
 10
-211.5
 20
211.5
 30
0.0
 11
-211.5
 21
-211.5
 31
0.0
  0
LINE
  5
2F6
  8
DETAIL
  6
CONTINUOUS
 62
     5
 10
-211.5
 20
-211.5
 30
0.0
 11
211.5
 21
-211.5
 31
0.0
  0
LINE
  5
2F7
  8
DETAIL
  6
CONTINUOUS
 62
     5
 10
211.5
 20
-211.5
 30
0.0
 11
211.5
 21
211.5
 31
0.0
  0
LINE
  5
2F8
  8
DETAIL
  6
CONTINUOUS
 62
     5
 10
211.5
 20
211.5
 30
0.0
 11
-211.5
 21
211.5
 31
0.0
  0
LINE
  5
2F9
  8
SIZE
  6
CONTINUOUS
 62
    30
 10
-211.5
 20
231.49999999999989
 30
0.0
 11
-211.5
 21
378.77473700000002
 31
0.0
  0
LINE
  5
2FA
  8
SIZE
  6
CONTINUOUS
 62
    30
 10
211.5
 20
231.49999999999989
 30
0.0
 11
211.5
 21
378.77473700000002
 31
0.0
  0
LINE
  5
2FB
  8
SIZE
  6
CONTINUOUS
 62
    30
 10
-199.5
 20
358.77473700000002
 30
0.0
 11
199.5
 21
358.77473700000002
 31
0.0
  0
CIRCLE
  5
2FC
  8
SIZE
  6
CONTINUOUS
 62
    30
 10
-211.5
 20
358.77473700000002
 30
0.0
 40
6.0
  0
LINE
  5
2FD
  8
SIZE
  6
CONTINUOUS
 62
    30
 10
-211.5
 20
358.77473700000002
 30
0.0
 11
-199.5
 21
358.77473700000002
 31
0.0
  0
CIRCLE
  5
2FE
  8
SIZE
  6
CONTINUOUS
 62
    30
 10
211.5
 20
358.77473700000002
 30
0.0
 40
6.0
  0
LINE
  5
2FF
  8
SIZE
  6
CONTINUOUS
 62
    30
 10
211.5
 20
358.77473700000002
 30
0.0
 11
199.5
 21
358.77473700000002
 31
0.0
  0
TEXT
  5
300
  8
SIZE
  6
CONTINUOUS
 62
    30
 10
-110.5371428571428
 20
383.77473700000002
 30
0.0
 40
64.0
  1
□423
 41
0.9
 72
     1
 11
0.0
 21
383.77473700000002
 31
0.0
  0
CIRCLE
  5
301
  8
DETAIL
  6
CONTINUOUS
 62
     5
 10
-230.0
 20
230.0
 30
0.0
 40
7.0
  0
CIRCLE
  5
302
  8
DETAIL
  6
CONTINUOUS
 62
     5
 10
230.0
 20
230.0
 30
0.0
 40
7.0
  0
CIRCLE
  5
303
  8
DETAIL
  6
CONTINUOUS
 62
     5
 10
230.0
 20
-230.0
 30
0.0
 40
7.0
  0
CIRCLE
  5
304
  8
DETAIL
  6
CONTINUOUS
 62
     5
 10
-230.0
 20
-230.0
 30
0.0
 40
7.0
  0
LINE
  5
305
  8
NOTE
  6
CONTINUOUS
 62
     4
 10
-181.552628
 20
-238.01706799999991
 30
0.0
 11
-211.5
 21
-211.5
 31
0.0
  0
LINE
  5
306
  8
NOTE
  6
CONTINUOUS
 62
     4
 10
-211.5
 20
-211.5
 30
0.0
 11
-198.82334900000001
 21
-249.43814099999989
 31
0.0
  0
LINE
  5
307
  8
NOTE
  6
CONTINUOUS
 62
     4
 10
-211.5
 20
-211.5
 30
0.0
 11
-94.068514000000064
 21
-389.07758299999989
 31
0.0
  0
LINE
  5
308
  8
NOTE
  6
CONTINUOUS
 62
     4
 10
-94.068514000000064
 20
-389.07758299999989
 30
0.0
 11
29.809584999999888
 21
-389.07758299999989
 31
0.0
  0
TEXT
  5
309
  8
NOTE
  6
CONTINUOUS
 62
     4
 10
-71.65938900000009
 20
-364.63061699999992
 30
0.0
 40
64.0
  1
EL
 41
0.9
  0
LINE
  5
30A
  8
SIZE
  6
CONTINUOUS
 62
    30
 10
270.0
 20
230.0
 30
0.0
 11
491.21896700000002
 21
230.0
 31
0.0
  0
LINE
  5
30B
  8
SIZE
  6
CONTINUOUS
 62
    30
 10
270.0
 20
-230.0
 30
0.0
 11
491.21896700000002
 21
-230.0
 31
0.0
  0
LINE
  5
30C
  8
SIZE
  6
CONTINUOUS
 62
    30
 10
471.21896699999979
 20
218.0
 30
0.0
 11
471.21896699999979
 21
-218.0
 31
0.0
  0
CIRCLE
  5
30D
  8
SIZE
  6
CONTINUOUS
 62
    30
 10
471.21896699999979
 20
230.0
 30
0.0
 40
6.0
  0
LINE
  5
30E
  8
SIZE
  6
CONTINUOUS
 62
    30
 10
471.21896699999979
 20
230.0
 30
0.0
 11
471.21896699999979
 21
218.0
 31
0.0
  0
CIRCLE
  5
30F
  8
SIZE
  6
CONTINUOUS
 62
    30
 10
471.21896699999979
 20
-230.0
 30
0.0
 40
6.0
  0
LINE
  5
310
  8
SIZE
  6
CONTINUOUS
 62
    30
 10
471.21896699999979
 20
-230.0
 30
0.0
 11
471.21896699999979
 21
-218.0
 31
0.0
  0
TEXT
  5
311
  8
SIZE
  6
CONTINUOUS
 62
    30
 10
446.21896699999979
 20
-74.05714285714285
 30
0.0
 40
64.0
  1
460
 50
90.0
 41
0.9
 72
     1
 11
446.21896699999979
 21
0.0
 31
0.0
  0
CIRCLE
  5
312
  8
FIX
  6
CONTINUOUS
 62
    11
 39
50.0
 10
-230.0
 20
230.0
 30
0.0
 40
7.0
  0
CIRCLE
  5
313
  8
FIX
  6
CONTINUOUS
 62
    11
 39
50.0
 10
230.0
 20
230.0
 30
0.0
 40
7.0
  0
CIRCLE
  5
314
  8
FIX
  6
CONTINUOUS
 62
    11
 39
50.0
 10
-230.0
 20
-230.0
 30
0.0
 40
7.0
  0
CIRCLE
  5
315
  8
FIX
  6
CONTINUOUS
 62
    11
 39
50.0
 10
230.0
 20
-230.0
 30
0.0
 40
7.0
  0
TEXT
  5
316
  8
ETC
  6
CONTINUOUS
 62
    61
 10
444.37964120026652
 20
651.42820076792316
 30
0.0
 40
64.0
  1
EFG-40STB_3
 41
0.9
  0
TEXT
  5
317
  8
ETC
  6
CONTINUOUS
 62
    61
 10
520.9244884745865
 20
468.95020553919778
 30
0.0
 40
50.0
  1
EFG-40STB
 41
0.9
  0
TEXT
  5
318
  8
ETC
  6
CONTINUOUS
 62
    61
 10
436.3061632002665
 20
553.40947576792325
 30
0.0
 40
64.0
  1
産業扇
 41
0.9
  0
LINE
  5
319
  8
DETAIL
  6
CONTINUOUS
 62
     5
 10
211.5
 20
168.5
 30
0.0
 11
-211.5
 21
168.5
 31
0.0
  0
LINE
  5
31A
  8
DETAIL
  6
CONTINUOUS
 62
     5
 10
211.5
 20
73.5
 30
0.0
 11
-211.5
 21
73.5
 31
0.0
  0
LINE
  5
31B
  8
DETAIL
  6
CONTINUOUS
 62
     5
 10
211.5
 20
-21.499999999999989
 30
0.0
 11
-211.5
 21
-21.499999999999989
 31
0.0
  0
LINE
  5
31C
  8
DETAIL
  6
CONTINUOUS
 62
     5
 10
211.5
 20
-116.5
 30
0.0
 11
-211.5
 21
-116.5
 31
0.0
  0
ENDSEC
  0
EOF
