  0
SECTION
  2
HEADER
  9
$ACADVER
  1
AC1009
  9
$DWGCODEPAGE
  3
ansi_932
  9
$INSBASE
 10
0.0
 20
0.0
 30
0.0
  9
$EXTMIN
 10
-136.7692539754894
 20
-421.9398705374588
 30
0.0
  9
$EXTMAX
 10
1364.703586716674
 20
613.9786738704493
 30
50.0
  9
$LIMMIN
 10
-2970.0
 20
-2100.0
  9
$LIMMAX
 10
2970.0
 20
2100.0
  9
$ORTHOMODE
 70
     0
  9
$REGENMODE
 70
     0
  9
$FILLMODE
 70
     1
  9
$QTEXTMODE
 70
     0
  9
$MIRRTEXT
 70
     0
  9
$DRAGMODE
 70
     2
  9
$LTSCALE
 40
20.0
  9
$OSMODE
 70
    37
  9
$ATTMODE
 70
     1
  9
$TEXTSIZE
 40
64.0
  9
$TRACEWID
 40
0.05
  9
$TEXTSTYLE
  7
STANDARD
  9
$CLAYER
  8
DETAIL
  9
$CELTYPE
  6
CONTINUOUS
  9
$CECOLOR
 62
     5
  9
$DIMSCALE
 40
1.0
  9
$DIMASZ
 40
12.0
  9
$DIMEXO
 40
20.0
  9
$DIMDLI
 40
200.0
  9
$DIMRND
 40
0.0
  9
$DIMDLE
 40
0.0
  9
$DIMEXE
 40
20.0
  9
$DIMTP
 40
0.0
  9
$DIMTM
 40
0.0
  9
$DIMTXT
 40
64.0
  9
$DIMCEN
 40
0.09
  9
$DIMTSZ
 40
0.0
  9
$DIMTOL
 70
     0
  9
$DIMLIM
 70
     0
  9
$DIMTIH
 70
     0
  9
$DIMTOH
 70
     0
  9
$DIMSE1
 70
     0
  9
$DIMSE2
 70
     0
  9
$DIMTAD
 70
     1
  9
$DIMZIN
 70
     8
  9
$DIMBLK
  1
DOT1
  9
$DIMASO
 70
     1
  9
$DIMSHO
 70
     0
  9
$DIMPOST
  1

  9
$DIMAPOST
  1

  9
$DIMALT
 70
     0
  9
$DIMALTD
 70
     2
  9
$DIMALTF
 40
25.4
  9
$DIMLFAC
 40
1.0
  9
$DIMTOFL
 70
     1
  9
$DIMTVP
 40
0.0
  9
$DIMTIX
 70
     1
  9
$DIMSOXD
 70
     0
  9
$DIMSAH
 70
     1
  9
$DIMBLK1
  1
ORIGIN
  9
$DIMBLK2
  1
ORIGIN
  9
$DIMSTYLE
  2
STANDARD
  9
$DIMCLRD
 70
     0
  9
$DIMCLRE
 70
     0
  9
$DIMCLRT
 70
     0
  9
$DIMTFAC
 40
1.0
  9
$DIMGAP
 40
0.09
  9
$LUNITS
 70
     2
  9
$LUPREC
 70
     4
  9
$SKETCHINC
 40
0.1
  9
$FILLETRAD
 40
15.0
  9
$AUNITS
 70
     1
  9
$AUPREC
 70
     3
  9
$MENU
  1
ACAD
  9
$ELEVATION
 40
0.0
  9
$PELEVATION
 40
0.0
  9
$THICKNESS
 40
50.0
  9
$LIMCHECK
 70
     0
  9
$CHAMFERA
 40
0.0
  9
$CHAMFERB
 40
0.0
  9
$SKPOLY
 70
     0
  9
$TDCREATE
 40
2451453.493850799
  9
$TDUPDATE
 40
2457485.555270602
  9
$TDINDWG
 40
0.6100560417
  9
$TDUSRTIMER
 40
0.6100558681
  9
$USRTIMER
 70
     1
  9
$ANGBASE
 50
0.0
  9
$ANGDIR
 70
     0
  9
$PDMODE
 70
     3
  9
$PDSIZE
 40
-2.0
  9
$PLINEWID
 40
0.0
  9
$COORDS
 70
     1
  9
$SPLFRAME
 70
     0
  9
$SPLINETYPE
 70
     6
  9
$SPLINESEGS
 70
     8
  9
$ATTDIA
 70
     0
  9
$ATTREQ
 70
     1
  9
$HANDLING
 70
     1
  9
$HANDSEED
  5
459
  9
$SURFTAB1
 70
     6
  9
$SURFTAB2
 70
     6
  9
$SURFTYPE
 70
     6
  9
$SURFU
 70
     6
  9
$SURFV
 70
     6
  9
$UCSNAME
  2

  9
$UCSORG
 10
0.0
 20
0.0
 30
0.0
  9
$UCSXDIR
 10
1.0
 20
0.0
 30
0.0
  9
$UCSYDIR
 10
0.0
 20
1.0
 30
0.0
  9
$PUCSNAME
  2

  9
$PUCSORG
 10
0.0
 20
0.0
 30
0.0
  9
$PUCSXDIR
 10
1.0
 20
0.0
 30
0.0
  9
$PUCSYDIR
 10
0.0
 20
1.0
 30
0.0
  9
$USERI1
 70
     0
  9
$USERI2
 70
     0
  9
$USERI3
 70
     0
  9
$USERI4
 70
     0
  9
$USERI5
 70
     0
  9
$USERR1
 40
20.0
  9
$USERR2
 40
0.0
  9
$USERR3
 40
0.0
  9
$USERR4
 40
0.0
  9
$USERR5
 40
0.0
  9
$WORLDVIEW
 70
     1
  9
$SHADEDGE
 70
     3
  9
$SHADEDIF
 70
    70
  9
$TILEMODE
 70
     1
  9
$MAXACTVP
 70
    64
  9
$PLIMCHECK
 70
     0
  9
$PEXTMIN
 10
1.000000000000000E+20
 20
1.000000000000000E+20
 30
1.000000000000000E+20
  9
$PEXTMAX
 10
-1.000000000000000E+20
 20
-1.000000000000000E+20
 30
-1.000000000000000E+20
  9
$PLIMMIN
 10
0.0
 20
0.0
  9
$PLIMMAX
 10
12.0
 20
9.0
  9
$UNITMODE
 70
     0
  9
$VISRETAIN
 70
     1
  9
$PLINEGEN
 70
     0
  9
$PSLTSCALE
 70
     1
  0
ENDSEC
  0
SECTION
  2
TABLES
  0
TABLE
  2
VPORT
 70
     1
  0
VPORT
  2
*ACTIVE
 70
     0
 10
0.0
 20
0.0
 11
1.0
 21
1.0
 12
599.1869976602679
 22
93.57737872724967
 13
0.0
 23
0.0
 14
1.0
 24
1.0
 15
0.0
 25
0.0
 16
0.0
 26
0.0
 36
1.0
 17
0.0
 27
0.0
 37
0.0
 40
1418.750638806566
 41
1.493654822335025
 42
50.0
 43
0.0
 44
0.0
 50
0.0
 51
0.0
 71
     0
 72
   100
 73
     1
 74
     0
 75
     0
 76
     0
 77
     0
 78
     0
  0
ENDTAB
  0
TABLE
  2
LTYPE
 70
     2
  0
LTYPE
  2
CONTINUOUS
 70
     0
  3
実線
 72
    65
 73
     0
 40
0.0
  0
LTYPE
  2
DASHDOT
 70
     0
  3
____ _ ____ _ ____ _ ____ _ ____ _ ____ _ ____
 72
    65
 73
     4
 40
5.5
 49
4.0
 49
-0.6
 49
0.3
 49
-0.6
  0
ENDTAB
  0
TABLE
  2
LAYER
 70
    12
  0
LAYER
  2
0
 70
     0
 62
     7
  6
CONTINUOUS
  0
LAYER
  2
DETAIL
 70
     0
 62
     5
  6
CONTINUOUS
  0
LAYER
  2
SIZE
 70
     0
 62
    30
  6
CONTINUOUS
  0
LAYER
  2
BASIS
 70
     0
 62
     6
  6
DASHDOT
  0
LAYER
  2
OUTLINE
 70
     0
 62
     3
  6
CONTINUOUS
  0
LAYER
  2
ARRANGE
 70
     0
 62
     1
  6
CONTINUOUS
  0
LAYER
  2
DEFPOINTS
 70
     0
 62
     7
  6
CONTINUOUS
  0
LAYER
  2
ETC
 70
     0
 62
    61
  6
CONTINUOUS
  0
LAYER
  2
FIX
 70
     0
 62
    11
  6
CONTINUOUS
  0
LAYER
  2
NOTE
 70
     0
 62
     4
  6
CONTINUOUS
  0
LAYER
  2
SERVICESPACE
 70
     0
 62
     2
  6
DASHDOT
  0
LAYER
  2
SYMBOLLINE
 70
     0
 62
    15
  6
CONTINUOUS
  0
ENDTAB
  0
TABLE
  2
STYLE
 70
     1
  0
STYLE
  2
STANDARD
 70
     0
 40
64.0
 41
0.9
 50
0.0
 71
     0
 42
64.0
  3
SIMPLEX.shx
  4
BIGFONT.shx
  0
ENDTAB
  0
TABLE
  2
VIEW
 70
     1
  0
VIEW
  2
ALL
 70
     0
 40
4282.619807999997
 10
0.0
 20
41.30990399999999
 41
5940.0
 11
0.0
 21
0.0
 31
1.0
 12
0.0
 22
0.0
 32
0.0
 42
50.0
 43
0.0
 44
0.0
 50
0.0
 71
     0
  0
ENDTAB
  0
TABLE
  2
UCS
 70
     0
  0
ENDTAB
  0
TABLE
  2
APPID
 70
     1
  0
APPID
  2
ACAD
 70
     0
  0
ENDTAB
  0
TABLE
  2
DIMSTYLE
 70
     1
  0
DIMSTYLE
  2
STANDARD
 70
     0
  3

  4

  5

  6

  7

 40
1.0
 41
0.18
 42
0.0625
 43
0.38
 44
0.18
 45
0.0
 46
0.0
 47
0.0
 48
0.0
140
0.18
141
0.09
142
0.0
143
25.4
144
1.0
145
0.0
146
1.0
147
0.09
 71
     0
 72
     0
 73
     1
 74
     1
 75
     0
 76
     0
 77
     0
 78
     0
170
     0
171
     2
172
     0
173
     0
174
     0
175
     0
176
     0
177
     0
178
     0
  0
ENDTAB
  0
ENDSEC
  0
SECTION
  2
BLOCKS
  0
BLOCK
  8
0
  2
$MODEL_SPACE
 70
     0
 10
0.0
 20
0.0
 30
0.0
  3
$MODEL_SPACE
  1

  0
ENDBLK
  5
2D5
  8
0
  0
BLOCK
 67
     1
  8
0
  2
$PAPER_SPACE
 70
     0
 10
0.0
 20
0.0
 30
0.0
  3
$PAPER_SPACE
  1

  0
ENDBLK
  5
2D1
 67
     1
  8
0
  0
BLOCK
  8
0
  2
DOT1
 70
     0
 10
0.0
 20
0.0
 30
0.0
  3
DOT1
  1

  0
CIRCLE
  5
2F0
  8
SIZE
  6
CONTINUOUS
 62
     7
 10
0.0
 20
0.0
 30
0.0
 40
3.0
  0
ENDBLK
  5
2F1
  8
0
  0
BLOCK
  8
0
  2
_ORIGIN
 70
     0
 10
0.0
 20
0.0
 30
0.0
  3
_ORIGIN
  1

  0
CIRCLE
  5
2F4
  8
0
  6
CONTINUOUS
 62
     7
 10
0.0
 20
0.0
 30
0.0
 40
0.5
  0
LINE
  5
2F5
  8
0
  6
CONTINUOUS
 62
     7
 10
0.0
 20
0.0
 30
0.0
 11
-1.0
 21
0.0
 31
0.0
  0
ENDBLK
  5
2F6
  8
0
  0
ENDSEC
  0
SECTION
  2
ENTITIES
  0
LINE
  5
2F7
  8
BASIS
  6
DASHDOT
 62
     6
 10
185.6472989999999
 20
0.0
 30
0.0
 11
-158.877575
 21
0.0
 31
0.0
  0
POINT
  5
2F8
  8
ARRANGE
  6
CONTINUOUS
 62
     1
 10
0.0
 20
0.0
 30
0.0
  0
LINE
  5
2F9
  8
DETAIL
  6
CONTINUOUS
 62
     5
 10
148.9999999999999
 20
211.4999999999998
 30
0.0
 11
0.0
 21
211.4999999999998
 31
0.0
  0
LINE
  5
2FA
  8
DETAIL
  6
CONTINUOUS
 62
     5
 10
148.9999999999999
 20
-211.4999999999999
 30
0.0
 11
0.0
 21
-211.4999999999999
 31
0.0
  0
LINE
  5
2FB
  8
NOTE
  6
CONTINUOUS
 62
     4
 10
0.0
 20
229.9999999999999
 30
0.0
 11
237.1235005030624
 21
390.8710215793037
 31
0.0
  0
LINE
  5
2FC
  8
NOTE
  6
CONTINUOUS
 62
     4
 10
233.2182928810347
 20
390.8710215793037
 30
0.0
 11
526.1862128810349
 21
390.8710215793037
 31
0.0
  0
LINE
  5
2FD
  8
NOTE
  6
CONTINUOUS
 62
     4
 10
0.0
 20
249.9137989999998
 30
0.0
 11
0.0
 21
195.4310389999999
 31
0.0
  0
LINE
  5
2FE
  8
DETAIL
  6
CONTINUOUS
 62
     5
 10
0.0
 20
258.9999999999999
 30
0.0
 11
0.0
 21
214.500005
 31
0.0
  0
CIRCLE
  5
2FF
  8
ARRANGE
  6
CONTINUOUS
 62
     1
 10
0.0
 20
0.0
 30
0.0
 40
54.48275999999999
  0
LINE
  5
300
  8
DETAIL
  6
CONTINUOUS
 62
     5
 10
0.0
 20
-214.5000049999999
 30
0.0
 11
0.0
 21
-258.9999999999999
 31
0.0
  0
LINE
  5
301
  8
DETAIL
  6
CONTINUOUS
 62
     5
 10
0.0
 20
214.500005
 30
0.0
 11
0.0
 21
-214.5000049999999
 31
0.0
  0
LINE
  5
302
  8
NOTE
  6
CONTINUOUS
 62
     4
 10
-20.0
 20
229.9999999999999
 30
0.0
 11
19.9999999999998
 21
229.9999999999999
 31
0.0
  0
LINE
  5
303
  8
NOTE
  6
CONTINUOUS
 62
     4
 10
0.0
 20
249.9999999999998
 30
0.0
 11
0.0
 21
209.9999999999999
 31
0.0
  0
LINE
  5
304
  8
NOTE
  6
CONTINUOUS
 62
     4
 10
-20.0
 20
-230.0
 30
0.0
 11
19.9999999999998
 21
-230.0
 31
0.0
  0
LINE
  5
305
  8
NOTE
  6
CONTINUOUS
 62
     4
 10
0.0
 20
-209.9999999999999
 30
0.0
 11
0.0
 21
-249.9999999999999
 31
0.0
  0
TEXT
  5
306
  8
NOTE
  6
CONTINUOUS
 62
     4
 10
235.7509718810347
 20
417.1370075793037
 30
0.0
 40
64.0
  1
4-φ14
 41
0.9
  0
LINE
  5
307
  8
NOTE
  6
CONTINUOUS
 62
     4
 10
23.6389671013979
 20
262.0532421522442
 30
0.0
 11
0.0
 21
229.9999999999999
 31
0.0
  0
LINE
  5
308
  8
NOTE
  6
CONTINUOUS
 62
     4
 10
0.0
 20
229.9999999999999
 30
0.0
 11
40.5615191839133
 21
239.9330195024852
 31
0.0
  0
LINE
  5
309
  8
DETAIL
  6
CONTINUOUS
 62
     5
 10
158.9999999999998
 20
201.4999999999999
 30
0.0
 11
158.9999999999998
 21
-201.4999999999999
 31
0.0
  0
LINE
  5
30A
  8
SIZE
  6
CONTINUOUS
 62
    30
 10
158.9999999999998
 20
231.4999999999999
 30
0.0
 11
158.9999999999998
 21
551.8936219999997
 31
0.0
  0
LINE
  5
30B
  8
SIZE
  6
CONTINUOUS
 62
    30
 10
0.0
 20
278.9999999999999
 30
0.0
 11
0.0
 21
551.8936219999997
 31
0.0
  0
LINE
  5
30C
  8
SIZE
  6
CONTINUOUS
 62
    30
 10
146.9999999999999
 20
531.8936219999997
 30
0.0
 11
12.0
 21
531.8936219999997
 31
0.0
  0
TEXT
  5
30D
  8
SIZE
  6
CONTINUOUS
 62
    30
 10
-5.528571428571638
 20
555.502991
 30
0.0
 40
64.0
  1
159
 41
0.9
 72
     1
 11
79.4999999999998
 21
555.502991
 31
0.0
  0
CIRCLE
  5
30E
  8
SIZE
  6
CONTINUOUS
 62
    30
 10
158.9999999999998
 20
531.8936219999997
 30
0.0
 40
6.0
  0
LINE
  5
30F
  8
SIZE
  6
CONTINUOUS
 62
    30
 10
158.9999999999998
 20
531.8936219999997
 30
0.0
 11
146.9999999999999
 21
531.8936219999997
 31
0.0
  0
CIRCLE
  5
310
  8
SIZE
  6
CONTINUOUS
 62
    30
 10
0.0
 20
531.8936219999997
 30
0.0
 40
6.0
  0
LINE
  5
311
  8
SIZE
  6
CONTINUOUS
 62
    30
 10
0.0
 20
531.8936219999997
 30
0.0
 11
12.0
 21
531.8936219999997
 31
0.0
  0
LINE
  5
312
  8
SIZE
  6
CONTINUOUS
 62
    30
 10
0.0
 20
278.9999999999999
 30
0.0
 11
0.0
 21
551.8936219999997
 31
0.0
  0
LINE
  5
313
  8
SIZE
  6
CONTINUOUS
 62
    30
 10
-92.00000000000003
 20
265.776744
 30
0.0
 11
-92.00000000000003
 21
551.8936219999997
 31
0.0
  0
LINE
  5
314
  8
SIZE
  6
CONTINUOUS
 62
    30
 10
-11.99999999999999
 20
531.8936219999997
 30
0.0
 11
-80.0
 21
531.8936219999997
 31
0.0
  0
TEXT
  5
315
  8
SIZE
  6
CONTINUOUS
 62
    30
 10
-212.9523108571429
 20
558.0121289999998
 30
0.0
 40
64.0
  1
92
 41
0.9
 72
     1
 11
-158.095168
 21
558.0121289999998
 31
0.0
  0
CIRCLE
  5
316
  8
SIZE
  6
CONTINUOUS
 62
    30
 10
0.0
 20
531.8936219999997
 30
0.0
 40
6.0
  0
LINE
  5
317
  8
SIZE
  6
CONTINUOUS
 62
    30
 10
0.0
 20
531.8936219999997
 30
0.0
 11
-11.99999999999999
 21
531.8936219999997
 31
0.0
  0
CIRCLE
  5
318
  8
SIZE
  6
CONTINUOUS
 62
    30
 10
-92.00000000000003
 20
531.8936219999997
 30
0.0
 40
6.0
  0
LINE
  5
319
  8
SIZE
  6
CONTINUOUS
 62
    30
 10
-92.00000000000003
 20
531.8936219999997
 30
0.0
 11
-80.0
 21
531.8936219999997
 31
0.0
  0
LINE
  5
31A
  8
SIZE
  6
CONTINUOUS
 62
    30
 10
-92.00000000000003
 20
265.776744
 30
0.0
 11
-92.00000000000003
 21
415.5785259999999
 31
0.0
  0
LINE
  5
31B
  8
SIZE
  6
CONTINUOUS
 62
    30
 10
-124.9999999999999
 20
163.2366289999999
 30
0.0
 11
-124.9999999999999
 21
415.5785259999999
 31
0.0
  0
LINE
  5
31C
  8
SIZE
  6
CONTINUOUS
 62
    30
 10
-80.0
 20
395.5785259999999
 30
0.0
 11
-68.0
 21
395.5785259999999
 31
0.0
  0
LINE
  5
31D
  8
SIZE
  6
CONTINUOUS
 62
    30
 10
-136.9999999999999
 20
395.5785259999999
 30
0.0
 11
-148.9999999999999
 21
395.5785259999999
 31
0.0
  0
TEXT
  5
31E
  8
SIZE
  6
CONTINUOUS
 62
    30
 10
-249.9116398571428
 20
420.009619
 30
0.0
 40
64.0
  1
33
 41
0.9
 72
     1
 11
-195.054497
 21
420.009619
 31
0.0
  0
LINE
  5
31F
  8
SIZE
  6
CONTINUOUS
 62
    30
 10
-92.00000000000003
 20
395.5785259999999
 30
0.0
 11
-124.9999999999999
 21
395.5785259999999
 31
0.0
  0
LINE
  5
320
  8
SIZE
  6
CONTINUOUS
 62
    30
 10
-92.00000000000003
 20
395.5785259999999
 30
0.0
 11
-124.9999999999999
 21
395.5785259999999
 31
0.0
  0
CIRCLE
  5
321
  8
SIZE
  6
CONTINUOUS
 62
    30
 10
-92.00000000000003
 20
395.5785259999999
 30
0.0
 40
6.0
  0
LINE
  5
322
  8
SIZE
  6
CONTINUOUS
 62
    30
 10
-92.00000000000003
 20
395.5785259999999
 30
0.0
 11
-80.0
 21
395.5785259999999
 31
0.0
  0
CIRCLE
  5
323
  8
SIZE
  6
CONTINUOUS
 62
    30
 10
-124.9999999999999
 20
395.5785259999999
 30
0.0
 40
6.0
  0
LINE
  5
324
  8
SIZE
  6
CONTINUOUS
 62
    30
 10
-124.9999999999999
 20
395.5785259999999
 30
0.0
 11
-136.9999999999999
 21
395.5785259999999
 31
0.0
  0
LINE
  5
325
  8
SIZE
  6
CONTINUOUS
 62
    30
 10
-124.9999999999999
 20
395.5785259999999
 30
0.0
 11
-246.809509
 21
395.5785259999999
 31
0.0
  0
LINE
  5
326
  8
SIZE
  6
CONTINUOUS
 62
    30
 10
-94.0
 20
531.8936219999997
 30
0.0
 11
-208.498502
 21
531.8936219999997
 31
0.0
  0
LINE
  5
327
  8
OUTLINE
  6
CONTINUOUS
 62
     3
 10
158.9999999999998
 20
201.4999999999999
 30
0.0
 11
158.9999999999998
 21
-201.4999999999999
 31
0.0
  0
LINE
  5
328
  8
OUTLINE
  6
CONTINUOUS
 62
     3
 10
0.0
 20
214.500005
 30
0.0
 11
0.0
 21
-214.5000049999999
 31
0.0
  0
LINE
  5
329
  8
OUTLINE
  6
CONTINUOUS
 62
     3
 10
0.0
 20
-214.5000049999999
 30
0.0
 11
0.0
 21
-258.9999999999999
 31
0.0
  0
LINE
  5
32A
  8
OUTLINE
  6
CONTINUOUS
 62
     3
 10
0.0
 20
258.9999999999999
 30
0.0
 11
0.0
 21
214.500005
 31
0.0
  0
LINE
  5
32B
  8
OUTLINE
  6
CONTINUOUS
 62
     3
 10
148.9999999999999
 20
-211.4999999999999
 30
0.0
 11
0.0
 21
-211.4999999999999
 31
0.0
  0
LINE
  5
32C
  8
OUTLINE
  6
CONTINUOUS
 62
     3
 10
148.9999999999999
 20
211.4999999999998
 30
0.0
 11
0.0
 21
211.4999999999998
 31
0.0
  0
LINE
  5
32D
  8
SIZE
  6
CONTINUOUS
 62
    30
 10
39.9999999999998
 20
229.9999999999999
 30
0.0
 11
539.1260090791338
 21
229.9999999999999
 31
0.0
  0
LINE
  5
32E
  8
SIZE
  6
CONTINUOUS
 62
    30
 10
39.9999999999998
 20
-230.0
 30
0.0
 11
543.0312131312603
 21
-230.0
 31
0.0
  0
LINE
  5
32F
  8
SIZE
  6
CONTINUOUS
 62
    30
 10
517.0790074323822
 20
217.9999999999999
 30
0.0
 11
517.0790074323822
 21
-217.9999999999999
 31
0.0
  0
TEXT
  5
330
  8
SIZE
  6
CONTINUOUS
 62
    30
 10
491.368146432382
 20
-82.28571428571429
 30
0.0
 40
64.0
  1
460
 50
90.0
 41
0.9
 72
     1
 11
491.368146432382
 21
0.0
 31
0.0
  0
CIRCLE
  5
331
  8
SIZE
  6
CONTINUOUS
 62
    30
 10
517.0790074323822
 20
229.9999999999999
 30
0.0
 40
6.0
  0
LINE
  5
332
  8
SIZE
  6
CONTINUOUS
 62
    30
 10
517.0790074323822
 20
229.9999999999999
 30
0.0
 11
517.0790074323822
 21
217.9999999999999
 31
0.0
  0
CIRCLE
  5
333
  8
SIZE
  6
CONTINUOUS
 62
    30
 10
517.0790074323822
 20
-230.0
 30
0.0
 40
6.0
  0
LINE
  5
334
  8
SIZE
  6
CONTINUOUS
 62
    30
 10
517.0790074323822
 20
-230.0
 30
0.0
 11
517.0790074323822
 21
-217.9999999999999
 31
0.0
  0
LINE
  5
335
  8
SIZE
  6
CONTINUOUS
 62
    30
 10
19.9999999999998
 20
258.9999999999999
 30
0.0
 11
684.9203234410334
 21
258.9999999999999
 31
0.0
  0
LINE
  5
336
  8
SIZE
  6
CONTINUOUS
 62
    30
 10
19.9999999999998
 20
-258.9999999999999
 30
0.0
 11
688.8255310630609
 21
-258.9999999999999
 31
0.0
  0
LINE
  5
337
  8
SIZE
  6
CONTINUOUS
 62
    30
 10
662.790831432382
 20
246.9999999999999
 30
0.0
 11
662.790831432382
 21
-246.9999999999999
 31
0.0
  0
TEXT
  5
338
  8
SIZE
  6
CONTINUOUS
 62
    30
 10
637.8728344323822
 20
-106.9714285714286
 30
0.0
 40
64.0
  1
□518
 50
90.0
 41
0.9
 72
     1
 11
637.8728344323822
 21
0.0
 31
0.0
  0
CIRCLE
  5
339
  8
SIZE
  6
CONTINUOUS
 62
    30
 10
662.790831432382
 20
258.9999999999999
 30
0.0
 40
6.0
  0
LINE
  5
33A
  8
SIZE
  6
CONTINUOUS
 62
    30
 10
662.790831432382
 20
258.9999999999999
 30
0.0
 11
662.790831432382
 21
246.9999999999999
 31
0.0
  0
CIRCLE
  5
33B
  8
SIZE
  6
CONTINUOUS
 62
    30
 10
662.790831432382
 20
-258.9999999999999
 30
0.0
 40
6.0
  0
LINE
  5
33C
  8
SIZE
  6
CONTINUOUS
 62
    30
 10
662.790831432382
 20
-258.9999999999999
 30
0.0
 11
662.790831432382
 21
-246.9999999999999
 31
0.0
  0
LINE
  5
33D
  8
SIZE
  6
CONTINUOUS
 62
    30
 10
178.9999999999998
 20
211.4999999999998
 30
0.0
 11
408.9525144956409
 21
211.4999999999998
 31
0.0
  0
LINE
  5
33E
  8
SIZE
  6
CONTINUOUS
 62
    30
 10
178.9999999999998
 20
-211.4999999999999
 30
0.0
 11
411.5559826737583
 21
-211.4999999999999
 31
0.0
  0
LINE
  5
33F
  8
SIZE
  6
CONTINUOUS
 62
    30
 10
385.3274204323821
 20
199.4999999999999
 30
0.0
 11
385.3274204323821
 21
-199.4999999999998
 31
0.0
  0
TEXT
  5
340
  8
SIZE
  6
CONTINUOUS
 62
    30
 10
358.5554914323821
 20
-106.9714285714286
 30
0.0
 40
64.0
  1
□423
 50
90.0
 41
0.9
 72
     1
 11
358.5554914323821
 21
0.0
 31
0.0
  0
CIRCLE
  5
341
  8
SIZE
  6
CONTINUOUS
 62
    30
 10
385.3274204323821
 20
211.4999999999998
 30
0.0
 40
6.0
  0
LINE
  5
342
  8
SIZE
  6
CONTINUOUS
 62
    30
 10
385.3274204323821
 20
211.4999999999998
 30
0.0
 11
385.3274204323821
 21
199.4999999999999
 31
0.0
  0
CIRCLE
  5
343
  8
SIZE
  6
CONTINUOUS
 62
    30
 10
385.3274204323821
 20
-211.4999999999999
 30
0.0
 40
6.0
  0
LINE
  5
344
  8
SIZE
  6
CONTINUOUS
 62
    30
 10
385.3274204323821
 20
-211.4999999999999
 30
0.0
 11
385.3274204323821
 21
-199.4999999999998
 31
0.0
  0
LINE
  5
345
  8
DETAIL
  6
CONTINUOUS
 62
     5
 10
-92.00000000000003
 20
245.7767439999999
 30
0.0
 11
-92.00000000000003
 21
-245.776744
 31
0.0
  0
LINE
  5
346
  8
OUTLINE
  6
CONTINUOUS
 62
     3
 10
-92.00000000000003
 20
245.7767439999999
 30
0.0
 11
-92.00000000000003
 21
-245.776744
 31
0.0
  0
ARC
  5
347
  8
DETAIL
  6
CONTINUOUS
 62
     5
 10
-82.00000000000001
 20
-245.776744
 30
0.0
 40
10.0
 50
180.0
 51
267.754338
  0
ARC
  5
348
  8
OUTLINE
  6
CONTINUOUS
 62
     3
 10
-82.00000000000001
 20
-245.776744
 30
0.0
 40
10.0
 50
180.0
 51
267.754338
  0
ARC
  5
349
  8
DETAIL
  6
CONTINUOUS
 62
     5
 10
-82.00000000000001
 20
245.7767439999999
 30
0.0
 40
10.0
 50
92.245662
 51
180.0
  0
ARC
  5
34A
  8
OUTLINE
  6
CONTINUOUS
 62
     3
 10
-82.00000000000001
 20
245.7767439999999
 30
0.0
 40
10.0
 50
92.245662
 51
180.0
  0
LINE
  5
34B
  8
DETAIL
  6
CONTINUOUS
 62
     5
 10
0.0
 20
-258.9999999999999
 30
0.0
 11
-82.391842
 21
-255.769064
 31
0.0
  0
LINE
  5
34C
  8
OUTLINE
  6
CONTINUOUS
 62
     3
 10
0.0
 20
-258.9999999999999
 30
0.0
 11
-82.391842
 21
-255.769064
 31
0.0
  0
LINE
  5
34D
  8
DETAIL
  6
CONTINUOUS
 62
     5
 10
0.0
 20
258.9999999999999
 30
0.0
 11
-82.391842
 21
255.7690639999998
 31
0.0
  0
LINE
  5
34E
  8
OUTLINE
  6
CONTINUOUS
 62
     3
 10
0.0
 20
258.9999999999999
 30
0.0
 11
-82.391842
 21
255.7690639999998
 31
0.0
  0
CIRCLE
  5
34F
  8
FIX
  6
CONTINUOUS
 62
    11
 39
50.0
 10
0.0
 20
229.9999999999999
 30
0.0
 40
7.0
  0
CIRCLE
  5
350
  8
FIX
  6
CONTINUOUS
 62
    11
 39
50.0
 10
0.0
 20
-230.0
 30
0.0
 40
7.0
  0
ARC
  5
351
  8
DETAIL
  6
CONTINUOUS
 62
     5
 10
-144.0347599999999
 20
-76.39761200000002
 30
0.0
 40
202.484349
 50
75.10896099999997
 51
80.629621
  0
ARC
  5
352
  8
DETAIL
  6
CONTINUOUS
 62
     5
 10
-56.78257500000001
 20
108.547731
 30
0.0
 40
80.45270399999997
 50
124.95553
 51
141.996357
  0
LINE
  5
353
  8
DETAIL
  6
CONTINUOUS
 62
     5
 10
-111.06709
 20
123.38488
 30
0.0
 11
-117.3484789999999
 21
126.652124
 31
0.0
  0
ARC
  5
354
  8
DETAIL
  6
CONTINUOUS
 62
     5
 10
-104.040396
 20
144.634646
 30
0.0
 40
21.006176
 50
140.1911629999996
 51
176.1839909999999
  0
LINE
  5
355
  8
DETAIL
  6
CONTINUOUS
 62
     5
 10
-117.3484789999999
 20
126.652124
 30
0.0
 11
-120.764523
 21
128.717708
 31
0.0
  0
LINE
  5
356
  8
DETAIL
  6
CONTINUOUS
 62
     5
 10
-121.356705
 20
129.26609
 30
0.0
 11
-123.659257
 21
132.4871919999999
 31
0.0
  0
LINE
  5
357
  8
DETAIL
  6
CONTINUOUS
 62
     5
 10
-124.0124429999999
 20
133.369746
 30
0.0
 11
-124.9999999999999
 21
140.3412299999999
 31
0.0
  0
ARC
  5
358
  8
DETAIL
  6
CONTINUOUS
 62
     5
 10
-119.72966
 20
130.429157
 30
0.0
 40
2.0
 50
215.5584680000005
 51
238.839852
  0
ARC
  5
359
  8
DETAIL
  6
CONTINUOUS
 62
     5
 10
-122.0322119999999
 20
133.650259
 30
0.0
 40
2.0
 50
188.0626839999999
 51
215.5584679999995
  0
LINE
  5
35A
  8
DETAIL
  6
CONTINUOUS
 62
     5
 10
-124.9999999999999
 20
146.032664
 30
0.0
 11
-124.9999999999999
 21
143.2366289999999
 31
0.0
  0
LINE
  5
35B
  8
DETAIL
  6
CONTINUOUS
 62
     5
 10
-124.9999999999999
 20
143.2366289999999
 30
0.0
 11
-124.9999999999999
 21
140.3412299999999
 31
0.0
  0
LINE
  5
35C
  8
DETAIL
  6
CONTINUOUS
 62
     5
 10
-92.00000000000003
 20
175.236629
 30
0.0
 11
-93.65574
 21
175.2075179999997
 31
0.0
  0
ARC
  5
35D
  8
DETAIL
  6
CONTINUOUS
 62
     5
 10
-93.489348
 20
113.74817
 30
0.0
 40
61.459573
 50
90.15511900000001
 51
98.78622099999998
  0
ARC
  5
35E
  8
DETAIL
  6
CONTINUOUS
 62
     5
 10
-54.338323
 20
9.98200700000001
 30
0.0
 40
57.837425
 50
186.0583409999998
 51
229.370544
  0
ARC
  5
35F
  8
DETAIL
  6
CONTINUOUS
 62
     5
 10
-16.16212200000001
 20
-14.02761900000003
 30
0.0
 40
107.3088749999999
 50
169.5351180000001
 51
225.0309169999999
  0
ARC
  5
360
  8
DETAIL
  6
CONTINUOUS
 62
     5
 10
49.5983029999999
 20
-213.342472
 30
0.0
 40
187.820198
 50
138.929651
 51
156.154694
  0
ARC
  5
361
  8
DETAIL
  6
CONTINUOUS
 62
     5
 10
-116.840214
 20
4.231237999999991
 30
0.0
 40
5.0
 50
355.9463129999999
 51
165.7359149999997
  0
ARC
  5
362
  8
DETAIL
  6
CONTINUOUS
 62
     5
 10
-14.89534800000003
 20
-142.079105
 30
0.0
 40
107.395697
 50
143.920476
 51
177.5096560000001
  0
TEXT
  5
363
  8
ETC
  6
CONTINUOUS
 62
    61
 10
645.7490459778778
 20
604.91490531612
 30
0.0
 40
64.0
  1
EFG-40STB_4
 41
0.9
  0
TEXT
  5
364
  8
ETC
  6
CONTINUOUS
 62
    61
 10
722.2938932521981
 20
422.4369100873946
 30
0.0
 40
50.0
  1
EFG-40STB
 41
0.9
  0
TEXT
  5
365
  8
ETC
  6
CONTINUOUS
 62
    61
 10
637.6755679778778
 20
506.89618031612
 30
0.0
 40
64.0
  1
産業扇
 41
0.9
  0
ARC
  5
366
  8
DETAIL
  6
CONTINUOUS
 62
     5
 10
148.9999999999999
 20
201.4999999999999
 30
0.0
 40
10.0
 50
0.0
 51
90.0
  0
ARC
  5
367
  8
DETAIL
  6
CONTINUOUS
 62
     5
 10
148.9999999999999
 20
201.4999999999999
 30
0.0
 40
10.0
 50
0.0
 51
90.0
  0
ARC
  5
368
  8
DETAIL
  6
CONTINUOUS
 62
     5
 10
148.9999999999999
 20
201.4999999999999
 30
0.0
 40
10.0
 50
0.0
 51
90.0
  0
ARC
  5
369
  8
DETAIL
  6
CONTINUOUS
 62
     5
 10
148.9999999999999
 20
201.4999999999999
 30
0.0
 40
10.0
 50
0.0
 51
90.0
  0
ARC
  5
36A
  8
DETAIL
  6
CONTINUOUS
 62
     5
 10
148.9999999999999
 20
201.4999999999999
 30
0.0
 40
10.0
 50
0.0
 51
90.0
  0
ARC
  5
36B
  8
DETAIL
  6
CONTINUOUS
 62
     5
 10
148.9999999999999
 20
-201.4999999999999
 30
0.0
 40
10.0
 50
270.0
 51
0.0
  0
ARC
  5
36C
  8
OUTLINE
  6
CONTINUOUS
 62
     3
 10
148.9999999999999
 20
201.4999999999999
 30
0.0
 40
10.0
 50
0.0
 51
90.0
  0
ARC
  5
36D
  8
OUTLINE
  6
CONTINUOUS
 62
     3
 10
148.9999999999999
 20
-201.4999999999999
 30
0.0
 40
10.0
 50
270.0
 51
0.0
  0
LINE
  5
36E
  8
SIZE
  6
CONTINUOUS
 62
    30
 10
201.9999999999998
 20
142.2811611201623
 30
0.0
 11
201.9999999999998
 21
551.8936219999997
 31
0.0
  0
LINE
  5
36F
  8
SIZE
  6
CONTINUOUS
 62
    30
 39
50.0
 10
158.9999999999998
 20
531.8936219999997
 30
0.0
 11
347.7709712560212
 21
531.8936219999997
 31
0.0
  0
CIRCLE
  5
370
  8
SIZE
  6
CONTINUOUS
 62
    30
 39
50.0
 10
201.9999999999998
 20
531.8936219999997
 30
0.0
 40
6.0
  0
TEXT
  5
371
  8
SIZE
  6
CONTINUOUS
 62
    30
 10
216.6202241243035
 20
558.0121289999998
 30
0.0
 40
64.0
  1
43
 41
0.9
 72
     1
 11
271.4773669814463
 21
558.0121289999998
 31
0.0
  0
LINE
  5
372
  8
DETAIL
  6
CONTINUOUS
 62
     5
 39
50.0
 10
158.9999999999998
 20
168.4999999999999
 30
0.0
 11
195.3878935520611
 21
143.956055889179
 31
0.0
  0
LINE
  5
373
  8
DETAIL
  6
CONTINUOUS
 62
     5
 39
50.0
 10
158.9999999999998
 20
73.49999999999997
 30
0.0
 11
195.3878935520611
 21
48.95605588917904
 31
0.0
  0
LINE
  5
374
  8
DETAIL
  6
CONTINUOUS
 62
     5
 39
50.0
 10
158.9999999999998
 20
-21.50000000000001
 30
0.0
 11
195.3878935520611
 21
-46.04394411082093
 31
0.0
  0
LINE
  5
375
  8
DETAIL
  6
CONTINUOUS
 62
     5
 39
50.0
 10
158.9999999999998
 20
-116.4999999999999
 30
0.0
 11
195.3878935520611
 21
-141.0439441108208
 31
0.0
  0
LINE
  5
376
  8
DETAIL
  6
CONTINUOUS
 62
     5
 39
50.0
 10
157.6020177413229
 20
166.4274060686122
 30
0.0
 11
192.8878935520611
 21
142.6267823100254
 31
0.0
  0
LINE
  5
377
  8
DETAIL
  6
CONTINUOUS
 62
     5
 39
50.0
 10
157.6020177413229
 20
71.42740606861237
 30
0.0
 11
192.8878935520611
 21
47.62678231002535
 31
0.0
  0
LINE
  5
378
  8
DETAIL
  6
CONTINUOUS
 62
     5
 39
50.0
 10
157.6020177413229
 20
-23.57259393138762
 30
0.0
 11
192.8878935520611
 21
-47.37321768997454
 31
0.0
  0
LINE
  5
379
  8
DETAIL
  6
CONTINUOUS
 62
     5
 39
50.0
 10
157.6020177413229
 20
-118.5725939313874
 30
0.0
 11
192.8878935520611
 21
-142.3732176899744
 31
0.0
  0
LINE
  5
37A
  8
DETAIL
  6
CONTINUOUS
 62
     5
 39
50.0
 10
201.9999999999998
 20
131.5204923008534
 30
0.0
 11
201.9999999999998
 21
129.4961337757756
 31
0.0
  0
LINE
  5
37B
  8
DETAIL
  6
CONTINUOUS
 62
     5
 39
50.0
 10
199.4999999999999
 20
130.1912187216997
 30
0.0
 11
199.4999999999999
 21
129.4961337757756
 31
0.0
  0
LINE
  5
37C
  8
DETAIL
  6
CONTINUOUS
 62
     5
 39
50.0
 10
199.4999999999999
 20
129.4961337757756
 30
0.0
 11
201.9999999999998
 21
129.4961337757756
 31
0.0
  0
LINE
  5
37D
  8
DETAIL
  6
CONTINUOUS
 62
     5
 39
50.0
 10
199.4999999999999
 20
34.49613377577563
 30
0.0
 11
201.9999999999998
 21
34.49613377577563
 31
0.0
  0
LINE
  5
37E
  8
DETAIL
  6
CONTINUOUS
 62
     5
 39
50.0
 10
199.4999999999999
 20
-60.50386622422423
 30
0.0
 11
201.9999999999998
 21
-60.50386622422423
 31
0.0
  0
LINE
  5
37F
  8
DETAIL
  6
CONTINUOUS
 62
     5
 39
50.0
 10
199.4999999999999
 20
-155.5038662242242
 30
0.0
 11
201.9999999999998
 21
-155.5038662242242
 31
0.0
  0
LINE
  5
380
  8
DETAIL
  6
CONTINUOUS
 62
     5
 39
50.0
 10
201.9999999999998
 20
-153.4795076991463
 30
0.0
 11
201.9999999999998
 21
-155.5038662242242
 31
0.0
  0
LINE
  5
381
  8
DETAIL
  6
CONTINUOUS
 62
     5
 39
50.0
 10
199.4999999999999
 20
-154.8087812783
 30
0.0
 11
199.4999999999999
 21
-155.5038662242242
 31
0.0
  0
LINE
  5
382
  8
DETAIL
  6
CONTINUOUS
 62
     5
 39
50.0
 10
201.9999999999998
 20
-58.47950769914644
 30
0.0
 11
201.9999999999998
 21
-60.50386622422423
 31
0.0
  0
LINE
  5
383
  8
DETAIL
  6
CONTINUOUS
 62
     5
 39
50.0
 10
199.4999999999999
 20
-59.80878127830003
 30
0.0
 11
199.4999999999999
 21
-60.50386622422423
 31
0.0
  0
LINE
  5
384
  8
DETAIL
  6
CONTINUOUS
 62
     5
 39
50.0
 10
202.0
 20
36.52049230085349
 30
0.0
 11
201.9999999999998
 21
34.49613377577563
 31
0.0
  0
LINE
  5
385
  8
DETAIL
  6
CONTINUOUS
 62
     5
 39
50.0
 10
199.4999999999999
 20
35.19121872169973
 30
0.0
 11
199.4999999999999
 21
34.49613377577563
 31
0.0
  0
ARC
  5
386
  8
DETAIL
  6
CONTINUOUS
 62
     5
 39
50.0
 10
184.4999999999999
 20
-154.8087812783
 30
0.0
 40
15.0
 50
0.0
 51
56.00000000000003
  0
ARC
  5
387
  8
DETAIL
  6
CONTINUOUS
 62
     5
 39
50.0
 10
186.9999999999998
 20
-153.4795076991463
 30
0.0
 40
15.0
 50
0.0
 51
56.00000000000003
  0
ARC
  5
388
  8
DETAIL
  6
CONTINUOUS
 62
     5
 39
50.0
 10
184.4999999999999
 20
-59.80878127830003
 30
0.0
 40
15.0
 50
0.0
 51
56.0
  0
ARC
  5
389
  8
DETAIL
  6
CONTINUOUS
 62
     5
 39
50.0
 10
186.9999999999998
 20
-58.47950769914644
 30
0.0
 40
15.0
 50
0.0
 51
56.0
  0
ARC
  5
38A
  8
DETAIL
  6
CONTINUOUS
 62
     5
 39
50.0
 10
184.4999999999999
 20
35.19121872169973
 30
0.0
 40
15.0
 50
0.0
 51
56.00000000000002
  0
ARC
  5
38B
  8
DETAIL
  6
CONTINUOUS
 62
     5
 39
50.0
 10
186.9999999999998
 20
36.52049230085343
 30
0.0
 40
15.0
 50
0.0
 51
56.00000000000002
  0
ARC
  5
38C
  8
DETAIL
  6
CONTINUOUS
 62
     5
 39
50.0
 10
184.4999999999999
 20
130.1912187216997
 30
0.0
 40
15.0
 50
0.0
 51
55.99999999999997
  0
ARC
  5
38D
  8
DETAIL
  6
CONTINUOUS
 62
     5
 39
50.0
 10
186.9999999999998
 20
131.5204923008534
 30
0.0
 40
15.0
 50
0.0
 51
56.00000000000003
  0
TEXT
  5
38E
  8
NOTE
  6
CONTINUOUS
 62
     4
 10
115.8761998627044
 20
-352.2369130917878
 30
0.0
 40
64.0
  1
EL
 41
0.9
  0
LINE
  5
38F
  8
NOTE
  6
CONTINUOUS
 62
     4
 10
211.9352162912759
 20
-367.0036390917876
 30
0.0
 11
102.9085922912757
 21
-367.0036390917876
 31
0.0
  0
LINE
  5
390
  8
NOTE
  6
CONTINUOUS
 62
     4
 10
0.0
 20
-209.9999999999999
 30
0.0
 11
102.9085922912757
 21
-367.0036390917876
 31
0.0
  0
LINE
  5
391
  8
NOTE
  6
CONTINUOUS
 62
     4
 10
29.80576999999991
 20
-236.6761329999999
 30
0.0
 11
0.0
 21
-209.9999999999999
 31
0.0
  0
LINE
  5
392
  8
NOTE
  6
CONTINUOUS
 62
     4
 10
0.0
 20
-209.9999999999999
 30
0.0
 11
12.47448799999989
 21
-248.0050939999999
 31
0.0
  0
LINE
  5
393
  8
NOTE
  6
CONTINUOUS
 62
     4
 10
-20.0
 20
-209.9999999999999
 30
0.0
 11
19.9999999999998
 21
-209.9999999999999
 31
0.0
  0
LINE
  5
394
  8
NOTE
  6
CONTINUOUS
 62
     4
 10
0.0
 20
-189.9999999999998
 30
0.0
 11
0.0
 21
-230.0
 31
0.0
  0
ENDSEC
  0
EOF
