  0
SECTION
  2
HEADER
  9
$ACADVER
  1
AC1009
  9
$INSBASE
 10
0.0
 20
0.0
 30
0.0
  9
$EXTMIN
 10
-511.19383096368432
 20
-496.3531377682848
 30
-0.0000000349181948
  9
$EXTMAX
 10
875.10224527807623
 20
674.19434405652999
 30
0.0000000814935746
  9
$LIMMIN
 10
-2970.0
 20
-2100.0
  9
$LIMMAX
 10
2970.0
 20
2100.0
  9
$ORTHOMODE
 70
     0
  9
$REGENMODE
 70
     0
  9
$FILLMODE
 70
     1
  9
$QTEXTMODE
 70
     0
  9
$MIRRTEXT
 70
     0
  9
$DRAGMODE
 70
     2
  9
$LTSCALE
 40
20.0
  9
$OSMODE
 70
    37
  9
$ATTMODE
 70
     1
  9
$TEXTSIZE
 40
64.0
  9
$TRACEWID
 40
0.05
  9
$TEXTSTYLE
  7
STANDARD
  9
$CLAYER
  8
SIZE
  9
$CELTYPE
  6
CONTINUOUS
  9
$CECOLOR
 62
     8
  9
$DIMSCALE
 40
1.0
  9
$DIMASZ
 40
12.0
  9
$DIMEXO
 40
20.0
  9
$DIMDLI
 40
200.0
  9
$DIMRND
 40
0.0
  9
$DIMDLE
 40
0.0
  9
$DIMEXE
 40
20.0
  9
$DIMTP
 40
0.0
  9
$DIMTM
 40
0.0
  9
$DIMTXT
 40
64.0
  9
$DIMCEN
 40
0.09
  9
$DIMTSZ
 40
0.0
  9
$DIMTOL
 70
     0
  9
$DIMLIM
 70
     0
  9
$DIMTIH
 70
     0
  9
$DIMTOH
 70
     0
  9
$DIMSE1
 70
     0
  9
$DIMSE2
 70
     0
  9
$DIMTAD
 70
     1
  9
$DIMZIN
 70
     8
  9
$DIMBLK
  1
DOT1
  9
$DIMASO
 70
     1
  9
$DIMSHO
 70
     0
  9
$DIMPOST
  1

  9
$DIMAPOST
  1

  9
$DIMALT
 70
     0
  9
$DIMALTD
 70
     2
  9
$DIMALTF
 40
25.399999999999999
  9
$DIMLFAC
 40
1.0
  9
$DIMTOFL
 70
     1
  9
$DIMTVP
 40
0.0
  9
$DIMTIX
 70
     1
  9
$DIMSOXD
 70
     0
  9
$DIMSAH
 70
     1
  9
$DIMBLK1
  1
ORIGIN
  9
$DIMBLK2
  1
ORIGIN
  9
$DIMSTYLE
  2
STANDARD
  9
$DIMCLRD
 70
     0
  9
$DIMCLRE
 70
     0
  9
$DIMCLRT
 70
     0
  9
$DIMTFAC
 40
1.0
  9
$DIMGAP
 40
0.09
  9
$LUNITS
 70
     2
  9
$LUPREC
 70
     4
  9
$SKETCHINC
 40
0.1
  9
$FILLETRAD
 40
3.0
  9
$AUNITS
 70
     1
  9
$AUPREC
 70
     3
  9
$MENU
  1
ACAD
  9
$ELEVATION
 40
0.0
  9
$PELEVATION
 40
0.0
  9
$THICKNESS
 40
50.0
  9
$LIMCHECK
 70
     0
  9
$BLIPMODE
 70
     0
  9
$CHAMFERA
 40
0.0
  9
$CHAMFERB
 40
0.0
  9
$SKPOLY
 70
     0
  9
$TDCREATE
 40
2452310.4493174772
  9
$TDUPDATE
 40
2454946.462930521
  9
$TDINDWG
 40
0.0533745949
  9
$TDUSRTIMER
 40
0.0533744213
  9
$USRTIMER
 70
     1
  9
$ANGBASE
 50
0.0
  9
$ANGDIR
 70
     0
  9
$PDMODE
 70
     3
  9
$PDSIZE
 40
-2.0
  9
$PLINEWID
 40
0.0
  9
$COORDS
 70
     0
  9
$SPLFRAME
 70
     0
  9
$SPLINETYPE
 70
     6
  9
$SPLINESEGS
 70
     8
  9
$ATTDIA
 70
     0
  9
$ATTREQ
 70
     1
  9
$HANDLING
 70
     1
  9
$HANDSEED
  5
1C7
  9
$SURFTAB1
 70
     6
  9
$SURFTAB2
 70
     6
  9
$SURFTYPE
 70
     6
  9
$SURFU
 70
     6
  9
$SURFV
 70
     6
  9
$UCSNAME
  2

  9
$UCSORG
 10
0.0
 20
0.0
 30
0.0
  9
$UCSXDIR
 10
1.0
 20
0.0
 30
0.0
  9
$UCSYDIR
 10
0.0
 20
1.0
 30
0.0
  9
$PUCSNAME
  2

  9
$PUCSORG
 10
0.0
 20
0.0
 30
0.0
  9
$PUCSXDIR
 10
1.0
 20
0.0
 30
0.0
  9
$PUCSYDIR
 10
0.0
 20
1.0
 30
0.0
  9
$USERI1
 70
     0
  9
$USERI2
 70
     0
  9
$USERI3
 70
     0
  9
$USERI4
 70
     0
  9
$USERI5
 70
     0
  9
$USERR1
 40
20.0
  9
$USERR2
 40
0.0
  9
$USERR3
 40
0.0
  9
$USERR4
 40
0.0
  9
$USERR5
 40
0.0
  9
$WORLDVIEW
 70
     1
  9
$SHADEDGE
 70
     3
  9
$SHADEDIF
 70
    70
  9
$TILEMODE
 70
     1
  9
$MAXACTVP
 70
    64
  9
$PLIMCHECK
 70
     0
  9
$PEXTMIN
 10
1.0000000000000000E+020
 20
1.0000000000000000E+020
 30
1.0000000000000000E+020
  9
$PEXTMAX
 10
-1.0000000000000000E+020
 20
-1.0000000000000000E+020
 30
-1.0000000000000000E+020
  9
$PLIMMIN
 10
0.0
 20
0.0
  9
$PLIMMAX
 10
12.0
 20
9.0
  9
$UNITMODE
 70
     0
  9
$VISRETAIN
 70
     1
  9
$PLINEGEN
 70
     0
  9
$PSLTSCALE
 70
     1
  0
ENDSEC
  0
SECTION
  2
TABLES
  0
TABLE
  2
VPORT
 70
     1
  0
VPORT
  2
*ACTIVE
 70
     0
 10
0.0
 20
0.0
 11
1.0
 21
1.0
 12
258.61587142728638
 22
134.60525785830339
 13
0.0
 23
0.0
 14
1.0
 24
1.0
 15
0.0
 25
0.0
 16
0.0
 26
0.0
 36
1.0
 17
0.0
 27
0.0
 37
0.0
 40
1325.975846395726
 41
1.3098995695839311
 42
50.0
 43
0.0
 44
0.0
 50
0.0
 51
0.0
 71
     0
 72
   100
 73
     1
 74
     0
 75
     0
 76
     0
 77
     0
 78
     1
  0
ENDTAB
  0
TABLE
  2
LTYPE
 70
     3
  0
LTYPE
  2
CONTINUOUS
 70
     0
  3
実線
 72
    65
 73
     0
 40
0.0
  0
LTYPE
  2
DASHDOT
 70
     0
  3
____ _ ____ _ ____ _ ____ _ ____ _ ____ _ ____
 72
    65
 73
     4
 40
5.5
 49
4.0
 49
-0.6
 49
0.3
 49
-0.6
  0
ENDTAB
  0
TABLE
  2
LAYER
 70
    12
  0
LAYER
  2
0
 70
     0
 62
     7
  6
CONTINUOUS
  0
LAYER
  2
SIZE
 70
     0
 62
    30
  6
CONTINUOUS
  0
LAYER
  2
BASIS
 70
     0
 62
     6
  6
DASHDOT
  0
LAYER
  2
OUTLINE
 70
     0
 62
     3
  6
CONTINUOUS
  0
LAYER
  2
DETAIL
 70
     0
 62
     5
  6
CONTINUOUS
  0
LAYER
  2
ARRANGE
 70
     0
 62
     1
  6
CONTINUOUS
  0
LAYER
  2
DEFPOINTS
 70
     0
 62
     7
  6
CONTINUOUS
  0
LAYER
  2
ETC
 70
     0
 62
    61
  6
CONTINUOUS
  0
LAYER
  2
FIX
 70
     0
 62
    11
  6
CONTINUOUS
  0
LAYER
  2
NOTE
 70
     0
 62
     4
  6
CONTINUOUS
  0
LAYER
  2
SERVICESPACE
 70
     0
 62
     2
  6
DASHDOT
  0
LAYER
  2
SYMBOLLINE
 70
     0
 62
    15
  6
CONTINUOUS
  0
ENDTAB
  0
TABLE
  2
STYLE
 70
     2
  0
STYLE
  2
STANDARD
 70
     0
 40
64.0
 41
0.9
 50
0.0
 71
     0
 42
64.0
  3
SIMPLEX.shx
  4
BIGFONT.shx
  0
STYLE
  2
ANNOTATIVE
 70
     0
 40
0.0
 41
1.0
 50
0.0
 71
     0
 42
0.2
  3
txt
  4

  0
ENDTAB
  0
TABLE
  2
VIEW
 70
     1
  0
VIEW
  2
ALL
 70
     0
 40
4282.6198079999986
 10
0.0
 20
41.309903999999989
 41
5940.0
 11
0.0
 21
0.0
 31
1.0
 12
0.0
 22
0.0
 32
0.0
 42
50.0
 43
0.0
 44
0.0
 50
0.0
 71
     0
  0
ENDTAB
  0
TABLE
  2
UCS
 70
     0
  0
ENDTAB
  0
TABLE
  2
APPID
 70
     4
  0
APPID
  2
ACAD
 70
     0
  0
APPID
  2
ACADANNOTATIVE
 70
     0
  0
APPID
  2
ACAD_MLEADERVER
 70
     0
  0
APPID
  2
ACAD_EXEMPT_FROM_CAD_STANDARDS
 70
     0
  0
ENDTAB
  0
TABLE
  2
DIMSTYLE
 70
     2
  0
DIMSTYLE
  2
STANDARD
 70
     0
  3

  4

  5

  6

  7

 40
1.0
 41
0.18
 42
0.0625
 43
0.38
 44
0.18
 45
0.0
 46
0.0
 47
0.0
 48
0.0
140
0.18
141
0.09
142
0.0
143
25.399999999999999
144
1.0
145
0.0
146
1.0
147
0.09
 71
     0
 72
     0
 73
     1
 74
     1
 75
     0
 76
     0
 77
     0
 78
     0
170
     0
171
     2
172
     0
173
     0
174
     0
175
     0
176
     0
177
     0
178
     0
  0
DIMSTYLE
  2
ANNOTATIVE
 70
     0
  3

  4

  5

  6

  7

 40
1.0
 41
0.18
 42
0.0625
 43
0.38
 44
0.18
 45
0.0
 46
0.0
 47
0.0
 48
0.0
140
0.18
141
0.09
142
0.0
143
25.399999999999999
144
1.0
145
0.0
146
1.0
147
0.09
 71
     0
 72
     0
 73
     1
 74
     1
 75
     0
 76
     0
 77
     0
 78
     0
170
     0
171
     2
172
     0
173
     0
174
     0
175
     0
176
     0
177
     0
178
     0
  0
ENDTAB
  0
ENDSEC
  0
SECTION
  2
BLOCKS
  0
BLOCK
  8
0
  2
$MODEL_SPACE
 70
     0
 10
0.0
 20
0.0
 30
0.0
  3
$MODEL_SPACE
  1

  0
ENDBLK
  5
76
  8
0
  0
BLOCK
 67
     1
  8
0
  2
$PAPER_SPACE
 70
     0
 10
0.0
 20
0.0
 30
0.0
  3
$PAPER_SPACE
  1

  0
ENDBLK
  5
72
 67
     1
  8
0
  0
BLOCK
  8
0
  2
DOT1
 70
     0
 10
0.0
 20
0.0
 30
0.0
  3
DOT1
  1

  0
CIRCLE
  5
8B
  8
SIZE
  6
CONTINUOUS
 62
     7
 10
0.0
 20
0.0
 30
0.0
 40
3.0
  0
ENDBLK
  5
8C
  8
0
  0
BLOCK
  8
0
  2
_ORIGIN
 70
     0
 10
0.0
 20
0.0
 30
0.0
  3
_ORIGIN
  1

  0
CIRCLE
  5
8F
  8
0
  6
CONTINUOUS
 62
     7
 10
0.0
 20
0.0
 30
0.0
 40
0.5
  0
LINE
  5
90
  8
0
  6
CONTINUOUS
 62
     7
 10
0.0
 20
0.0
 30
0.0
 11
-1.0
 21
0.0
 31
0.0
  0
ENDBLK
  5
91
  8
0
  0
ENDSEC
  0
SECTION
  2
ENTITIES
  0
LINE
  5
94
  8
DETAIL
  6
CONTINUOUS
 62
     5
 10
0.0
 20
-210.0
 30
0.0
 11
0.0
 21
210.0
 31
0.0
  0
LINE
  5
95
  8
BASIS
  6
DASHDOT
 62
     6
 10
44.261400999999999
 20
0.0
 30
0.0
 11
-223.333866
 21
0.0
 31
0.0
  0
LINE
  5
96
  8
DETAIL
  6
CONTINUOUS
 62
     5
 10
-57.0
 20
182.5
 30
0.0
 11
-60.0
 21
182.5
 31
0.0
  0
LINE
  5
97
  8
DETAIL
  6
CONTINUOUS
 62
     5
 10
-10.0
 20
-210.0
 30
0.0
 11
-10.0
 21
-193.0
 31
0.0
  0
LINE
  5
98
  8
DETAIL
  6
CONTINUOUS
 62
     5
 10
-155.0
 20
-124.5
 30
0.0
 11
-155.0
 21
-54.420499999999997
 31
0.0
  0
TEXT
  5
99
  8
NOTE
  6
CONTINUOUS
 62
     4
 10
205.46123299999999
 20
-303.183851
 30
0.0
 40
64.0
  1
4-φ10
 41
0.9
  0
LINE
  5
9A
  8
NOTE
  6
CONTINUOUS
 62
     4
 10
187.6698649999999
 20
-330.61080199999998
 30
0.0
 11
501.20503799999989
 21
-330.61080199999998
 31
0.0
  0
LINE
  5
9B
  8
NOTE
  6
CONTINUOUS
 62
     4
 10
-9.7275059999999982
 20
-190.08077800000001
 30
0.0
 11
187.6698649999999
 21
-328.11080199999998
 31
0.0
  0
LINE
  5
9C
  8
NOTE
  6
CONTINUOUS
 62
     4
 10
27.975874000000001
 20
-203.43948800000001
 30
0.0
 11
-9.7275059999999982
 21
-190.08077800000001
 31
0.0
  0
LINE
  5
9D
  8
NOTE
  6
CONTINUOUS
 62
     4
 10
-9.7275059999999982
 20
-190.08077800000001
 30
0.0
 11
16.245224
 21
-220.501451
 31
0.0
  0
LINE
  5
9E
  8
DETAIL
  6
CONTINUOUS
 62
     5
 10
-10.0
 20
-210.0
 30
0.0
 11
0.0
 21
-210.0
 31
0.0
  0
LINE
  5
9F
  8
DETAIL
  6
CONTINUOUS
 62
     5
 10
-10.0
 20
210.0
 30
0.0
 11
0.0
 21
210.0
 31
0.0
  0
LINE
  5
A0
  8
DETAIL
  6
CONTINUOUS
 62
     5
 10
-20.0
 20
-185.5
 30
0.0
 11
-10.0
 21
-185.5
 31
0.0
  0
LINE
  5
A1
  8
DETAIL
  6
CONTINUOUS
 62
     5
 10
-20.0
 20
185.5
 30
0.0
 11
-10.0
 21
185.5
 31
0.0
  0
LINE
  5
A2
  8
SIZE
  6
CONTINUOUS
 62
    30
 10
0.0
 20
230.0
 30
0.0
 11
0.0
 21
348.564278
 31
0.0
  0
LINE
  5
A3
  8
SIZE
  6
CONTINUOUS
 62
    30
 10
-10.0
 20
230.0
 30
0.0
 11
-10.0
 21
348.564278
 31
0.0
  0
LINE
  5
A4
  8
SIZE
  6
CONTINUOUS
 62
    30
 10
12.0
 20
328.564278
 30
0.0
 11
24.0
 21
328.564278
 31
0.0
  0
LINE
  5
A5
  8
SIZE
  6
CONTINUOUS
 62
    30
 10
-22.0
 20
328.564278
 30
0.0
 11
-34.0
 21
328.564278
 31
0.0
  0
LINE
  5
A6
  8
SIZE
  6
CONTINUOUS
 62
    30
 10
157.028459
 20
328.564278
 30
0.0
 11
0.0
 21
328.564278
 31
0.0
  0
TEXT
  5
A7
  8
SIZE
  6
CONTINUOUS
 62
    30
 10
49.74274485714286
 20
353.564278
 30
0.0
 40
64.0
  1
10
 41
0.9
 72
     1
 11
90.885602000000006
 21
353.564278
 31
0.0
  0
LINE
  5
A8
  8
SIZE
  6
CONTINUOUS
 62
    30
 10
0.0
 20
328.564278
 30
0.0
 11
-10.0
 21
328.564278
 31
0.0
  0
LINE
  5
A9
  8
SIZE
  6
CONTINUOUS
 62
    30
 10
0.0
 20
328.564278
 30
0.0
 11
-10.0
 21
328.564278
 31
0.0
  0
CIRCLE
  5
AA
  8
SIZE
  6
CONTINUOUS
 62
    30
 10
0.0
 20
328.564278
 30
0.0
 40
6.0
  0
LINE
  5
AB
  8
SIZE
  6
CONTINUOUS
 62
    30
 10
0.0
 20
328.564278
 30
0.0
 11
12.0
 21
328.564278
 31
0.0
  0
CIRCLE
  5
AC
  8
SIZE
  6
CONTINUOUS
 62
    30
 10
-10.0
 20
328.564278
 30
0.0
 40
6.0
  0
LINE
  5
AD
  8
SIZE
  6
CONTINUOUS
 62
    30
 10
-10.0
 20
328.564278
 30
0.0
 11
-22.0
 21
328.564278
 31
0.0
  0
POINT
  5
AE
  8
DEFPOINTS
  6
CONTINUOUS
 62
    30
 10
0.0
 20
210.0
 30
0.0
  0
POINT
  5
AF
  8
DEFPOINTS
  6
CONTINUOUS
 62
    30
 10
-10.0
 20
210.0
 30
0.0
  0
POINT
  5
B0
  8
DEFPOINTS
  6
CONTINUOUS
 62
    30
 10
-10.0
 20
328.564278
 30
0.0
  0
LINE
  5
B1
  8
SIZE
  6
CONTINUOUS
 62
    30
 10
-10.0
 20
230.0
 30
0.0
 11
-10.0
 21
348.564278
 31
0.0
  0
LINE
  5
B2
  8
SIZE
  6
CONTINUOUS
 62
    30
 10
-20.0
 20
205.5
 30
0.0
 11
-20.0
 21
348.564278
 31
0.0
  0
LINE
  5
B3
  8
SIZE
  6
CONTINUOUS
 62
    30
 10
2.0
 20
328.564278
 30
0.0
 11
14.0
 21
328.564278
 31
0.0
  0
LINE
  5
B4
  8
SIZE
  6
CONTINUOUS
 62
    30
 10
-32.0
 20
328.564278
 30
0.0
 11
-44.0
 21
328.564278
 31
0.0
  0
LINE
  5
B5
  8
SIZE
  6
CONTINUOUS
 62
    30
 10
-182.74230800000001
 20
328.564278
 30
0.0
 11
-20.0
 21
328.564278
 31
0.0
  0
TEXT
  5
B6
  8
SIZE
  6
CONTINUOUS
 62
    30
 10
-157.7423081428571
 20
353.564278
 30
0.0
 40
64.0
  1
10
 41
0.9
 72
     1
 11
-116.599451
 21
353.564278
 31
0.0
  0
LINE
  5
B7
  8
SIZE
  6
CONTINUOUS
 62
    30
 10
-10.0
 20
328.564278
 30
0.0
 11
-20.0
 21
328.564278
 31
0.0
  0
LINE
  5
B8
  8
SIZE
  6
CONTINUOUS
 62
    30
 10
-10.0
 20
328.564278
 30
0.0
 11
-20.0
 21
328.564278
 31
0.0
  0
CIRCLE
  5
B9
  8
SIZE
  6
CONTINUOUS
 62
    30
 10
-10.0
 20
328.564278
 30
0.0
 40
6.0
  0
LINE
  5
BA
  8
SIZE
  6
CONTINUOUS
 62
    30
 10
-10.0
 20
328.564278
 30
0.0
 11
2.0
 21
328.564278
 31
0.0
  0
CIRCLE
  5
BB
  8
SIZE
  6
CONTINUOUS
 62
    30
 10
-20.0
 20
328.564278
 30
0.0
 40
6.0
  0
LINE
  5
BC
  8
SIZE
  6
CONTINUOUS
 62
    30
 10
-20.0
 20
328.564278
 30
0.0
 11
-32.0
 21
328.564278
 31
0.0
  0
POINT
  5
BD
  8
DEFPOINTS
  6
CONTINUOUS
 62
    30
 10
-10.0
 20
210.0
 30
0.0
  0
POINT
  5
BE
  8
DEFPOINTS
  6
CONTINUOUS
 62
    30
 10
-20.0
 20
185.5
 30
0.0
  0
POINT
  5
BF
  8
DEFPOINTS
  6
CONTINUOUS
 62
    30
 10
-20.0
 20
328.564278
 30
0.0
  0
LINE
  5
C0
  8
SIZE
  6
CONTINUOUS
 62
    30
 10
2.0
 20
-415.31701099999992
 30
0.0
 11
110.43513299999999
 21
-415.31701099999992
 31
0.0
  0
LINE
  5
C1
  8
DETAIL
  6
CONTINUOUS
 62
     5
 10
-10.0
 20
-193.0
 30
0.0
 11
-10.0
 21
193.0
 31
0.0
  0
LINE
  5
C2
  8
DETAIL
  6
CONTINUOUS
 62
     5
 10
-10.0
 20
193.0
 30
0.0
 11
-10.0
 21
210.0
 31
0.0
  0
LINE
  5
C3
  8
DETAIL
  6
CONTINUOUS
 62
     5
 10
-20.0
 20
-185.5
 30
0.0
 11
-20.0
 21
185.5
 31
0.0
  0
LINE
  5
C4
  8
DETAIL
  6
CONTINUOUS
 62
     5
 10
-155.0
 20
54.420499999999997
 30
0.0
 11
-155.0
 21
124.5
 31
0.0
  0
LINE
  5
C5
  8
DETAIL
  6
CONTINUOUS
 62
     5
 10
-155.0
 20
54.420499999999997
 30
0.0
 11
-130.0
 21
54.420499999999997
 31
0.0
  0
LINE
  5
C6
  8
DETAIL
  6
CONTINUOUS
 62
     5
 10
-130.0
 20
67.5
 30
0.0
 11
-130.0
 21
109.5
 31
0.0
  0
LINE
  5
C7
  8
DETAIL
  6
CONTINUOUS
 62
     5
 10
-130.0
 20
-109.5
 30
0.0
 11
-130.0
 21
-67.5
 31
0.0
  0
LINE
  5
C8
  8
DETAIL
  6
CONTINUOUS
 62
     5
 10
-60.0
 20
-159.5
 30
0.0
 11
-60.0
 21
159.5
 31
0.0
  0
LINE
  5
C9
  8
DETAIL
  6
CONTINUOUS
 62
     5
 10
-130.0
 20
48.25
 30
0.0
 11
-85.0
 21
48.25
 31
0.0
  0
LINE
  5
CA
  8
SIZE
  6
CONTINUOUS
 62
    30
 10
20.0
 20
-210.0
 30
0.0
 11
302.76914499999998
 21
-210.0
 31
0.0
  0
LINE
  5
CB
  8
SIZE
  6
CONTINUOUS
 62
    30
 10
20.0
 20
210.0
 30
0.0
 11
302.76914499999998
 21
210.0
 31
0.0
  0
LINE
  5
CC
  8
SIZE
  6
CONTINUOUS
 62
    30
 10
282.76914500000009
 20
-198.0
 30
0.0
 11
282.76914500000009
 21
198.0
 31
0.0
  0
CIRCLE
  5
CD
  8
SIZE
  6
CONTINUOUS
 62
    30
 10
282.76914500000009
 20
-210.0
 30
0.0
 40
6.0
  0
LINE
  5
CE
  8
SIZE
  6
CONTINUOUS
 62
    30
 10
282.76914500000009
 20
-210.0
 30
0.0
 11
282.76914500000009
 21
-198.0
 31
0.0
  0
CIRCLE
  5
CF
  8
SIZE
  6
CONTINUOUS
 62
    30
 10
282.76914500000009
 20
210.0
 30
0.0
 40
6.0
  0
LINE
  5
D0
  8
SIZE
  6
CONTINUOUS
 62
    30
 10
282.76914500000009
 20
210.0
 30
0.0
 11
282.76914500000009
 21
198.0
 31
0.0
  0
TEXT
  5
D1
  8
SIZE
  6
CONTINUOUS
 62
    30
 10
257.76914499999998
 20
-74.05714285714285
 30
0.0
 40
64.0
  1
420
 50
90.0
 41
0.9
 72
     1
 11
257.76914499999998
 21
0.0
 31
0.0
  0
POINT
  5
D2
  8
DEFPOINTS
  6
CONTINUOUS
 62
    30
 10
0.0
 20
-210.0
 30
0.0
  0
POINT
  5
D3
  8
DEFPOINTS
  6
CONTINUOUS
 62
    30
 10
0.0
 20
210.0
 30
0.0
  0
POINT
  5
D4
  8
DEFPOINTS
  6
CONTINUOUS
 62
    30
 10
282.76914500000009
 20
210.0
 30
0.0
  0
LINE
  5
D5
  8
SIZE
  6
CONTINUOUS
 62
    30
 10
0.0
 20
-230.0
 30
0.0
 11
0.0
 21
-496.180949
 31
0.0
  0
LINE
  5
D6
  8
SIZE
  6
CONTINUOUS
 62
    30
 10
-173.0
 20
-60.25
 30
0.0
 11
-173.0
 21
-496.180949
 31
0.0
  0
LINE
  5
D7
  8
SIZE
  6
CONTINUOUS
 62
    30
 10
-12.0
 20
-476.180949
 30
0.0
 11
-161.0
 21
-476.180949
 31
0.0
  0
LINE
  5
D8
  8
SIZE
  6
CONTINUOUS
 62
    30
 10
-394.58435700000001
 20
-476.180949
 30
0.0
 11
-173.0
 21
-476.180949
 31
0.0
  0
TEXT
  5
D9
  8
SIZE
  6
CONTINUOUS
 62
    30
 10
-369.5843575714286
 20
-451.180949
 30
0.0
 40
64.0
  1
173
 41
0.9
 72
     1
 11
-301.01292899999999
 21
-451.180949
 31
0.0
  0
CIRCLE
  5
DA
  8
SIZE
  6
CONTINUOUS
 62
    30
 10
0.0
 20
-476.180949
 30
0.0
 40
6.0
  0
LINE
  5
DB
  8
SIZE
  6
CONTINUOUS
 62
    30
 10
0.0
 20
-476.180949
 30
0.0
 11
-12.0
 21
-476.180949
 31
0.0
  0
CIRCLE
  5
DC
  8
SIZE
  6
CONTINUOUS
 62
    30
 10
-173.0
 20
-476.180949
 30
0.0
 40
6.0
  0
LINE
  5
DD
  8
SIZE
  6
CONTINUOUS
 62
    30
 10
-173.0
 20
-476.180949
 30
0.0
 11
-161.0
 21
-476.180949
 31
0.0
  0
POINT
  5
DE
  8
DEFPOINTS
  6
CONTINUOUS
 62
    30
 10
0.0
 20
-210.0
 30
0.0
  0
POINT
  5
DF
  8
DEFPOINTS
  6
CONTINUOUS
 62
    30
 10
-173.0
 20
-40.25
 30
0.0
  0
POINT
  5
E0
  8
DEFPOINTS
  6
CONTINUOUS
 62
    30
 10
-173.0
 20
-476.180949
 30
0.0
  0
LINE
  5
E1
  8
DETAIL
  6
CONTINUOUS
 62
     5
 10
-130.0
 20
67.5
 30
0.0
 11
-130.0
 21
-67.5
 31
0.0
  0
LINE
  5
E2
  8
DETAIL
  6
CONTINUOUS
 62
     5
 10
-20.0
 20
179.5
 30
0.0
 11
-100.0
 21
179.5
 31
0.0
  0
LINE
  5
E3
  8
DETAIL
  6
CONTINUOUS
 62
     5
 10
-20.0
 20
159.5
 30
0.0
 11
-80.0
 21
159.5
 31
0.0
  0
ARC
  5
E4
  8
DETAIL
  6
CONTINUOUS
 62
     5
 10
-80.0
 20
109.5
 30
0.0
 40
50.0
 50
90.0
 51
180.0
  0
ARC
  5
E5
  8
DETAIL
  6
CONTINUOUS
 62
     5
 10
-100.0
 20
124.5
 30
0.0
 40
55.0
 50
90.0
 51
180.0
  0
LINE
  5
E6
  8
DETAIL
  6
CONTINUOUS
 62
     5
 10
-57.0
 20
-159.5
 30
0.0
 11
-57.0
 21
159.5
 31
0.0
  0
LINE
  5
E7
  8
DETAIL
  6
CONTINUOUS
 62
     5
 10
-60.0
 20
179.5
 30
0.0
 11
-60.0
 21
182.5
 31
0.0
  0
LINE
  5
E8
  8
DETAIL
  6
CONTINUOUS
 62
     5
 10
-57.0
 20
179.5
 30
0.0
 11
-57.0
 21
182.5
 31
0.0
  0
LINE
  5
E9
  8
DETAIL
  6
CONTINUOUS
 62
     5
 10
-20.0
 20
-159.5
 30
0.0
 11
-80.0
 21
-159.5
 31
0.0
  0
LINE
  5
EA
  8
DETAIL
  6
CONTINUOUS
 62
     5
 10
-100.0
 20
-179.5
 30
0.0
 11
-20.0
 21
-179.5
 31
0.0
  0
ARC
  5
EB
  8
DETAIL
  6
CONTINUOUS
 62
     5
 10
-100.0
 20
-124.5
 30
0.0
 40
55.0
 50
180.0
 51
270.0
  0
LINE
  5
EC
  8
DETAIL
  6
CONTINUOUS
 62
     5
 10
-60.0
 20
-179.5
 30
0.0
 11
-60.0
 21
-182.5
 31
0.0
  0
LINE
  5
ED
  8
DETAIL
  6
CONTINUOUS
 62
     5
 10
-57.0
 20
-179.5
 30
0.0
 11
-57.0
 21
-182.5
 31
0.0
  0
LINE
  5
EE
  8
DETAIL
  6
CONTINUOUS
 62
     5
 10
-57.0
 20
-182.5
 30
0.0
 11
-60.0
 21
-182.5
 31
0.0
  0
LINE
  5
EF
  8
SIZE
  6
CONTINUOUS
 62
    30
 10
0.0
 20
-232.5
 30
0.0
 11
0.0
 21
-435.31701099999998
 31
0.0
  0
LINE
  5
F0
  8
SIZE
  6
CONTINUOUS
 62
    30
 10
-60.0
 20
-202.5
 30
0.0
 11
-60.0
 21
-435.31701099999998
 31
0.0
  0
LINE
  5
F1
  8
SIZE
  6
CONTINUOUS
 62
    30
 10
12.0
 20
-415.31701099999992
 30
0.0
 11
24.0
 21
-415.31701099999992
 31
0.0
  0
LINE
  5
F2
  8
SIZE
  6
CONTINUOUS
 62
    30
 10
-72.0
 20
-415.31701099999992
 30
0.0
 11
-84.0
 21
-415.31701099999992
 31
0.0
  0
LINE
  5
F3
  8
SIZE
  6
CONTINUOUS
 62
    30
 10
167.53635700000001
 20
-415.31701099999992
 30
0.0
 11
0.0
 21
-415.31701099999992
 31
0.0
  0
TEXT
  5
F4
  8
SIZE
  6
CONTINUOUS
 62
    30
 10
49.279214571428582
 20
-390.31701099999998
 30
0.0
 40
64.0
  1
60
 41
0.9
 72
     1
 11
95.907786000000002
 21
-390.31701099999998
 31
0.0
  0
LINE
  5
F5
  8
SIZE
  6
CONTINUOUS
 62
    30
 10
0.0
 20
-415.31701099999992
 30
0.0
 11
-60.0
 21
-415.31701099999992
 31
0.0
  0
LINE
  5
F6
  8
SIZE
  6
CONTINUOUS
 62
    30
 10
0.0
 20
-415.31701099999992
 30
0.0
 11
-60.0
 21
-415.31701099999992
 31
0.0
  0
CIRCLE
  5
F7
  8
SIZE
  6
CONTINUOUS
 62
    30
 10
0.0
 20
-415.31701099999992
 30
0.0
 40
6.0
  0
LINE
  5
F8
  8
SIZE
  6
CONTINUOUS
 62
    30
 10
0.0
 20
-415.31701099999992
 30
0.0
 11
12.0
 21
-415.31701099999992
 31
0.0
  0
CIRCLE
  5
F9
  8
SIZE
  6
CONTINUOUS
 62
    30
 10
-60.0
 20
-415.31701099999992
 30
0.0
 40
6.0
  0
LINE
  5
FA
  8
SIZE
  6
CONTINUOUS
 62
    30
 10
-60.0
 20
-415.31701099999992
 30
0.0
 11
-72.0
 21
-415.31701099999992
 31
0.0
  0
POINT
  5
FB
  8
DEFPOINTS
  6
CONTINUOUS
 62
    30
 10
0.0
 20
-212.5
 30
0.0
  0
POINT
  5
FC
  8
DEFPOINTS
  6
CONTINUOUS
 62
    30
 10
-60.0
 20
-182.5
 30
0.0
  0
POINT
  5
FD
  8
DEFPOINTS
  6
CONTINUOUS
 62
    30
 10
-60.0
 20
-415.31701099999992
 30
0.0
  0
LINE
  5
FE
  8
SIZE
  6
CONTINUOUS
 62
    30
 10
30.0
 20
-190.0
 30
0.0
 11
186.1009169999999
 21
-190.0
 31
0.0
  0
LINE
  5
FF
  8
SIZE
  6
CONTINUOUS
 62
    30
 10
30.0
 20
190.0
 30
0.0
 11
186.1009169999999
 21
190.0
 31
0.0
  0
LINE
  5
100
  8
SIZE
  6
CONTINUOUS
 62
    30
 10
166.1009169999999
 20
-178.0
 30
0.0
 11
166.1009169999999
 21
178.0
 31
0.0
  0
CIRCLE
  5
101
  8
SIZE
  6
CONTINUOUS
 62
    30
 10
166.1009169999999
 20
-190.0
 30
0.0
 40
6.0
  0
LINE
  5
102
  8
SIZE
  6
CONTINUOUS
 62
    30
 10
166.1009169999999
 20
-190.0
 30
0.0
 11
166.1009169999999
 21
-178.0
 31
0.0
  0
CIRCLE
  5
103
  8
SIZE
  6
CONTINUOUS
 62
    30
 10
166.1009169999999
 20
190.0
 30
0.0
 40
6.0
  0
LINE
  5
104
  8
SIZE
  6
CONTINUOUS
 62
    30
 10
166.1009169999999
 20
190.0
 30
0.0
 11
166.1009169999999
 21
178.0
 31
0.0
  0
TEXT
  5
105
  8
SIZE
  6
CONTINUOUS
 62
    30
 10
141.1009169999999
 20
-74.057142857142836
 30
0.0
 40
64.0
  1
380
 50
90.0
 41
0.9
 72
     1
 11
141.1009169999999
 21
0.0
 31
0.0
  0
POINT
  5
106
  8
DEFPOINTS
  6
CONTINUOUS
 62
    30
 10
10.0
 20
-190.0
 30
0.0
  0
POINT
  5
107
  8
DEFPOINTS
  6
CONTINUOUS
 62
    30
 10
10.0
 20
190.0
 30
0.0
  0
POINT
  5
108
  8
DEFPOINTS
  6
CONTINUOUS
 62
    30
 10
166.1009169999999
 20
190.0
 30
0.0
  0
CIRCLE
  5
109
  8
FIX
  6
CONTINUOUS
 62
    11
 10
-10.0
 20
190.0
 30
0.0
 40
5.0
  0
CIRCLE
  5
10A
  8
FIX
  6
CONTINUOUS
 62
    11
 10
-10.0
 20
-190.0
 30
0.0
 40
5.0
  0
LINE
  5
10B
  8
NOTE
  6
CONTINUOUS
 62
     4
 10
-30.0
 20
190.0
 30
0.0
 11
10.0
 21
190.0
 31
0.0
  0
LINE
  5
10C
  8
NOTE
  6
CONTINUOUS
 62
     4
 10
-10.0
 20
210.0
 30
0.0
 11
-10.0
 21
170.0
 31
0.0
  0
LINE
  5
10D
  8
NOTE
  6
CONTINUOUS
 62
     4
 10
-30.0
 20
-190.0
 30
0.0
 11
10.0
 21
-190.0
 31
0.0
  0
LINE
  5
10E
  8
NOTE
  6
CONTINUOUS
 62
     4
 10
-10.0
 20
-170.0
 30
0.0
 11
-10.0
 21
-210.0
 31
0.0
  0
POINT
  5
10F
  8
ARRANGE
  6
CONTINUOUS
 62
     1
 10
0.0
 20
0.0
 30
0.0
  0
CIRCLE
  5
110
  8
ARRANGE
  6
CONTINUOUS
 62
     1
 10
0.0
 20
0.0
 30
0.0
 40
40.0
  0
ARC
  5
111
  8
DETAIL
  6
CONTINUOUS
 62
     5
 10
-80.0
 20
-109.5
 30
0.0
 40
50.0
 50
180.0
 51
270.0
  0
LINE
  5
112
  8
DETAIL
  6
CONTINUOUS
 62
     5
 10
-100.0
 20
48.25
 30
0.0
 11
-100.0
 21
-48.25
 31
0.0
  0
LINE
  5
113
  8
DETAIL
  6
CONTINUOUS
 62
     5
 10
-80.0
 20
43.25
 30
0.0
 11
-80.0
 21
21.562304999999999
 31
0.0
  0
ARC
  5
114
  8
DETAIL
  6
CONTINUOUS
 62
     5
 10
-85.0
 20
43.25
 30
0.0
 40
5.0
 50
0.0
 51
90.0
  0
LINE
  5
115
  8
DETAIL
  6
CONTINUOUS
 62
     5
 10
-60.0
 20
5.0
 30
0.0
 11
-70.727440000000001
 21
5.0
 31
0.0
  0
LINE
  5
116
  8
DETAIL
  6
CONTINUOUS
 62
     5
 10
-60.0
 20
-5.0
 30
0.0
 11
-63.02646
 21
-5.0
 31
0.0
  0
LINE
  5
117
  8
DETAIL
  6
CONTINUOUS
 62
     5
 10
-165.0
 20
-102.051394
 30
0.0
 11
-165.0
 21
66.948606000000012
 31
0.0
  0
LINE
  5
118
  8
DETAIL
  6
CONTINUOUS
 62
     5
 10
-155.0
 20
-102.051394
 30
0.0
 11
-165.0
 21
-102.051394
 31
0.0
  0
LINE
  5
119
  8
DETAIL
  6
CONTINUOUS
 62
     5
 10
-155.0
 20
66.948606000000012
 30
0.0
 11
-165.0
 21
66.948606000000012
 31
0.0
  0
LINE
  5
11A
  8
NOTE
  6
CONTINUOUS
 62
     4
 10
-47.226053999999991
 20
-194.30430000000001
 30
0.0
 11
-20.0
 21
-165.0
 31
0.0
  0
LINE
  5
11B
  8
NOTE
  6
CONTINUOUS
 62
     4
 10
-20.0
 20
-165.0
 30
0.0
 11
-58.230604000000007
 21
-176.765241
 31
0.0
  0
LINE
  5
11C
  8
NOTE
  6
CONTINUOUS
 62
     4
 10
-20.0
 20
-165.0
 30
0.0
 11
-267.87414200000001
 21
-316.75022899999999
 31
0.0
  0
LINE
  5
11D
  8
NOTE
  6
CONTINUOUS
 62
     4
 10
-20.0
 20
-185.0
 30
0.0
 11
-20.0
 21
-145.0
 31
0.0
  0
LINE
  5
11E
  8
NOTE
  6
CONTINUOUS
 62
     4
 10
-40.0
 20
-165.0
 30
0.0
 11
0.0
 21
-165.0
 31
0.0
  0
LINE
  5
11F
  8
NOTE
  6
CONTINUOUS
 62
     4
 10
-359.39974000000001
 20
-316.75022899999999
 30
0.0
 11
-267.87414200000001
 21
-316.75022899999999
 31
0.0
  0
TEXT
  5
120
  8
NOTE
  6
CONTINUOUS
 62
     4
 10
-347.58014500000002
 20
-298.61305900000002
 30
0.0
 40
50.706637000000001
  1
EL
 41
0.9
  0
LINE
  5
121
  8
SIZE
  6
CONTINUOUS
 62
    30
 10
-80.0
 20
182.5
 30
0.0
 11
-442.12389999999988
 21
182.5
 31
0.0
  0
LINE
  5
122
  8
SIZE
  6
CONTINUOUS
 62
    30
 10
-80.0
 20
-182.5
 30
0.0
 11
-442.12389999999988
 21
-182.5
 31
0.0
  0
LINE
  5
123
  8
SIZE
  6
CONTINUOUS
 62
    30
 10
-422.12389999999988
 20
170.5
 30
0.0
 11
-422.12389999999988
 21
-170.5
 31
0.0
  0
CIRCLE
  5
124
  8
SIZE
  6
CONTINUOUS
 62
    30
 10
-422.12389999999988
 20
182.5
 30
0.0
 40
6.0
  0
LINE
  5
125
  8
SIZE
  6
CONTINUOUS
 62
    30
 10
-422.12389999999988
 20
182.5
 30
0.0
 11
-422.12389999999988
 21
170.5
 31
0.0
  0
CIRCLE
  5
126
  8
SIZE
  6
CONTINUOUS
 62
    30
 10
-422.12389999999988
 20
-182.5
 30
0.0
 40
6.0
  0
LINE
  5
127
  8
SIZE
  6
CONTINUOUS
 62
    30
 10
-422.12389999999988
 20
-182.5
 30
0.0
 11
-422.12389999999988
 21
-170.5
 31
0.0
  0
TEXT
  5
128
  8
SIZE
  6
CONTINUOUS
 62
    30
 10
-447.12389999999988
 20
-114.3771428571428
 30
0.0
 40
64.0
  1
φ365
 50
90.0
 41
0.9
 72
     1
 11
-447.12389999999988
 21
0.0
 31
0.0
  0
POINT
  5
129
  8
DEFPOINTS
  6
CONTINUOUS
 62
    30
 10
-60.0
 20
182.5
 30
0.0
  0
POINT
  5
12A
  8
DEFPOINTS
  6
CONTINUOUS
 62
    30
 10
-60.0
 20
-182.5
 30
0.0
  0
POINT
  5
12B
  8
DEFPOINTS
  6
CONTINUOUS
 62
    30
 10
-422.12389999999988
 20
-182.5
 30
0.0
  0
LINE
  5
12C
  8
DETAIL
  6
CONTINUOUS
 62
     5
 10
-173.0
 20
-40.25
 30
0.0
 11
-173.0
 21
40.25
 31
0.0
  0
ARC
  5
12D
  8
DETAIL
  6
CONTINUOUS
 62
     5
 10
-165.0
 20
40.25
 30
0.0
 40
8.0
 50
90.0
 51
180.0
  0
ARC
  5
12E
  8
DETAIL
  6
CONTINUOUS
 62
     5
 10
-165.0
 20
-40.25
 30
0.0
 40
8.0
 50
180.0
 51
270.0
  0
LINE
  5
12F
  8
SIZE
  6
CONTINUOUS
 62
    30
 10
-185.0
 20
48.25
 30
0.0
 11
-315.90079800000001
 21
48.25
 31
0.0
  0
LINE
  5
130
  8
SIZE
  6
CONTINUOUS
 62
    30
 10
-185.0
 20
-48.25
 30
0.0
 11
-315.90079800000001
 21
-48.25
 31
0.0
  0
LINE
  5
131
  8
SIZE
  6
CONTINUOUS
 62
    30
 10
-295.90079800000001
 20
60.25
 30
0.0
 11
-295.90079800000001
 21
72.25
 31
0.0
  0
LINE
  5
132
  8
SIZE
  6
CONTINUOUS
 62
    30
 10
-295.90079800000001
 20
-60.25
 30
0.0
 11
-295.90079800000001
 21
-72.25
 31
0.0
  0
LINE
  5
133
  8
SIZE
  6
CONTINUOUS
 62
    30
 10
-295.90079800000001
 20
48.25
 30
0.0
 11
-295.90079800000001
 21
-48.25
 31
0.0
  0
CIRCLE
  5
134
  8
SIZE
  6
CONTINUOUS
 62
    30
 10
-295.90079800000001
 20
48.25
 30
0.0
 40
6.0
  0
LINE
  5
135
  8
SIZE
  6
CONTINUOUS
 62
    30
 10
-295.90079800000001
 20
48.25
 30
0.0
 11
-295.90079800000001
 21
60.25
 31
0.0
  0
CIRCLE
  5
136
  8
SIZE
  6
CONTINUOUS
 62
    30
 10
-295.90079800000001
 20
-48.25
 30
0.0
 40
6.0
  0
LINE
  5
137
  8
SIZE
  6
CONTINUOUS
 62
    30
 10
-295.90079800000001
 20
-48.25
 30
0.0
 11
-295.90079800000001
 21
-60.25
 31
0.0
  0
TEXT
  5
138
  8
SIZE
  6
CONTINUOUS
 62
    30
 10
-320.90079800000001
 20
-128.09142857142851
 30
0.0
 40
64.0
  1
φ96.5
 50
90.0
 41
0.9
 72
     1
 11
-320.90079800000001
 21
0.0
 31
0.0
  0
POINT
  5
139
  8
DEFPOINTS
  6
CONTINUOUS
 62
    30
 10
-165.0
 20
48.25
 30
0.0
  0
POINT
  5
13A
  8
DEFPOINTS
  6
CONTINUOUS
 62
    30
 10
-165.0
 20
-48.25
 30
0.0
  0
POINT
  5
13B
  8
DEFPOINTS
  6
CONTINUOUS
 62
    30
 10
-295.90079800000001
 20
-48.25
 30
0.0
  0
LINE
  5
13C
  8
DETAIL
  6
CONTINUOUS
 62
     5
 10
-155.0
 20
-54.420499999999997
 30
0.0
 11
-130.0
 21
-54.420499999999997
 31
0.0
  0
LINE
  5
13D
  8
DETAIL
  6
CONTINUOUS
 62
     5
 10
-130.0
 20
-48.25
 30
0.0
 11
-85.0
 21
-48.25
 31
0.0
  0
ARC
  5
13E
  8
DETAIL
  6
CONTINUOUS
 62
     5
 10
-85.0
 20
-43.25
 30
0.0
 40
5.0
 50
270.0
 51
0.0
  0
LINE
  5
13F
  8
DETAIL
  6
CONTINUOUS
 62
     5
 10
-149.52926600000001
 20
48.686512999999991
 30
0.0
 11
-149.52926600000001
 21
-48.686512999999991
 31
0.0
  0
LINE
  5
140
  8
DETAIL
  6
CONTINUOUS
 62
     5
 10
-155.0
 20
-54.420499999999997
 30
0.0
 11
-151.25814399999999
 21
-51.403911000000001
 31
0.0
  0
ARC
  5
141
  8
DETAIL
  6
CONTINUOUS
 62
     5
 10
-152.52926600000001
 20
-48.686512999999991
 30
0.0
 40
3.0
 50
295.06885
 51
0.0
  0
LINE
  5
142
  8
DETAIL
  6
CONTINUOUS
 62
     5
 10
-155.0
 20
54.420499999999997
 30
0.0
 11
-151.25814399999999
 21
51.403911000000001
 31
0.0
  0
ARC
  5
143
  8
DETAIL
  6
CONTINUOUS
 62
     5
 10
-152.52926600000001
 20
48.686512999999991
 30
0.0
 40
3.0
 50
0.0
 51
64.931150000000002
  0
LINE
  5
144
  8
OUTLINE
  6
CONTINUOUS
 62
     3
 10
-149.52926600000001
 20
48.686512999999991
 30
0.0
 11
-149.52926600000001
 21
-48.686512999999991
 31
0.0
  0
LINE
  5
145
  8
OUTLINE
  6
CONTINUOUS
 62
     3
 10
-165.0
 20
-102.051394
 30
0.0
 11
-165.0
 21
66.948606000000012
 31
0.0
  0
LINE
  5
146
  8
OUTLINE
  6
CONTINUOUS
 62
     3
 10
-173.0
 20
-40.25
 30
0.0
 11
-173.0
 21
40.25
 31
0.0
  0
LINE
  5
147
  8
OUTLINE
  6
CONTINUOUS
 62
     3
 10
0.0
 20
-210.0
 30
0.0
 11
0.0
 21
210.0
 31
0.0
  0
LINE
  5
148
  8
OUTLINE
  6
CONTINUOUS
 62
     3
 10
-57.0
 20
-159.5
 30
0.0
 11
-57.0
 21
159.5
 31
0.0
  0
LINE
  5
149
  8
OUTLINE
  6
CONTINUOUS
 62
     3
 10
-130.0
 20
67.5
 30
0.0
 11
-130.0
 21
-67.5
 31
0.0
  0
LINE
  5
14A
  8
OUTLINE
  6
CONTINUOUS
 62
     3
 10
-60.0
 20
-159.5
 30
0.0
 11
-60.0
 21
159.5
 31
0.0
  0
LINE
  5
14B
  8
OUTLINE
  6
CONTINUOUS
 62
     3
 10
-20.0
 20
-185.5
 30
0.0
 11
-20.0
 21
185.5
 31
0.0
  0
LINE
  5
14C
  8
OUTLINE
  6
CONTINUOUS
 62
     3
 10
-10.0
 20
-193.0
 30
0.0
 11
-10.0
 21
193.0
 31
0.0
  0
ARC
  5
14D
  8
OUTLINE
  6
CONTINUOUS
 62
     3
 10
-100.0
 20
-124.5
 30
0.0
 40
55.0
 50
180.0
 51
270.0
  0
ARC
  5
14E
  8
OUTLINE
  6
CONTINUOUS
 62
     3
 10
-80.0
 20
-109.5
 30
0.0
 40
50.0
 50
180.0
 51
270.0
  0
LINE
  5
14F
  8
OUTLINE
  6
CONTINUOUS
 62
     3
 10
-100.0
 20
-179.5
 30
0.0
 11
-20.0
 21
-179.5
 31
0.0
  0
LINE
  5
150
  8
OUTLINE
  6
CONTINUOUS
 62
     3
 10
-57.0
 20
-182.5
 30
0.0
 11
-60.0
 21
-182.5
 31
0.0
  0
LINE
  5
151
  8
OUTLINE
  6
CONTINUOUS
 62
     3
 10
-60.0
 20
-179.5
 30
0.0
 11
-60.0
 21
-182.5
 31
0.0
  0
LINE
  5
152
  8
OUTLINE
  6
CONTINUOUS
 62
     3
 10
-10.0
 20
-210.0
 30
0.0
 11
0.0
 21
-210.0
 31
0.0
  0
LINE
  5
153
  8
OUTLINE
  6
CONTINUOUS
 62
     3
 10
-10.0
 20
-210.0
 30
0.0
 11
-10.0
 21
-193.0
 31
0.0
  0
LINE
  5
154
  8
OUTLINE
  6
CONTINUOUS
 62
     3
 10
-20.0
 20
-185.5
 30
0.0
 11
-10.0
 21
-185.5
 31
0.0
  0
LINE
  5
155
  8
OUTLINE
  6
CONTINUOUS
 62
     3
 10
-57.0
 20
-179.5
 30
0.0
 11
-57.0
 21
-182.5
 31
0.0
  0
LINE
  5
156
  8
OUTLINE
  6
CONTINUOUS
 62
     3
 10
-155.0
 20
-124.5
 30
0.0
 11
-155.0
 21
-54.420499999999997
 31
0.0
  0
LINE
  5
157
  8
OUTLINE
  6
CONTINUOUS
 62
     3
 10
-130.0
 20
-109.5
 30
0.0
 11
-130.0
 21
-67.5
 31
0.0
  0
LINE
  5
158
  8
OUTLINE
  6
CONTINUOUS
 62
     3
 10
-155.0
 20
-102.051394
 30
0.0
 11
-165.0
 21
-102.051394
 31
0.0
  0
ARC
  5
159
  8
OUTLINE
  6
CONTINUOUS
 62
     3
 10
-165.0
 20
-40.25
 30
0.0
 40
8.0
 50
180.0
 51
270.0
  0
LINE
  5
15A
  8
OUTLINE
  6
CONTINUOUS
 62
     3
 10
-155.0
 20
-54.420499999999997
 30
0.0
 11
-151.25814399999999
 21
-51.403911000000001
 31
0.0
  0
ARC
  5
15B
  8
OUTLINE
  6
CONTINUOUS
 62
     3
 10
-152.52926600000001
 20
-48.686512999999991
 30
0.0
 40
3.0
 50
295.06885
 51
0.0
  0
LINE
  5
15C
  8
OUTLINE
  6
CONTINUOUS
 62
     3
 10
-155.0
 20
-54.420499999999997
 30
0.0
 11
-130.0
 21
-54.420499999999997
 31
0.0
  0
LINE
  5
15D
  8
OUTLINE
  6
CONTINUOUS
 62
     3
 10
-20.0
 20
-159.5
 30
0.0
 11
-80.0
 21
-159.5
 31
0.0
  0
ARC
  5
15E
  8
OUTLINE
  6
CONTINUOUS
 62
     3
 10
-80.0
 20
109.5
 30
0.0
 40
50.0
 50
90.0
 51
180.0
  0
ARC
  5
15F
  8
OUTLINE
  6
CONTINUOUS
 62
     3
 10
-100.0
 20
124.5
 30
0.0
 40
55.0
 50
90.0
 51
180.0
  0
LINE
  5
160
  8
OUTLINE
  6
CONTINUOUS
 62
     3
 10
-155.0
 20
54.420499999999997
 30
0.0
 11
-155.0
 21
124.5
 31
0.0
  0
LINE
  5
161
  8
OUTLINE
  6
CONTINUOUS
 62
     3
 10
-130.0
 20
67.5
 30
0.0
 11
-130.0
 21
109.5
 31
0.0
  0
ARC
  5
162
  8
OUTLINE
  6
CONTINUOUS
 62
     3
 10
-165.0
 20
40.25
 30
0.0
 40
8.0
 50
90.0
 51
180.0
  0
LINE
  5
163
  8
OUTLINE
  6
CONTINUOUS
 62
     3
 10
-155.0
 20
54.420499999999997
 30
0.0
 11
-151.25814399999999
 21
51.403911000000001
 31
0.0
  0
ARC
  5
164
  8
OUTLINE
  6
CONTINUOUS
 62
     3
 10
-152.52926600000001
 20
48.686512999999991
 30
0.0
 40
3.0
 50
0.0
 51
64.931150000000002
  0
LINE
  5
165
  8
OUTLINE
  6
CONTINUOUS
 62
     3
 10
-155.0
 20
66.948606000000012
 30
0.0
 11
-165.0
 21
66.948606000000012
 31
0.0
  0
LINE
  5
166
  8
OUTLINE
  6
CONTINUOUS
 62
     3
 10
-155.0
 20
54.420499999999997
 30
0.0
 11
-130.0
 21
54.420499999999997
 31
0.0
  0
LINE
  5
167
  8
OUTLINE
  6
CONTINUOUS
 62
     3
 10
-20.0
 20
159.5
 30
0.0
 11
-80.0
 21
159.5
 31
0.0
  0
LINE
  5
168
  8
OUTLINE
  6
CONTINUOUS
 62
     3
 10
-57.0
 20
182.5
 30
0.0
 11
-60.0
 21
182.5
 31
0.0
  0
LINE
  5
169
  8
OUTLINE
  6
CONTINUOUS
 62
     3
 10
-20.0
 20
179.5
 30
0.0
 11
-100.0
 21
179.5
 31
0.0
  0
LINE
  5
16A
  8
OUTLINE
  6
CONTINUOUS
 62
     3
 10
-60.0
 20
179.5
 30
0.0
 11
-60.0
 21
182.5
 31
0.0
  0
LINE
  5
16B
  8
OUTLINE
  6
CONTINUOUS
 62
     3
 10
-10.0
 20
193.0
 30
0.0
 11
-10.0
 21
210.0
 31
0.0
  0
LINE
  5
16C
  8
OUTLINE
  6
CONTINUOUS
 62
     3
 10
-10.0
 20
210.0
 30
0.0
 11
0.0
 21
210.0
 31
0.0
  0
LINE
  5
16D
  8
OUTLINE
  6
CONTINUOUS
 62
     3
 10
-20.0
 20
185.5
 30
0.0
 11
-10.0
 21
185.5
 31
0.0
  0
LINE
  5
16E
  8
OUTLINE
  6
CONTINUOUS
 62
     3
 10
-57.0
 20
179.5
 30
0.0
 11
-57.0
 21
182.5
 31
0.0
  0
ARC
  5
16F
  8
DETAIL
  6
CONTINUOUS
 62
     5
 10
-134.356033
 20
23.290330000000001
 30
0.0
 40
93.648217000000002
 50
37.439751000000001
 51
70.069052999999997
  0
ARC
  5
170
  8
DETAIL
  6
CONTINUOUS
 62
     5
 10
-30.289909000000002
 20
95.136814000000015
 30
0.0
 40
73.935757999999993
 50
119.479885
 51
167.34964600000001
  0
ARC
  5
171
  8
DETAIL
  6
CONTINUOUS
 62
     5
 10
18.894811000000001
 20
66.052664000000007
 30
0.0
 40
108.441577
 50
190.58915699999989
 51
222.85597000000001
  0
ARC
  5
172
  8
DETAIL
  6
CONTINUOUS
 62
     5
 10
414.09076699999991
 20
84.550528
 30
0.0
 40
503.25950399999999
 50
184.37897599999999
 51
199.60291799999999
  0
ARC
  5
173
  8
DETAIL
  6
CONTINUOUS
 62
     5
 10
15.682897000000001
 20
-132.38075900000001
 30
0.0
 40
121.549594
 50
135.821056
 51
189.92840100000001
  0
ARC
  5
174
  8
DETAIL
  6
CONTINUOUS
 62
     5
 10
121.03286300000001
 20
-211.95989700000001
 30
0.0
 40
232.58801500000001
 50
142.85301200000001
 51
165.40163899999999
  0
LINE
  5
175
  8
DETAIL
  6
CONTINUOUS
 62
     5
 10
-80.0
 20
-11.076052000000001
 30
0.0
 11
-80.0
 21
-43.25
 31
0.0
  0
TEXT
  5
1B0
  8
ETC
  6
CONTINUOUS
 62
    61
 10
249.49926806544829
 20
610.17808507835105
 30
0.0
 40
64.0
  1
EG-30ASB3_4
 41
0.9
  0
TEXT
  5
1B1
  8
ETC
  6
CONTINUOUS
 62
    61
 10
246.2159900654483
 20
511.67782107835109
 30
0.0
 40
64.0
  1
産業扇
 41
0.9
  0
TEXT
  5
1B2
  8
ETC
  6
CONTINUOUS
 62
    61
 10
333.38145981932541
 20
411.72418512808781
 30
0.0
 40
64.0
  1
EG-30ASB3
 41
0.9
  0
TEXT
  5
1B3
  8
ETC
  6
CONTINUOUS
 62
    61
 10
333.38145981932541
 20
332.00099208185293
 30
0.0
 40
64.0
  1
EG-30ATB3
 41
0.9
  0
ENDSEC
  0
EOF
