  0
SECTION
  2
HEADER
  9
$ACADVER
  1
AC1009
  9
$INSBASE
 10
0.0
 20
0.0
 30
0.0
  9
$EXTMIN
 10
-501.22373817863979
 20
-521.34703428175635
 30
-0.0015257624927045
  9
$EXTMAX
 10
1080.395519442849
 20
619.40003246930428
 30
50.001525995323327
  9
$LIMMIN
 10
-2970.0
 20
-2100.0
  9
$LIMMAX
 10
2970.0
 20
2100.0
  9
$ORTHOMODE
 70
     1
  9
$REGENMODE
 70
     0
  9
$FILLMODE
 70
     1
  9
$QTEXTMODE
 70
     0
  9
$MIRRTEXT
 70
     0
  9
$DRAGMODE
 70
     2
  9
$LTSCALE
 40
20.0
  9
$OSMODE
 70
    37
  9
$ATTMODE
 70
     1
  9
$TEXTSIZE
 40
64.0
  9
$TRACEWID
 40
0.05
  9
$TEXTSTYLE
  7
STANDARD
  9
$CLAYER
  8
SIZE
  9
$CELTYPE
  6
CONTINUOUS
  9
$CECOLOR
 62
    30
  9
$DIMSCALE
 40
1.0
  9
$DIMASZ
 40
12.0
  9
$DIMEXO
 40
20.0
  9
$DIMDLI
 40
200.0
  9
$DIMRND
 40
0.0
  9
$DIMDLE
 40
0.0
  9
$DIMEXE
 40
20.0
  9
$DIMTP
 40
0.0
  9
$DIMTM
 40
0.0
  9
$DIMTXT
 40
64.0
  9
$DIMCEN
 40
0.09
  9
$DIMTSZ
 40
0.0
  9
$DIMTOL
 70
     0
  9
$DIMLIM
 70
     0
  9
$DIMTIH
 70
     0
  9
$DIMTOH
 70
     0
  9
$DIMSE1
 70
     0
  9
$DIMSE2
 70
     0
  9
$DIMTAD
 70
     1
  9
$DIMZIN
 70
     8
  9
$DIMBLK
  1

  9
$DIMASO
 70
     1
  9
$DIMSHO
 70
     0
  9
$DIMPOST
  1

  9
$DIMAPOST
  1

  9
$DIMALT
 70
     0
  9
$DIMALTD
 70
     2
  9
$DIMALTF
 40
25.399999999999999
  9
$DIMLFAC
 40
1.0
  9
$DIMTOFL
 70
     1
  9
$DIMTVP
 40
0.0
  9
$DIMTIX
 70
     1
  9
$DIMSOXD
 70
     0
  9
$DIMSAH
 70
     1
  9
$DIMBLK1
  1
ORIGIN
  9
$DIMBLK2
  1
ORIGIN
  9
$DIMSTYLE
  2
STANDARD
  9
$DIMCLRD
 70
     0
  9
$DIMCLRE
 70
     0
  9
$DIMCLRT
 70
     0
  9
$DIMTFAC
 40
1.0
  9
$DIMGAP
 40
25.0
  9
$LUNITS
 70
     2
  9
$LUPREC
 70
     4
  9
$SKETCHINC
 40
0.1
  9
$FILLETRAD
 40
50.0
  9
$AUNITS
 70
     1
  9
$AUPREC
 70
     3
  9
$MENU
  1
ACAD
  9
$ELEVATION
 40
0.0
  9
$PELEVATION
 40
0.0
  9
$THICKNESS
 40
50.0
  9
$LIMCHECK
 70
     0
  9
$BLIPMODE
 70
     0
  9
$CHAMFERA
 40
0.0
  9
$CHAMFERB
 40
0.0
  9
$SKPOLY
 70
     0
  9
$TDCREATE
 40
2452310.4493174772
  9
$TDUPDATE
 40
2454946.50489478
  9
$TDINDWG
 40
0.0759804745
  9
$TDUSRTIMER
 40
0.0759797338
  9
$USRTIMER
 70
     1
  9
$ANGBASE
 50
0.0
  9
$ANGDIR
 70
     0
  9
$PDMODE
 70
     3
  9
$PDSIZE
 40
-2.0
  9
$PLINEWID
 40
0.0
  9
$COORDS
 70
     0
  9
$SPLFRAME
 70
     0
  9
$SPLINETYPE
 70
     6
  9
$SPLINESEGS
 70
     8
  9
$ATTDIA
 70
     0
  9
$ATTREQ
 70
     1
  9
$HANDLING
 70
     1
  9
$HANDSEED
  5
517
  9
$SURFTAB1
 70
     6
  9
$SURFTAB2
 70
     6
  9
$SURFTYPE
 70
     6
  9
$SURFU
 70
     6
  9
$SURFV
 70
     6
  9
$UCSNAME
  2

  9
$UCSORG
 10
0.0
 20
0.0
 30
0.0
  9
$UCSXDIR
 10
1.0
 20
0.0
 30
0.0
  9
$UCSYDIR
 10
0.0
 20
1.0
 30
0.0
  9
$PUCSNAME
  2

  9
$PUCSORG
 10
0.0
 20
0.0
 30
0.0
  9
$PUCSXDIR
 10
1.0
 20
0.0
 30
0.0
  9
$PUCSYDIR
 10
0.0
 20
1.0
 30
0.0
  9
$USERI1
 70
     0
  9
$USERI2
 70
     0
  9
$USERI3
 70
     0
  9
$USERI4
 70
     0
  9
$USERI5
 70
     0
  9
$USERR1
 40
20.0
  9
$USERR2
 40
0.0
  9
$USERR3
 40
0.0
  9
$USERR4
 40
0.0
  9
$USERR5
 40
0.0
  9
$WORLDVIEW
 70
     1
  9
$SHADEDGE
 70
     3
  9
$SHADEDIF
 70
    70
  9
$TILEMODE
 70
     1
  9
$MAXACTVP
 70
    64
  9
$PLIMCHECK
 70
     0
  9
$PEXTMIN
 10
1.0000000000000000E+020
 20
1.0000000000000000E+020
 30
1.0000000000000000E+020
  9
$PEXTMAX
 10
-1.0000000000000000E+020
 20
-1.0000000000000000E+020
 30
-1.0000000000000000E+020
  9
$PLIMMIN
 10
0.0
 20
0.0
  9
$PLIMMAX
 10
12.0
 20
9.0
  9
$UNITMODE
 70
     0
  9
$VISRETAIN
 70
     1
  9
$PLINEGEN
 70
     0
  9
$PSLTSCALE
 70
     1
  0
ENDSEC
  0
SECTION
  2
TABLES
  0
TABLE
  2
VPORT
 70
     1
  0
VPORT
  2
*ACTIVE
 70
     0
 10
0.0
 20
0.0
 11
1.0
 21
1.0
 12
329.70400826970172
 22
44.383076364625133
 13
0.0
 23
0.0
 14
1.0
 24
1.0
 15
0.0
 25
0.0
 16
0.0
 26
0.0
 36
1.0
 17
0.0
 27
0.0
 37
0.0
 40
1365.0041026650149
 41
1.3098995695839311
 42
50.0
 43
0.0
 44
0.0
 50
0.0
 51
0.0
 71
     0
 72
   100
 73
     1
 74
     0
 75
     0
 76
     0
 77
     0
 78
     1
  0
ENDTAB
  0
TABLE
  2
LTYPE
 70
     3
  0
LTYPE
  2
CONTINUOUS
 70
     0
  3
実線
 72
    65
 73
     0
 40
0.0
  0
LTYPE
  2
DASHDOT
 70
     0
  3
____ _ ____ _ ____ _ ____ _ ____ _ ____ _ ____
 72
    65
 73
     4
 40
5.5
 49
4.0
 49
-0.6
 49
0.3
 49
-0.6
  0
ENDTAB
  0
TABLE
  2
LAYER
 70
    12
  0
LAYER
  2
0
 70
     0
 62
     7
  6
CONTINUOUS
  0
LAYER
  2
SIZE
 70
     0
 62
    30
  6
CONTINUOUS
  0
LAYER
  2
FIX
 70
     0
 62
    11
  6
CONTINUOUS
  0
LAYER
  2
BASIS
 70
     0
 62
     6
  6
DASHDOT
  0
LAYER
  2
OUTLINE
 70
     0
 62
     3
  6
CONTINUOUS
  0
LAYER
  2
DETAIL
 70
     0
 62
     5
  6
CONTINUOUS
  0
LAYER
  2
ARRANGE
 70
     0
 62
     1
  6
CONTINUOUS
  0
LAYER
  2
DEFPOINTS
 70
     0
 62
     7
  6
CONTINUOUS
  0
LAYER
  2
ETC
 70
     0
 62
    61
  6
CONTINUOUS
  0
LAYER
  2
NOTE
 70
     0
 62
     4
  6
CONTINUOUS
  0
LAYER
  2
SERVICESPACE
 70
     0
 62
     2
  6
DASHDOT
  0
LAYER
  2
SYMBOLLINE
 70
     0
 62
    15
  6
CONTINUOUS
  0
ENDTAB
  0
TABLE
  2
STYLE
 70
     2
  0
STYLE
  2
STANDARD
 70
     0
 40
64.0
 41
0.9
 50
0.0
 71
     0
 42
64.0
  3
SIMPLEX.shx
  4
BIGFONT.shx
  0
STYLE
  2
ANNOTATIVE
 70
     0
 40
0.0
 41
1.0
 50
0.0
 71
     0
 42
0.2
  3
txt
  4

  0
ENDTAB
  0
TABLE
  2
VIEW
 70
     1
  0
VIEW
  2
ALL
 70
     0
 40
4282.6198079999967
 10
0.0
 20
41.309903999999989
 41
5940.0
 11
0.0
 21
0.0
 31
1.0
 12
0.0
 22
0.0
 32
0.0
 42
50.0
 43
0.0
 44
0.0
 50
0.0
 71
     0
  0
ENDTAB
  0
TABLE
  2
UCS
 70
     0
  0
ENDTAB
  0
TABLE
  2
APPID
 70
     4
  0
APPID
  2
ACAD
 70
     0
  0
APPID
  2
ACADANNOTATIVE
 70
     0
  0
APPID
  2
ACAD_MLEADERVER
 70
     0
  0
APPID
  2
ACAD_EXEMPT_FROM_CAD_STANDARDS
 70
     0
  0
ENDTAB
  0
TABLE
  2
DIMSTYLE
 70
     2
  0
DIMSTYLE
  2
STANDARD
 70
     0
  3

  4

  5

  6

  7

 40
1.0
 41
0.18
 42
0.0625
 43
0.38
 44
0.18
 45
0.0
 46
0.0
 47
0.0
 48
0.0
140
0.18
141
0.09
142
0.0
143
25.399999999999999
144
1.0
145
0.0
146
1.0
147
0.09
 71
     0
 72
     0
 73
     1
 74
     1
 75
     0
 76
     0
 77
     0
 78
     0
170
     0
171
     2
172
     0
173
     0
174
     0
175
     0
176
     0
177
     0
178
     0
  0
DIMSTYLE
  2
ANNOTATIVE
 70
     0
  3

  4

  5

  6

  7

 40
1.0
 41
0.18
 42
0.0625
 43
0.38
 44
0.18
 45
0.0
 46
0.0
 47
0.0
 48
0.0
140
0.18
141
0.09
142
0.0
143
25.399999999999999
144
1.0
145
0.0
146
1.0
147
0.09
 71
     0
 72
     0
 73
     1
 74
     1
 75
     0
 76
     0
 77
     0
 78
     0
170
     0
171
     2
172
     0
173
     0
174
     0
175
     0
176
     0
177
     0
178
     0
  0
ENDTAB
  0
ENDSEC
  0
SECTION
  2
BLOCKS
  0
BLOCK
  8
0
  2
$MODEL_SPACE
 70
     0
 10
0.0
 20
0.0
 30
0.0
  3
$MODEL_SPACE
  1

  0
ENDBLK
  5
4B4
  8
0
  0
BLOCK
 67
     1
  8
0
  2
$PAPER_SPACE
 70
     0
 10
0.0
 20
0.0
 30
0.0
  3
$PAPER_SPACE
  1

  0
ENDBLK
  5
4B0
 67
     1
  8
0
  0
BLOCK
  8
0
  2
DOT1
 70
     0
 10
0.0
 20
0.0
 30
0.0
  3
DOT1
  1

  0
CIRCLE
  5
323
  8
SIZE
  6
CONTINUOUS
 62
     7
 10
0.0
 20
0.0
 30
0.0
 40
3.0
  0
ENDBLK
  5
324
  8
0
  0
BLOCK
  8
0
  2
_ORIGIN
 70
     0
 10
0.0
 20
0.0
 30
0.0
  3
_ORIGIN
  1

  0
CIRCLE
  5
327
  8
0
  6
CONTINUOUS
 62
     7
 10
0.0
 20
0.0
 30
0.0
 40
0.5
  0
LINE
  5
328
  8
0
  6
CONTINUOUS
 62
     7
 10
0.0
 20
0.0
 30
0.0
 11
-1.0
 21
0.0
 31
0.0
  0
ENDBLK
  5
329
  8
0
  0
BLOCK
  8
0
 62
    30
  2
*D4
 70
     1
 10
0.0
 20
0.0
 30
0.0
  3
*D4
  1

  0
LINE
  5
32C
  8
SIZE
  6
CONTINUOUS
 62
     0
 10
-20.0
 20
235.0
 30
0.0
 11
-270.42498430309502
 21
235.0
 31
0.0
  0
LINE
  5
32D
  8
SIZE
  6
CONTINUOUS
 62
     0
 10
-20.0
 20
-235.0
 30
0.0
 11
-270.42498430309519
 21
-234.99999999999969
 31
0.0
  0
LINE
  5
32E
  8
SIZE
  6
CONTINUOUS
 62
     0
 10
-250.42498430309499
 20
223.0
 30
0.0
 11
-250.42498430309499
 21
-222.99999999999989
 31
0.0
  0
INSERT
  5
32F
  8
SIZE
  6
CONTINUOUS
 62
     0
  2
_ORIGIN
 10
-250.42498430309499
 20
235.0
 30
0.0
 41
12.0
 42
12.0
 43
12.0
 50
90.0
  0
INSERT
  5
330
  8
SIZE
  6
CONTINUOUS
 62
     0
  2
_ORIGIN
 10
-250.42498430309499
 20
-234.99999999999969
 30
0.0
 41
12.0
 42
12.0
 43
12.0
 50
270.0
  0
TEXT
  5
331
  8
SIZE
  6
CONTINUOUS
 62
     0
 10
-275.42498430309502
 20
-74.057142857142779
 30
0.0
 40
64.0
  1
470
 50
90.0
 41
0.9
  0
POINT
  5
332
  8
DEFPOINTS
  6
CONTINUOUS
 62
     0
 10
0.0
 20
235.0
 30
0.0
  0
POINT
  5
333
  8
DEFPOINTS
  6
CONTINUOUS
 62
     0
 10
0.0
 20
-235.0
 30
0.0
  0
POINT
  5
334
  8
DEFPOINTS
  6
CONTINUOUS
 62
     0
 10
-250.42498430309499
 20
-234.99999999999969
 30
0.0
  0
ENDBLK
  5
335
  8
0
 62
    30
  0
ENDSEC
  0
SECTION
  2
ENTITIES
  0
LINE
  5
336
  8
DETAIL
  6
CONTINUOUS
 62
     5
 10
0.0
 20
-235.0
 30
0.0
 11
0.0
 21
235.0
 31
0.0
  0
LINE
  5
337
  8
BASIS
  6
DASHDOT
 62
     6
 10
-75.692600999999982
 20
0.0
 30
0.0
 11
252.37314599999999
 21
0.0
 31
0.0
  0
LINE
  5
338
  8
DETAIL
  6
CONTINUOUS
 62
     5
 10
67.0
 20
207.5
 30
0.0
 11
70.0
 21
207.5
 31
0.0
  0
LINE
  5
339
  8
DETAIL
  6
CONTINUOUS
 62
     5
 10
171.0
 20
-149.5
 30
0.0
 11
171.0
 21
-54.420499999999997
 31
0.0
  0
TEXT
  5
33A
  8
NOTE
  6
CONTINUOUS
 62
     4
 10
-483.03837600000003
 20
-328.183851
 30
0.0
 40
64.0
  1
4-φ12
 41
0.9
  0
LINE
  5
33B
  8
NOTE
  6
CONTINUOUS
 62
     4
 10
-188.2279439999997
 20
-355.61080199999992
 30
0.0
 11
-501.20503799999989
 21
-355.61080199999992
 31
0.0
  0
LINE
  5
33C
  8
NOTE
  6
CONTINUOUS
 62
     4
 10
10.0
 20
-217.0
 30
0.0
 11
-188.2279439999997
 21
-355.61080199999992
 31
0.0
  0
LINE
  5
33D
  8
NOTE
  6
CONTINUOUS
 62
     4
 10
-27.703379999999999
 20
-230.35871
 30
0.0
 11
10.0
 21
-217.0
 31
0.0
  0
LINE
  5
33E
  8
NOTE
  6
CONTINUOUS
 62
     4
 10
10.0
 20
-217.0
 30
0.0
 11
-15.97272999999999
 21
-247.42067299999999
 31
0.0
  0
LINE
  5
33F
  8
DETAIL
  6
CONTINUOUS
 62
     5
 10
20.0
 20
-210.49999999999989
 30
0.0
 11
10.0
 21
-210.49999999999989
 31
0.0
  0
LINE
  5
340
  8
DETAIL
  6
CONTINUOUS
 62
     5
 10
20.0
 20
210.49999999999989
 30
0.0
 11
10.0
 21
210.49999999999989
 31
0.0
  0
LINE
  5
341
  8
SIZE
  6
CONTINUOUS
 62
    30
 10
0.0
 20
253.5
 30
0.0
 11
0.0
 21
373.564278
 31
0.0
  0
LINE
  5
342
  8
SIZE
  6
CONTINUOUS
 62
    30
 10
10.0
 20
253.5
 30
0.0
 11
10.0
 21
373.564278
 31
0.0
  0
LINE
  5
343
  8
SIZE
  6
CONTINUOUS
 62
    30
 10
-12.0
 20
353.56427799999972
 30
0.0
 11
-24.0
 21
353.56427799999972
 31
0.0
  0
LINE
  5
344
  8
SIZE
  6
CONTINUOUS
 62
    30
 10
22.0
 20
353.56427799999972
 30
0.0
 11
34.0
 21
353.56427799999972
 31
0.0
  0
LINE
  5
345
  8
SIZE
  6
CONTINUOUS
 62
    30
 10
-157.02845899999991
 20
353.56427799999972
 30
0.0
 11
0.0
 21
353.56427799999972
 31
0.0
  0
TEXT
  5
346
  8
SIZE
  6
CONTINUOUS
 62
    30
 10
-132.02845914285709
 20
378.56427799999989
 30
0.0
 40
64.0
  1
10
 41
0.9
 72
     1
 11
-90.885602000000006
 21
378.56427799999989
 31
0.0
  0
LINE
  5
347
  8
SIZE
  6
CONTINUOUS
 62
    30
 10
0.0
 20
353.56427799999972
 30
0.0
 11
10.0
 21
353.56427799999972
 31
0.0
  0
LINE
  5
348
  8
SIZE
  6
CONTINUOUS
 62
    30
 10
0.0
 20
353.56427799999972
 30
0.0
 11
10.0
 21
353.56427799999972
 31
0.0
  0
CIRCLE
  5
349
  8
SIZE
  6
CONTINUOUS
 62
    30
 10
0.0
 20
353.56427799999972
 30
0.0
 40
6.0
  0
LINE
  5
34A
  8
SIZE
  6
CONTINUOUS
 62
    30
 10
0.0
 20
353.56427799999972
 30
0.0
 11
-12.0
 21
353.56427799999972
 31
0.0
  0
CIRCLE
  5
34B
  8
SIZE
  6
CONTINUOUS
 62
    30
 10
10.0
 20
353.56427799999972
 30
0.0
 40
6.0
  0
LINE
  5
34C
  8
SIZE
  6
CONTINUOUS
 62
    30
 10
10.0
 20
353.56427799999972
 30
0.0
 11
22.0
 21
353.56427799999972
 31
0.0
  0
POINT
  5
34D
  8
DEFPOINTS
  6
CONTINUOUS
 62
    30
 10
10.0
 20
353.56427799999972
 30
0.0
  0
LINE
  5
34E
  8
SIZE
  6
CONTINUOUS
 62
    30
 10
10.0
 20
255.0
 30
0.0
 11
10.0
 21
373.564278
 31
0.0
  0
LINE
  5
34F
  8
SIZE
  6
CONTINUOUS
 62
    30
 10
20.0
 20
230.5
 30
0.0
 11
20.0
 21
373.564278
 31
0.0
  0
LINE
  5
350
  8
SIZE
  6
CONTINUOUS
 62
    30
 10
-2.0
 20
353.56427799999972
 30
0.0
 11
-14.0
 21
353.56427799999972
 31
0.0
  0
LINE
  5
351
  8
SIZE
  6
CONTINUOUS
 62
    30
 10
32.0
 20
353.56427799999972
 30
0.0
 11
44.0
 21
353.56427799999972
 31
0.0
  0
LINE
  5
352
  8
SIZE
  6
CONTINUOUS
 62
    30
 10
182.74230800000001
 20
353.56427799999972
 30
0.0
 11
20.0
 21
353.56427799999972
 31
0.0
  0
TEXT
  5
353
  8
SIZE
  6
CONTINUOUS
 62
    30
 10
75.456593857142764
 20
378.56427799999989
 30
0.0
 40
64.0
  1
10
 41
0.9
 72
     1
 11
116.5994509999999
 21
378.56427799999989
 31
0.0
  0
LINE
  5
354
  8
SIZE
  6
CONTINUOUS
 62
    30
 10
10.0
 20
353.56427799999972
 30
0.0
 11
20.0
 21
353.56427799999972
 31
0.0
  0
LINE
  5
355
  8
SIZE
  6
CONTINUOUS
 62
    30
 10
10.0
 20
353.56427799999972
 30
0.0
 11
20.0
 21
353.56427799999972
 31
0.0
  0
CIRCLE
  5
356
  8
SIZE
  6
CONTINUOUS
 62
    30
 10
10.0
 20
353.56427799999972
 30
0.0
 40
6.0
  0
LINE
  5
357
  8
SIZE
  6
CONTINUOUS
 62
    30
 10
10.0
 20
353.56427799999972
 30
0.0
 11
-2.0
 21
353.56427799999972
 31
0.0
  0
CIRCLE
  5
358
  8
SIZE
  6
CONTINUOUS
 62
    30
 10
20.0
 20
353.56427799999972
 30
0.0
 40
6.0
  0
LINE
  5
359
  8
SIZE
  6
CONTINUOUS
 62
    30
 10
20.0
 20
353.56427799999972
 30
0.0
 11
32.0
 21
353.56427799999972
 31
0.0
  0
POINT
  5
35A
  8
DEFPOINTS
  6
CONTINUOUS
 62
    30
 10
20.0
 20
353.56427799999972
 30
0.0
  0
LINE
  5
35B
  8
SIZE
  6
CONTINUOUS
 62
    30
 10
-2.0
 20
-440.31701099999992
 30
0.0
 11
-110.43513299999979
 21
-440.31701099999992
 31
0.0
  0
LINE
  5
35C
  8
DETAIL
  6
CONTINUOUS
 62
     5
 10
10.0
 20
-235.0
 30
0.0
 11
10.0
 21
235.0
 31
0.0
  0
LINE
  5
35D
  8
DETAIL
  6
CONTINUOUS
 62
     5
 10
20.0
 20
-210.49999999999989
 30
0.0
 11
20.0
 21
210.49999999999989
 31
0.0
  0
LINE
  5
35E
  8
DETAIL
  6
CONTINUOUS
 62
     5
 10
171.0
 20
54.420499999999997
 30
0.0
 11
171.0
 21
149.5
 31
0.0
  0
LINE
  5
35F
  8
DETAIL
  6
CONTINUOUS
 62
     5
 10
171.0
 20
54.420499999999997
 30
0.0
 11
146.0
 21
54.420499999999997
 31
0.0
  0
LINE
  5
360
  8
DETAIL
  6
CONTINUOUS
 62
     5
 10
146.0
 20
-134.49999999999969
 30
0.0
 11
146.0
 21
-67.5
 31
0.0
  0
LINE
  5
361
  8
DETAIL
  6
CONTINUOUS
 62
     5
 10
70.0
 20
-184.49999999999969
 30
0.0
 11
70.0
 21
184.49999999999969
 31
0.0
  0
LINE
  5
362
  8
DETAIL
  6
CONTINUOUS
 62
     5
 10
146.0
 20
48.25
 30
0.0
 11
101.0
 21
48.25
 31
0.0
  0
LINE
  5
363
  8
SIZE
  6
CONTINUOUS
 62
    30
 10
0.0
 20
-253.5
 30
0.0
 11
0.0
 21
-521.18094900000006
 31
0.0
  0
LINE
  5
364
  8
SIZE
  6
CONTINUOUS
 62
    30
 10
189.0
 20
-60.25
 30
0.0
 11
189.0
 21
-521.18094900000006
 31
0.0
  0
LINE
  5
365
  8
SIZE
  6
CONTINUOUS
 62
    30
 10
12.0
 20
-501.180949
 30
0.0
 11
177.0
 21
-501.180949
 31
0.0
  0
LINE
  5
366
  8
SIZE
  6
CONTINUOUS
 62
    30
 10
393.21292899999992
 20
-501.180949
 30
0.0
 11
189.0
 21
-501.180949
 31
0.0
  0
TEXT
  5
367
  8
SIZE
  6
CONTINUOUS
 62
    30
 10
233.812929
 20
-476.180949
 30
0.0
 40
64.0
  1
189
 41
0.9
 72
     1
 11
301.01292899999999
 21
-476.180949
 31
0.0
  0
CIRCLE
  5
368
  8
SIZE
  6
CONTINUOUS
 62
    30
 10
0.0
 20
-501.180949
 30
0.0
 40
6.0
  0
LINE
  5
369
  8
SIZE
  6
CONTINUOUS
 62
    30
 10
0.0
 20
-501.180949
 30
0.0
 11
12.0
 21
-501.180949
 31
0.0
  0
CIRCLE
  5
36A
  8
SIZE
  6
CONTINUOUS
 62
    30
 10
189.0
 20
-501.180949
 30
0.0
 40
6.0
  0
LINE
  5
36B
  8
SIZE
  6
CONTINUOUS
 62
    30
 10
189.0
 20
-501.180949
 30
0.0
 11
177.0
 21
-501.180949
 31
0.0
  0
POINT
  5
36C
  8
DEFPOINTS
  6
CONTINUOUS
 62
    30
 10
189.0
 20
-501.180949
 30
0.0
  0
LINE
  5
36D
  8
DETAIL
  6
CONTINUOUS
 62
     5
 10
146.0
 20
134.49999999999969
 30
0.0
 11
146.0
 21
-67.5
 31
0.0
  0
LINE
  5
36E
  8
DETAIL
  6
CONTINUOUS
 62
     5
 10
20.0
 20
204.49999999999989
 30
0.0
 11
116.0
 21
204.49999999999989
 31
0.0
  0
LINE
  5
36F
  8
DETAIL
  6
CONTINUOUS
 62
     5
 10
20.0
 20
184.49999999999969
 30
0.0
 11
96.0
 21
184.49999999999969
 31
0.0
  0
ARC
  5
370
  8
DETAIL
  6
CONTINUOUS
 62
     5
 10
116.0
 20
149.5
 30
0.0
 40
55.0
 50
0.0
 51
90.0
  0
LINE
  5
371
  8
DETAIL
  6
CONTINUOUS
 62
     5
 10
67.0
 20
-184.49999999999969
 30
0.0
 11
67.0
 21
184.49999999999969
 31
0.0
  0
LINE
  5
372
  8
DETAIL
  6
CONTINUOUS
 62
     5
 10
70.0
 20
204.49999999999989
 30
0.0
 11
70.0
 21
207.5
 31
0.0
  0
LINE
  5
373
  8
DETAIL
  6
CONTINUOUS
 62
     5
 10
67.0
 20
204.49999999999989
 30
0.0
 11
67.0
 21
207.5
 31
0.0
  0
LINE
  5
374
  8
DETAIL
  6
CONTINUOUS
 62
     5
 10
20.0
 20
-184.49999999999969
 30
0.0
 11
96.0
 21
-184.49999999999969
 31
0.0
  0
LINE
  5
375
  8
DETAIL
  6
CONTINUOUS
 62
     5
 10
116.0
 20
-204.49999999999989
 30
0.0
 11
20.0
 21
-204.49999999999989
 31
0.0
  0
ARC
  5
376
  8
DETAIL
  6
CONTINUOUS
 62
     5
 10
116.0
 20
-149.5
 30
0.0
 40
55.0
 50
270.0
 51
0.0
  0
LINE
  5
377
  8
DETAIL
  6
CONTINUOUS
 62
     5
 10
70.0
 20
-204.49999999999989
 30
0.0
 11
70.0
 21
-207.5
 31
0.0
  0
LINE
  5
378
  8
DETAIL
  6
CONTINUOUS
 62
     5
 10
67.0
 20
-204.49999999999989
 30
0.0
 11
67.0
 21
-207.5
 31
0.0
  0
LINE
  5
379
  8
DETAIL
  6
CONTINUOUS
 62
     5
 10
67.0
 20
-207.5
 30
0.0
 11
70.0
 21
-207.5
 31
0.0
  0
LINE
  5
37A
  8
SIZE
  6
CONTINUOUS
 62
    30
 10
0.0
 20
-253.5
 30
0.0
 11
0.0
 21
-460.31701099999992
 31
0.0
  0
LINE
  5
37B
  8
SIZE
  6
CONTINUOUS
 62
    30
 10
70.0
 20
-227.49999999999989
 30
0.0
 11
70.0
 21
-460.31701099999992
 31
0.0
  0
LINE
  5
37C
  8
SIZE
  6
CONTINUOUS
 62
    30
 10
-12.0
 20
-440.31701099999992
 30
0.0
 11
-24.0
 21
-440.31701099999992
 31
0.0
  0
LINE
  5
37D
  8
SIZE
  6
CONTINUOUS
 62
    30
 10
82.0
 20
-440.31701099999992
 30
0.0
 11
94.0
 21
-440.31701099999992
 31
0.0
  0
LINE
  5
37E
  8
SIZE
  6
CONTINUOUS
 62
    30
 10
-167.53635700000001
 20
-440.31701099999992
 30
0.0
 11
0.0
 21
-440.31701099999992
 31
0.0
  0
TEXT
  5
37F
  8
SIZE
  6
CONTINUOUS
 62
    30
 10
-142.53635742857139
 20
-415.31701099999992
 30
0.0
 40
64.0
  1
70
 41
0.9
 72
     1
 11
-95.907786000000002
 21
-415.31701099999992
 31
0.0
  0
LINE
  5
380
  8
SIZE
  6
CONTINUOUS
 62
    30
 10
0.0
 20
-440.31701099999992
 30
0.0
 11
70.0
 21
-440.31701099999992
 31
0.0
  0
LINE
  5
381
  8
SIZE
  6
CONTINUOUS
 62
    30
 10
0.0
 20
-440.31701099999992
 30
0.0
 11
70.0
 21
-440.31701099999992
 31
0.0
  0
CIRCLE
  5
382
  8
SIZE
  6
CONTINUOUS
 62
    30
 10
0.0
 20
-440.31701099999992
 30
0.0
 40
6.0
  0
LINE
  5
383
  8
SIZE
  6
CONTINUOUS
 62
    30
 10
0.0
 20
-440.31701099999992
 30
0.0
 11
-12.0
 21
-440.31701099999992
 31
0.0
  0
CIRCLE
  5
384
  8
SIZE
  6
CONTINUOUS
 62
    30
 10
70.0
 20
-440.31701099999992
 30
0.0
 40
6.0
  0
LINE
  5
385
  8
SIZE
  6
CONTINUOUS
 62
    30
 10
70.0
 20
-440.31701099999992
 30
0.0
 11
82.0
 21
-440.31701099999992
 31
0.0
  0
POINT
  5
386
  8
DEFPOINTS
  6
CONTINUOUS
 62
    30
 10
70.0
 20
-440.31701099999992
 30
0.0
  0
LINE
  5
387
  8
SIZE
  6
CONTINUOUS
 62
    30
 10
-30.0
 20
-217.0
 30
0.0
 11
-152.60311399999981
 21
-217.0
 31
0.0
  0
LINE
  5
388
  8
SIZE
  6
CONTINUOUS
 62
    30
 10
-30.0
 20
217.0
 30
0.0
 11
-152.60311399999981
 21
217.0
 31
0.0
  0
LINE
  5
389
  8
SIZE
  6
CONTINUOUS
 62
    30
 10
-132.60311399999969
 20
-205.0
 30
0.0
 11
-132.60311399999969
 21
205.0
 31
0.0
  0
CIRCLE
  5
38A
  8
SIZE
  6
CONTINUOUS
 62
    30
 10
-132.60311399999969
 20
-217.0
 30
0.0
 40
6.0
  0
LINE
  5
38B
  8
SIZE
  6
CONTINUOUS
 62
    30
 10
-132.60311399999969
 20
-217.0
 30
0.0
 11
-132.60311399999969
 21
-205.0
 31
0.0
  0
CIRCLE
  5
38C
  8
SIZE
  6
CONTINUOUS
 62
    30
 10
-132.60311399999969
 20
217.0
 30
0.0
 40
6.0
  0
LINE
  5
38D
  8
SIZE
  6
CONTINUOUS
 62
    30
 10
-132.60311399999969
 20
217.0
 30
0.0
 11
-132.60311399999969
 21
205.0
 31
0.0
  0
TEXT
  5
38E
  8
SIZE
  6
CONTINUOUS
 62
    30
 10
-157.60311399999969
 20
-75.428571428571416
 30
0.0
 40
64.0
  1
434
 50
90.0
 41
0.9
 72
     1
 11
-157.60311399999969
 21
0.0
 31
0.0
  0
POINT
  5
38F
  8
DEFPOINTS
  6
CONTINUOUS
 62
    30
 10
-132.60311399999969
 20
217.0
 30
0.0
  0
LINE
  5
390
  8
NOTE
  6
CONTINUOUS
 62
     4
 10
30.0
 20
217.0
 30
0.0
 11
-10.0
 21
217.0
 31
0.0
  0
LINE
  5
391
  8
NOTE
  6
CONTINUOUS
 62
     4
 10
10.0
 20
237.0
 30
0.0
 11
10.0
 21
197.0
 31
0.0
  0
LINE
  5
392
  8
NOTE
  6
CONTINUOUS
 62
     4
 10
30.0
 20
-217.0
 30
0.0
 11
-10.0
 21
-217.0
 31
0.0
  0
LINE
  5
393
  8
NOTE
  6
CONTINUOUS
 62
     4
 10
10.0
 20
-197.0
 30
0.0
 11
10.0
 21
-237.0
 31
0.0
  0
POINT
  5
394
  8
ARRANGE
  6
CONTINUOUS
 62
     1
 10
0.0
 20
0.0
 30
0.0
  0
CIRCLE
  5
395
  8
ARRANGE
  6
CONTINUOUS
 62
     1
 10
0.0
 20
0.0
 30
0.0
 40
40.0
  0
ARC
  5
396
  8
DETAIL
  6
CONTINUOUS
 62
     5
 10
96.0
 20
-134.49999999999969
 30
0.0
 40
50.0
 50
270.0
 51
0.0
  0
LINE
  5
397
  8
DETAIL
  6
CONTINUOUS
 62
     5
 10
116.0
 20
48.25
 30
0.0
 11
116.0
 21
-48.25
 31
0.0
  0
LINE
  5
398
  8
DETAIL
  6
CONTINUOUS
 62
     5
 10
96.0
 20
43.25
 30
0.0
 11
96.0
 21
-43.25
 31
0.0
  0
ARC
  5
399
  8
DETAIL
  6
CONTINUOUS
 62
     5
 10
101.0
 20
43.25
 30
0.0
 40
5.0
 50
90.0
 51
180.0
  0
LINE
  5
39A
  8
DETAIL
  6
CONTINUOUS
 62
     5
 10
70.0
 20
5.0
 30
0.0
 11
96.0
 21
5.0
 31
0.0
  0
LINE
  5
39B
  8
DETAIL
  6
CONTINUOUS
 62
     5
 10
70.0
 20
-5.0
 30
0.0
 11
96.0
 21
-5.0
 31
0.0
  0
LINE
  5
39C
  8
DETAIL
  6
CONTINUOUS
 62
     5
 10
181.0
 20
-102.0513939999997
 30
0.0
 11
181.0
 21
66.948606000000012
 31
0.0
  0
LINE
  5
39D
  8
DETAIL
  6
CONTINUOUS
 62
     5
 10
171.0
 20
-102.0513939999997
 30
0.0
 11
181.0
 21
-102.0513939999997
 31
0.0
  0
LINE
  5
39E
  8
DETAIL
  6
CONTINUOUS
 62
     5
 10
171.0
 20
66.948606000000012
 30
0.0
 11
181.0
 21
66.948606000000012
 31
0.0
  0
LINE
  5
39F
  8
SIZE
  6
CONTINUOUS
 62
    30
 10
90.0
 20
207.5
 30
0.0
 11
523.580556
 21
207.5
 31
0.0
  0
LINE
  5
3A0
  8
SIZE
  6
CONTINUOUS
 62
    30
 10
90.0
 20
-207.5
 30
0.0
 11
523.580556
 21
-207.5
 31
0.0
  0
LINE
  5
3A1
  8
SIZE
  6
CONTINUOUS
 62
    30
 10
503.58055599999989
 20
195.5
 30
0.0
 11
503.58055599999989
 21
-195.5
 31
0.0
  0
CIRCLE
  5
3A2
  8
SIZE
  6
CONTINUOUS
 62
    30
 10
503.58055599999989
 20
207.5
 30
0.0
 40
6.0
  0
LINE
  5
3A3
  8
SIZE
  6
CONTINUOUS
 62
    30
 10
503.58055599999989
 20
207.5
 30
0.0
 11
503.58055599999989
 21
195.5
 31
0.0
  0
CIRCLE
  5
3A4
  8
SIZE
  6
CONTINUOUS
 62
    30
 10
503.58055599999989
 20
-207.5
 30
0.0
 40
6.0
  0
LINE
  5
3A5
  8
SIZE
  6
CONTINUOUS
 62
    30
 10
503.58055599999989
 20
-207.5
 30
0.0
 11
503.58055599999989
 21
-195.5
 31
0.0
  0
TEXT
  5
3A6
  8
SIZE
  6
CONTINUOUS
 62
    30
 10
478.58055599999989
 20
-108.89142857142861
 30
0.0
 40
64.0
  1
φ415
 50
90.0
 41
0.9
 72
     1
 11
478.58055599999989
 21
0.0
 31
0.0
  0
POINT
  5
3A7
  8
DEFPOINTS
  6
CONTINUOUS
 62
    30
 10
503.58055599999989
 20
-207.5
 30
0.0
  0
LINE
  5
3A8
  8
DETAIL
  6
CONTINUOUS
 62
     5
 10
189.0
 20
-40.25
 30
0.0
 11
189.0
 21
40.25
 31
0.0
  0
ARC
  5
3A9
  8
DETAIL
  6
CONTINUOUS
 62
     5
 10
181.0
 20
40.25
 30
0.0
 40
8.0
 50
0.0
 51
90.0
  0
ARC
  5
3AA
  8
DETAIL
  6
CONTINUOUS
 62
     5
 10
181.0
 20
-40.25
 30
0.0
 40
8.0
 50
270.0
 51
0.0
  0
LINE
  5
3AB
  8
SIZE
  6
CONTINUOUS
 62
    30
 10
201.0
 20
48.25
 30
0.0
 11
405.87198599999999
 21
48.25
 31
0.0
  0
LINE
  5
3AC
  8
SIZE
  6
CONTINUOUS
 62
    30
 10
201.0
 20
-48.25
 30
0.0
 11
405.87198599999999
 21
-48.25
 31
0.0
  0
LINE
  5
3AD
  8
SIZE
  6
CONTINUOUS
 62
    30
 10
385.87198599999988
 20
60.25
 30
0.0
 11
385.87198599999988
 21
72.25
 31
0.0
  0
LINE
  5
3AE
  8
SIZE
  6
CONTINUOUS
 62
    30
 10
385.87198599999988
 20
-60.25
 30
0.0
 11
385.87198599999988
 21
-72.25
 31
0.0
  0
LINE
  5
3AF
  8
SIZE
  6
CONTINUOUS
 62
    30
 10
385.87198599999988
 20
48.25
 30
0.0
 11
385.87198599999988
 21
-48.25
 31
0.0
  0
CIRCLE
  5
3B0
  8
SIZE
  6
CONTINUOUS
 62
    30
 10
385.87198599999988
 20
48.25
 30
0.0
 40
6.0
  0
LINE
  5
3B1
  8
SIZE
  6
CONTINUOUS
 62
    30
 10
385.87198599999988
 20
48.25
 30
0.0
 11
385.87198599999988
 21
60.25
 31
0.0
  0
CIRCLE
  5
3B2
  8
SIZE
  6
CONTINUOUS
 62
    30
 10
385.87198599999988
 20
-48.25
 30
0.0
 40
6.0
  0
LINE
  5
3B3
  8
SIZE
  6
CONTINUOUS
 62
    30
 10
385.87198599999988
 20
-48.25
 30
0.0
 11
385.87198599999988
 21
-60.25
 31
0.0
  0
TEXT
  5
3B4
  8
SIZE
  6
CONTINUOUS
 62
    30
 10
360.87198599999988
 20
-128.09142857142851
 30
0.0
 40
64.0
  1
φ96.5
 50
90.0
 41
0.9
 72
     1
 11
360.87198599999988
 21
0.0
 31
0.0
  0
POINT
  5
3B5
  8
DEFPOINTS
  6
CONTINUOUS
 62
    30
 10
385.87198599999988
 20
-48.25
 30
0.0
  0
LINE
  5
3B6
  8
DETAIL
  6
CONTINUOUS
 62
     5
 10
171.0
 20
-54.420499999999997
 30
0.0
 11
146.0
 21
-54.420499999999997
 31
0.0
  0
LINE
  5
3B7
  8
DETAIL
  6
CONTINUOUS
 62
     5
 10
146.0
 20
-48.25
 30
0.0
 11
101.0
 21
-48.25
 31
0.0
  0
ARC
  5
3B8
  8
DETAIL
  6
CONTINUOUS
 62
     5
 10
101.0
 20
-43.25
 30
0.0
 40
5.0
 50
180.0
 51
270.0
  0
LINE
  5
3B9
  8
DETAIL
  6
CONTINUOUS
 62
     5
 10
165.52926599999981
 20
48.686512999999991
 30
0.0
 11
165.52926599999981
 21
-48.686512999999991
 31
0.0
  0
LINE
  5
3BA
  8
DETAIL
  6
CONTINUOUS
 62
     5
 10
171.0
 20
-54.420499999999997
 30
0.0
 11
167.2581439999999
 21
-51.403911000000001
 31
0.0
  0
ARC
  5
3BB
  8
DETAIL
  6
CONTINUOUS
 62
     5
 10
168.52926599999981
 20
-48.686512999999991
 30
0.0
 40
3.0
 50
180.0
 51
244.9311499999998
  0
LINE
  5
3BC
  8
DETAIL
  6
CONTINUOUS
 62
     5
 10
171.0
 20
54.420499999999997
 30
0.0
 11
167.2581439999999
 21
51.403911000000001
 31
0.0
  0
ARC
  5
3BD
  8
DETAIL
  6
CONTINUOUS
 62
     5
 10
168.52926599999981
 20
48.686512999999991
 30
0.0
 40
3.0
 50
115.06885
 51
180.0
  0
LINE
  5
3BE
  8
OUTLINE
  6
CONTINUOUS
 62
     3
 10
70.0
 20
-184.49999999999969
 30
0.0
 11
70.0
 21
184.49999999999969
 31
0.0
  0
LINE
  5
3BF
  8
OUTLINE
  6
CONTINUOUS
 62
     3
 10
67.0
 20
-184.49999999999969
 30
0.0
 11
67.0
 21
184.49999999999969
 31
0.0
  0
LINE
  5
3C0
  8
OUTLINE
  6
CONTINUOUS
 62
     3
 10
20.0
 20
-210.49999999999989
 30
0.0
 11
20.0
 21
210.49999999999989
 31
0.0
  0
LINE
  5
3C1
  8
OUTLINE
  6
CONTINUOUS
 62
     3
 10
189.0
 20
-40.25
 30
0.0
 11
189.0
 21
40.25
 31
0.0
  0
LINE
  5
3C2
  8
OUTLINE
  6
CONTINUOUS
 62
     3
 10
165.52926599999981
 20
48.686512999999991
 30
0.0
 11
165.52926599999981
 21
-48.686512999999991
 31
0.0
  0
LINE
  5
3C3
  8
OUTLINE
  6
CONTINUOUS
 62
     3
 10
181.0
 20
-102.0513939999997
 30
0.0
 11
181.0
 21
66.948606000000012
 31
0.0
  0
ARC
  5
3C4
  8
OUTLINE
  6
CONTINUOUS
 62
     3
 10
96.0
 20
-134.49999999999969
 30
0.0
 40
50.0
 50
270.0
 51
0.0
  0
ARC
  5
3C5
  8
OUTLINE
  6
CONTINUOUS
 62
     3
 10
116.0
 20
-149.5
 30
0.0
 40
55.0
 50
270.0
 51
0.0
  0
LINE
  5
3C6
  8
OUTLINE
  6
CONTINUOUS
 62
     3
 10
20.0
 20
-184.49999999999969
 30
0.0
 11
96.0
 21
-184.49999999999969
 31
0.0
  0
LINE
  5
3C7
  8
OUTLINE
  6
CONTINUOUS
 62
     3
 10
116.0
 20
-204.49999999999989
 30
0.0
 11
20.0
 21
-204.49999999999989
 31
0.0
  0
LINE
  5
3C8
  8
OUTLINE
  6
CONTINUOUS
 62
     3
 10
67.0
 20
-204.49999999999989
 30
0.0
 11
67.0
 21
-207.5
 31
0.0
  0
LINE
  5
3C9
  8
OUTLINE
  6
CONTINUOUS
 62
     3
 10
70.0
 20
-204.49999999999989
 30
0.0
 11
70.0
 21
-207.5
 31
0.0
  0
LINE
  5
3CA
  8
OUTLINE
  6
CONTINUOUS
 62
     3
 10
67.0
 20
-207.5
 30
0.0
 11
70.0
 21
-207.5
 31
0.0
  0
LINE
  5
3CB
  8
OUTLINE
  6
CONTINUOUS
 62
     3
 10
20.0
 20
-210.49999999999989
 30
0.0
 11
10.0
 21
-210.49999999999989
 31
0.0
  0
LINE
  5
3CC
  8
OUTLINE
  6
CONTINUOUS
 62
     3
 10
146.0
 20
-134.49999999999969
 30
0.0
 11
146.0
 21
-67.5
 31
0.0
  0
LINE
  5
3CD
  8
OUTLINE
  6
CONTINUOUS
 62
     3
 10
171.0
 20
-149.5
 30
0.0
 11
171.0
 21
-54.420499999999997
 31
0.0
  0
LINE
  5
3CE
  8
OUTLINE
  6
CONTINUOUS
 62
     3
 10
171.0
 20
-102.0513939999997
 30
0.0
 11
181.0
 21
-102.0513939999997
 31
0.0
  0
ARC
  5
3CF
  8
OUTLINE
  6
CONTINUOUS
 62
     3
 10
181.0
 20
-40.25
 30
0.0
 40
8.0
 50
270.0
 51
0.0
  0
LINE
  5
3D0
  8
OUTLINE
  6
CONTINUOUS
 62
     3
 10
171.0
 20
-54.420499999999997
 30
0.0
 11
146.0
 21
-54.420499999999997
 31
0.0
  0
LINE
  5
3D1
  8
OUTLINE
  6
CONTINUOUS
 62
     3
 10
171.0
 20
-54.420499999999997
 30
0.0
 11
167.2581439999999
 21
-51.403911000000001
 31
0.0
  0
ARC
  5
3D2
  8
OUTLINE
  6
CONTINUOUS
 62
     3
 10
168.52926599999981
 20
-48.686512999999991
 30
0.0
 40
3.0
 50
180.0
 51
244.9311499999998
  0
ARC
  5
3D3
  8
OUTLINE
  6
CONTINUOUS
 62
     3
 10
116.0
 20
149.5
 30
0.0
 40
55.0
 50
0.0
 51
90.0
  0
LINE
  5
3D4
  8
OUTLINE
  6
CONTINUOUS
 62
     3
 10
171.0
 20
54.420499999999997
 30
0.0
 11
171.0
 21
149.5
 31
0.0
  0
LINE
  5
3D5
  8
OUTLINE
  6
CONTINUOUS
 62
     3
 10
171.0
 20
66.948606000000012
 30
0.0
 11
181.0
 21
66.948606000000012
 31
0.0
  0
ARC
  5
3D6
  8
OUTLINE
  6
CONTINUOUS
 62
     3
 10
181.0
 20
40.25
 30
0.0
 40
8.0
 50
0.0
 51
90.0
  0
LINE
  5
3D7
  8
OUTLINE
  6
CONTINUOUS
 62
     3
 10
171.0
 20
54.420499999999997
 30
0.0
 11
146.0
 21
54.420499999999997
 31
0.0
  0
LINE
  5
3D8
  8
OUTLINE
  6
CONTINUOUS
 62
     3
 10
171.0
 20
54.420499999999997
 30
0.0
 11
167.2581439999999
 21
51.403911000000001
 31
0.0
  0
ARC
  5
3D9
  8
OUTLINE
  6
CONTINUOUS
 62
     3
 10
168.52926599999981
 20
48.686512999999991
 30
0.0
 40
3.0
 50
115.06885
 51
180.0
  0
LINE
  5
3DA
  8
OUTLINE
  6
CONTINUOUS
 62
     3
 10
20.0
 20
204.49999999999989
 30
0.0
 11
116.0
 21
204.49999999999989
 31
0.0
  0
LINE
  5
3DB
  8
OUTLINE
  6
CONTINUOUS
 62
     3
 10
67.0
 20
204.49999999999989
 30
0.0
 11
67.0
 21
207.5
 31
0.0
  0
LINE
  5
3DC
  8
OUTLINE
  6
CONTINUOUS
 62
     3
 10
70.0
 20
204.49999999999989
 30
0.0
 11
70.0
 21
207.5
 31
0.0
  0
LINE
  5
3DD
  8
OUTLINE
  6
CONTINUOUS
 62
     3
 10
67.0
 20
207.5
 30
0.0
 11
70.0
 21
207.5
 31
0.0
  0
LINE
  5
3DE
  8
OUTLINE
  6
CONTINUOUS
 62
     3
 10
20.0
 20
210.49999999999989
 30
0.0
 11
10.0
 21
210.49999999999989
 31
0.0
  0
CIRCLE
  5
3DF
  8
FIX
  6
CONTINUOUS
 62
    11
 10
10.0
 20
217.0
 30
0.0
 40
6.0
  0
CIRCLE
  5
3E0
  8
FIX
  6
CONTINUOUS
 62
    11
 10
10.0
 20
-217.0
 30
0.0
 40
6.0
  0
ARC
  5
3E1
  8
DETAIL
  6
CONTINUOUS
 62
     5
 10
34.925761999999999
 20
110.358704
 30
0.0
 40
85.765478999999985
 50
12.650354
 51
59.821724999999986
  0
ARC
  5
3E2
  8
DETAIL
  6
CONTINUOUS
 62
     5
 10
155.6424659999999
 20
27.016783
 30
0.0
 40
108.63193200000001
 50
109.930947
 51
142.56024899999991
  0
ARC
  5
3E3
  8
DETAIL
  6
CONTINUOUS
 62
     5
 10
-7.2971050000000002
 20
81.576520000000002
 30
0.0
 40
112.38136399999991
 50
317.04695800000002
 51
336.80442900000008
  0
ARC
  5
3E4
  8
DETAIL
  6
CONTINUOUS
 62
     5
 10
-156.1232929999999
 20
29.95345
 30
0.0
 40
258.71780899999999
 50
330.65157499999992
 51
333.6862779999999
  0
ARC
  5
3E5
  8
DETAIL
  6
CONTINUOUS
 62
     5
 10
-70.53911100000002
 20
-173.490342
 30
0.0
 40
191.09376499999991
 50
358.72785299999998
 51
42.655099
  0
ARC
  5
3E6
  8
DETAIL
  6
CONTINUOUS
 62
     5
 10
-140.60865399999969
 20
-245.873481
 30
0.0
 40
269.80209699999989
 50
14.59836099999999
 51
38.684069999999991
  0
ARC
  5
3E7
  8
DETAIL
  6
CONTINUOUS
 62
     5
 10
-156.1232929999999
 20
29.95345
 30
0.0
 40
258.71780899999999
 50
338.95542399999982
 51
347.035888
  0
ARC
  5
3E8
  8
DETAIL
  6
CONTINUOUS
 62
     5
 10
-156.1232929999999
 20
29.95345
 30
0.0
 40
258.71780899999999
 50
4.0553480000000004
 51
5.2220050000000002
  0
ARC
  5
3E9
  8
DETAIL
  6
CONTINUOUS
 62
     5
 10
-7.2971050000000002
 20
81.576520000000002
 30
0.0
 40
112.38136399999991
 50
342.695379
 51
345.53274800000008
  0
LINE
  5
3EA
  8
DETAIL
  6
CONTINUOUS
 62
     5
 39
50.0
 10
0.0
 20
-235.0
 30
0.0
 11
9.999999999999984
 21
-235.0
 31
0.0
  0
LINE
  5
3EB
  8
DETAIL
  6
CONTINUOUS
 62
     5
 39
50.0
 10
0.0
 20
235.0
 30
0.0
 11
9.999999999999984
 21
235.0
 31
0.0
  0
ARC
  5
3EC
  8
DETAIL
  6
CONTINUOUS
 62
     5
 10
96.0
 20
134.49999999999969
 30
0.0
 40
50.0
 50
0.0
 51
90.0
  0
LINE
  5
3ED
  8
OUTLINE
  6
CONTINUOUS
 62
     3
 39
50.0
 10
0.0
 20
235.0
 30
0.0
 11
9.999999999999984
 21
235.0
 31
0.0
  0
LINE
  5
3EE
  8
OUTLINE
  6
CONTINUOUS
 62
     3
 39
50.0
 10
9.9999999999999982
 20
235.0
 30
0.0
 11
10.0
 21
-235.0
 31
0.0
  0
LINE
  5
3EF
  8
OUTLINE
  6
CONTINUOUS
 62
     3
 39
50.0
 10
10.0
 20
-235.0
 30
0.0
 11
0.0
 21
-235.0
 31
0.0
  0
LINE
  5
3F0
  8
OUTLINE
  6
CONTINUOUS
 62
     3
 39
50.0
 10
0.0
 20
-235.0
 30
0.0
 11
0.0
 21
235.0
 31
0.0
  0
LINE
  5
3F1
  8
OUTLINE
  6
CONTINUOUS
 62
     3
 39
50.0
 10
20.0
 20
184.49999999999969
 30
0.0
 11
96.0
 21
184.49999999999969
 31
0.0
  0
LINE
  5
3F2
  8
OUTLINE
  6
CONTINUOUS
 62
     3
 39
50.0
 10
146.0
 20
-67.5
 30
0.0
 11
146.0
 21
134.49999999999969
 31
0.0
  0
ARC
  5
3F3
  8
OUTLINE
  6
CONTINUOUS
 62
     3
 39
50.0
 10
96.0
 20
134.49999999999969
 30
0.0
 40
50.0
 50
0.0
 51
89.999999999999986
  0
LINE
  5
3F4
  8
SIZE
  6
CONTINUOUS
 62
    30
 10
-20.0
 20
235.0
 30
0.0
 11
-270.42498430309502
 21
235.0
 31
0.0
  0
LINE
  5
3F5
  8
SIZE
  6
CONTINUOUS
 62
    30
 10
-20.0
 20
-235.0
 30
0.0
 11
-270.42498430309519
 21
-234.99999999999969
 31
0.0
  0
LINE
  5
3F6
  8
SIZE
  6
CONTINUOUS
 62
    30
 10
-250.42498430309499
 20
235.0
 30
0.0
 11
-250.42498430309499
 21
-234.9999999999996
 31
0.0
  0
CIRCLE
  5
3F7
  8
SIZE
  6
CONTINUOUS
 62
    30
 39
50.0
 10
-250.42498430309499
 20
235.0
 30
0.0
 40
6.0
  0
CIRCLE
  5
3F8
  8
SIZE
  6
CONTINUOUS
 62
    30
 39
50.0
 10
-250.42498430309499
 20
-234.9999999999996
 30
0.0
 40
6.0
  0
TEXT
  5
3F9
  8
SIZE
  6
CONTINUOUS
 62
    30
 10
-275.42498430309502
 20
-74.057142857142779
 30
0.0
 40
64.0
  1
470
 50
90.0
 41
0.9
  0
TEXT
  5
4D9
  8
ETC
  6
CONTINUOUS
 62
    61
 10
465.54675393227961
 20
555.36206311192075
 30
0.0
 40
64.0
  1
EG-35BTB3_5
 41
0.9
  0
TEXT
  5
4DA
  8
ETC
  6
CONTINUOUS
 62
    61
 10
462.26347593227962
 20
456.86179911192079
 30
0.0
 40
64.0
  1
産業扇
 41
0.9
  0
TEXT
  5
4DB
  8
ETC
  6
CONTINUOUS
 62
    61
 10
581.57119719098
 20
374.0755789444587
 30
0.0
 40
50.0
  1
EG-35BTB
 41
0.9
  0
TEXT
  5
4DC
  8
ETC
  6
CONTINUOUS
 62
    61
 10
581.57119719098
 20
303.43228880862353
 30
0.0
 40
50.0
  1
EG-35BTB3
 41
0.9
  0
ENDSEC
  0
EOF
