  0
SECTION
  2
HEADER
  9
$ACADVER
  1
AC1009
  9
$INSBASE
 10
0.0
 20
0.0
 30
0.0
  9
$EXTMIN
 10
-498.20135199999987
 20
-557.34491500000001
 30
0.0
  9
$EXTMAX
 10
1267.646267319423
 20
649.19364730212158
 30
50.0
  9
$LIMMIN
 10
-2970.0
 20
-2100.0
  9
$LIMMAX
 10
2970.0
 20
2100.0
  9
$ORTHOMODE
 70
     1
  9
$REGENMODE
 70
     0
  9
$FILLMODE
 70
     1
  9
$QTEXTMODE
 70
     0
  9
$MIRRTEXT
 70
     0
  9
$DRAGMODE
 70
     2
  9
$LTSCALE
 40
20.0
  9
$OSMODE
 70
   169
  9
$ATTMODE
 70
     1
  9
$TEXTSIZE
 40
64.0
  9
$TRACEWID
 40
0.05
  9
$TEXTSTYLE
  7
STANDARD
  9
$CLAYER
  8
SIZE
  9
$CELTYPE
  6
CONTINUOUS
  9
$CECOLOR
 62
    30
  9
$DIMSCALE
 40
1.0
  9
$DIMASZ
 40
12.0
  9
$DIMEXO
 40
20.0
  9
$DIMDLI
 40
200.0
  9
$DIMRND
 40
0.0
  9
$DIMDLE
 40
0.0
  9
$DIMEXE
 40
20.0
  9
$DIMTP
 40
0.0
  9
$DIMTM
 40
0.0
  9
$DIMTXT
 40
64.0
  9
$DIMCEN
 40
0.09
  9
$DIMTSZ
 40
0.0
  9
$DIMTOL
 70
     0
  9
$DIMLIM
 70
     0
  9
$DIMTIH
 70
     0
  9
$DIMTOH
 70
     0
  9
$DIMSE1
 70
     0
  9
$DIMSE2
 70
     0
  9
$DIMTAD
 70
     1
  9
$DIMZIN
 70
     8
  9
$DIMBLK
  1

  9
$DIMASO
 70
     1
  9
$DIMSHO
 70
     0
  9
$DIMPOST
  1

  9
$DIMAPOST
  1

  9
$DIMALT
 70
     0
  9
$DIMALTD
 70
     2
  9
$DIMALTF
 40
25.399999999999999
  9
$DIMLFAC
 40
1.0
  9
$DIMTOFL
 70
     1
  9
$DIMTVP
 40
0.0
  9
$DIMTIX
 70
     1
  9
$DIMSOXD
 70
     0
  9
$DIMSAH
 70
     1
  9
$DIMBLK1
  1
ORIGIN
  9
$DIMBLK2
  1
ORIGIN
  9
$DIMSTYLE
  2
STANDARD
  9
$DIMCLRD
 70
     0
  9
$DIMCLRE
 70
     0
  9
$DIMCLRT
 70
     0
  9
$DIMTFAC
 40
1.0
  9
$DIMGAP
 40
25.0
  9
$LUNITS
 70
     2
  9
$LUPREC
 70
     4
  9
$SKETCHINC
 40
0.1
  9
$FILLETRAD
 40
30.0
  9
$AUNITS
 70
     1
  9
$AUPREC
 70
     3
  9
$MENU
  1
ACAD
  9
$ELEVATION
 40
0.0
  9
$PELEVATION
 40
0.0
  9
$THICKNESS
 40
50.0
  9
$LIMCHECK
 70
     0
  9
$BLIPMODE
 70
     0
  9
$CHAMFERA
 40
0.0
  9
$CHAMFERB
 40
0.0
  9
$SKPOLY
 70
     0
  9
$TDCREATE
 40
2452310.4493174758
  9
$TDUPDATE
 40
2453479.363759039
  9
$TDINDWG
 40
0.1266974769
  9
$TDUSRTIMER
 40
0.1266974769
  9
$USRTIMER
 70
     1
  9
$ANGBASE
 50
0.0
  9
$ANGDIR
 70
     0
  9
$PDMODE
 70
     3
  9
$PDSIZE
 40
-2.0
  9
$PLINEWID
 40
0.0
  9
$COORDS
 70
     2
  9
$SPLFRAME
 70
     0
  9
$SPLINETYPE
 70
     6
  9
$SPLINESEGS
 70
     8
  9
$ATTDIA
 70
     0
  9
$ATTREQ
 70
     1
  9
$HANDLING
 70
 22529
  9
$HANDSEED
  5
5B0
  9
$SURFTAB1
 70
     6
  9
$SURFTAB2
 70
     6
  9
$SURFTYPE
 70
     6
  9
$SURFU
 70
     6
  9
$SURFV
 70
     6
  9
$UCSNAME
  2

  9
$UCSORG
 10
0.0
 20
0.0
 30
0.0
  9
$UCSXDIR
 10
1.0
 20
0.0
 30
0.0
  9
$UCSYDIR
 10
0.0
 20
1.0
 30
0.0
  9
$PUCSNAME
  2

  9
$PUCSORG
 10
0.0
 20
0.0
 30
0.0
  9
$PUCSXDIR
 10
1.0
 20
0.0
 30
0.0
  9
$PUCSYDIR
 10
0.0
 20
1.0
 30
0.0
  9
$USERI1
 70
     0
  9
$USERI2
 70
     0
  9
$USERI3
 70
     0
  9
$USERI4
 70
     0
  9
$USERI5
 70
     0
  9
$USERR1
 40
20.0
  9
$USERR2
 40
0.0
  9
$USERR3
 40
0.0
  9
$USERR4
 40
0.0
  9
$USERR5
 40
0.0
  9
$WORLDVIEW
 70
     1
  9
$SHADEDGE
 70
     3
  9
$SHADEDIF
 70
    70
  9
$TILEMODE
 70
     1
  9
$MAXACTVP
 70
    64
  9
$PLIMCHECK
 70
     0
  9
$PEXTMIN
 10
1.0000000000000000E+020
 20
1.0000000000000000E+020
 30
1.0000000000000000E+020
  9
$PEXTMAX
 10
-1.0000000000000000E+020
 20
-1.0000000000000000E+020
 30
-1.0000000000000000E+020
  9
$PLIMMIN
 10
0.0
 20
0.0
  9
$PLIMMAX
 10
12.0
 20
9.0
  9
$UNITMODE
 70
     0
  9
$VISRETAIN
 70
     1
  9
$PLINEGEN
 70
     0
  9
$PSLTSCALE
 70
     1
  0
ENDSEC
  0
SECTION
  2
TABLES
  0
TABLE
  2
VPORT
 70
     3
  0
VPORT
  2
*ACTIVE
 70
     0
 10
0.0
 20
0.0
 11
1.0
 21
1.0
 12
184.1318841787272
 22
20.711210424377661
 13
0.0
 23
0.0
 14
1.0
 24
1.0
 15
0.0
 25
0.0
 16
0.0
 26
0.0
 36
1.0
 17
0.0
 27
0.0
 37
0.0
 40
1640.068968709186
 41
1.4423558897243101
 42
50.0
 43
0.0
 44
0.0
 50
0.0
 51
0.0
 71
     0
 72
   100
 73
     1
 74
     0
 75
     0
 76
     0
 77
     0
 78
     1
  0
ENDTAB
  0
TABLE
  2
LTYPE
 70
     2
  0
LTYPE
  2
CONTINUOUS
 70
     0
  3
実線
 72
    65
 73
     0
 40
0.0
  0
LTYPE
  2
DASHDOT
 70
     0
  3
____ _ ____ _ ____ _ ____ _ ____ _ ____ _ ____
 72
    65
 73
     4
 40
5.5
 49
4.0
 49
-0.6
 49
0.3
 49
-0.6
  0
ENDTAB
  0
TABLE
  2
LAYER
 70
    12
  0
LAYER
  2
0
 70
     0
 62
     7
  6
CONTINUOUS
  0
LAYER
  2
SIZE
 70
     0
 62
    30
  6
CONTINUOUS
  0
LAYER
  2
BASIS
 70
     0
 62
     6
  6
DASHDOT
  0
LAYER
  2
OUTLINE
 70
     0
 62
     3
  6
CONTINUOUS
  0
LAYER
  2
DETAIL
 70
     0
 62
     5
  6
CONTINUOUS
  0
LAYER
  2
ARRANGE
 70
     0
 62
     1
  6
CONTINUOUS
  0
LAYER
  2
DEFPOINTS
 70
     0
 62
     7
  6
CONTINUOUS
  0
LAYER
  2
ETC
 70
     0
 62
    61
  6
CONTINUOUS
  0
LAYER
  2
FIX
 70
     0
 62
    11
  6
CONTINUOUS
  0
LAYER
  2
NOTE
 70
     0
 62
     4
  6
CONTINUOUS
  0
LAYER
  2
SERVICESPACE
 70
     0
 62
     2
  6
DASHDOT
  0
LAYER
  2
SYMBOLLINE
 70
     0
 62
    15
  6
CONTINUOUS
  0
ENDTAB
  0
TABLE
  2
STYLE
 70
     1
  0
STYLE
  2
STANDARD
 70
     0
 40
64.0
 41
0.9
 50
0.0
 71
     0
 42
64.0
  3
SIMPLEX.shx
  4
BIGFONT.shx
  0
ENDTAB
  0
TABLE
  2
VIEW
 70
     1
  0
VIEW
  2
ALL
 70
     0
 40
4282.6198079999967
 10
0.0
 20
41.309903999999989
 41
5940.0
 11
0.0
 21
0.0
 31
1.0
 12
0.0
 22
0.0
 32
0.0
 42
50.0
 43
0.0
 44
0.0
 50
0.0
 71
     0
  0
ENDTAB
  0
TABLE
  2
UCS
 70
     0
  0
ENDTAB
  0
TABLE
  2
APPID
 70
     1
  0
APPID
  2
ACAD
 70
     0
  0
ENDTAB
  0
TABLE
  2
DIMSTYLE
 70
     1
  0
DIMSTYLE
  2
STANDARD
 70
     0
  3

  4

  5

  6

  7

 40
1.0
 41
0.18
 42
0.0625
 43
0.38
 44
0.18
 45
0.0
 46
0.0
 47
0.0
 48
0.0
140
0.18
141
0.09
142
0.0
143
25.399999999999999
144
1.0
145
0.0
146
1.0
147
0.09
 71
     0
 72
     0
 73
     1
 74
     1
 75
     0
 76
     0
 77
     0
 78
     0
170
     0
171
     2
172
     0
173
     0
174
     0
175
     0
176
     0
177
     0
178
     0
  0
ENDTAB
  0
ENDSEC
  0
SECTION
  2
BLOCKS
  0
BLOCK
  8
0
  2
$MODEL_SPACE
 70
     0
 10
0.0
 20
0.0
 30
0.0
  3
$MODEL_SPACE
  1

  0
ENDBLK
  5
40B
  8
0
  0
BLOCK
 67
     1
  8
0
  2
$PAPER_SPACE
 70
     0
 10
0.0
 20
0.0
 30
0.0
  3
$PAPER_SPACE
  1

  0
ENDBLK
  5
407
 67
     1
  8
0
  0
BLOCK
  8
0
  2
DOT1
 70
     0
 10
0.0
 20
0.0
 30
0.0
  3
DOT1
  1

  0
CIRCLE
  5
426
  8
SIZE
  6
CONTINUOUS
 62
     7
 10
0.0
 20
0.0
 30
0.0
 40
3.0
  0
ENDBLK
  5
427
  8
0
  0
BLOCK
  8
0
  2
_ORIGIN
 70
     0
 10
0.0
 20
0.0
 30
0.0
  3
_ORIGIN
  1

  0
CIRCLE
  5
42A
  8
0
  6
CONTINUOUS
 62
     7
 10
0.0
 20
0.0
 30
0.0
 40
0.5
  0
LINE
  5
42B
  8
0
  6
CONTINUOUS
 62
     7
 10
0.0
 20
0.0
 30
0.0
 11
-1.0
 21
0.0
 31
0.0
  0
ENDBLK
  5
42C
  8
0
  0
BLOCK
  8
0
 62
    30
  2
*D4
 70
     1
 10
0.0
 20
0.0
 30
0.0
  3
*D4
  1

  0
LINE
  5
42F
  8
SIZE
  6
CONTINUOUS
 62
     0
 10
-235.0
 20
225.0
 30
0.0
 11
-234.99999999999969
 21
467.53972775412831
 31
0.0
  0
LINE
  5
430
  8
SIZE
  6
CONTINUOUS
 62
     0
 10
235.0
 20
225.0
 30
0.0
 11
235.0
 21
467.53972775412831
 31
0.0
  0
LINE
  5
431
  8
SIZE
  6
CONTINUOUS
 62
     0
 10
-222.99999999999989
 20
447.53972775412831
 30
0.0
 11
223.0
 21
447.53972775412831
 31
0.0
  0
INSERT
  5
432
  8
SIZE
  6
CONTINUOUS
 62
     0
  2
_ORIGIN
 10
-234.99999999999969
 20
447.53972775412831
 30
0.0
 41
12.0
 42
12.0
 43
12.0
 50
180.0
  0
INSERT
  5
433
  8
SIZE
  6
CONTINUOUS
 62
     0
  2
_ORIGIN
 10
235.0
 20
447.53972775412831
 30
0.0
 41
12.0
 42
12.0
 43
12.0
  0
TEXT
  5
434
  8
SIZE
  6
CONTINUOUS
 62
     0
 10
-74.057142857142807
 20
472.53972775412831
 30
0.0
 40
64.0
  1
470
 41
0.9
  0
POINT
  5
435
  8
DEFPOINTS
  6
CONTINUOUS
 62
     0
 10
-235.0
 20
205.0
 30
0.0
  0
POINT
  5
436
  8
DEFPOINTS
  6
CONTINUOUS
 62
     0
 10
235.0
 20
205.0
 30
0.0
  0
POINT
  5
437
  8
DEFPOINTS
  6
CONTINUOUS
 62
     0
 10
235.0
 20
447.53972775412831
 30
0.0
  0
ENDBLK
  5
438
  8
0
 62
    30
  0
BLOCK
  8
0
 62
    30
  2
*D5
 70
     1
 10
0.0
 20
0.0
 30
0.0
  3
*D5
  1

  0
LINE
  5
43B
  8
SIZE
  6
CONTINUOUS
 62
     0
 10
225.0
 20
235.0
 30
0.0
 11
568.01072039756855
 21
234.99999999999969
 31
0.0
  0
LINE
  5
43C
  8
SIZE
  6
CONTINUOUS
 62
     0
 10
225.0
 20
-235.0
 30
0.0
 11
568.01072039756855
 21
-235.0
 31
0.0
  0
LINE
  5
43D
  8
SIZE
  6
CONTINUOUS
 62
     0
 10
548.01072039756855
 20
222.99999999999989
 30
0.0
 11
548.01072039756855
 21
-223.0
 31
0.0
  0
INSERT
  5
43E
  8
SIZE
  6
CONTINUOUS
 62
     0
  2
_ORIGIN
 10
548.01072039756855
 20
234.99999999999969
 30
0.0
 41
12.0
 42
12.0
 43
12.0
 50
90.0
  0
INSERT
  5
43F
  8
SIZE
  6
CONTINUOUS
 62
     0
  2
_ORIGIN
 10
548.01072039756855
 20
-235.0
 30
0.0
 41
12.0
 42
12.0
 43
12.0
 50
270.0
  0
TEXT
  5
440
  8
SIZE
  6
CONTINUOUS
 62
     0
 10
523.01072039756855
 20
-74.057142857142836
 30
0.0
 40
64.0
  1
470
 50
90.0
 41
0.9
  0
POINT
  5
441
  8
DEFPOINTS
  6
CONTINUOUS
 62
     0
 10
205.0
 20
235.0
 30
0.0
  0
POINT
  5
442
  8
DEFPOINTS
  6
CONTINUOUS
 62
     0
 10
205.0
 20
-235.0
 30
0.0
  0
POINT
  5
443
  8
DEFPOINTS
  6
CONTINUOUS
 62
     0
 10
548.01072039756855
 20
-235.0
 30
0.0
  0
ENDBLK
  5
444
  8
0
 62
    30
  0
ENDSEC
  0
SECTION
  2
ENTITIES
  0
TEXT
  5
445
  8
NOTE
  6
CONTINUOUS
 62
     4
 10
303.29396600000001
 20
368.60603800000001
 30
0.0
 40
64.0
  1
4-φ12
 41
0.9
  0
LINE
  5
446
  8
NOTE
  6
CONTINUOUS
 62
     4
 10
291.042419
 20
341.17908599999993
 30
0.0
 11
599.03777100000002
 21
341.17908599999993
 31
0.0
  0
LINE
  5
447
  8
NOTE
  6
CONTINUOUS
 62
     4
 10
217.0
 20
217.0
 30
0.0
 11
291.042419
 21
341.17908599999993
 31
0.0
  0
LINE
  5
448
  8
BASIS
  6
DASHDOT
 62
     6
 10
-288.180542
 20
0.0
 30
0.0
 11
283.91946999999982
 21
0.0
 31
0.0
  0
LINE
  5
449
  8
BASIS
  6
DASHDOT
 62
     6
 10
0.0
 20
-286.51312899999982
 30
0.0
 11
0.0
 21
274.96504800000002
 31
0.0
  0
ARC
  5
44A
  8
DETAIL
  6
CONTINUOUS
 62
     5
 10
0.000001
 20
-87.548177999999965
 30
0.0
 40
154.49678399999991
 50
65.119901999999996
 51
114.880099
  0
LINE
  5
44B
  8
DETAIL
  6
CONTINUOUS
 62
     5
 10
56.648820999999991
 20
-90.457885000000005
 30
0.0
 11
56.648820999999991
 21
-70.084976999999995
 31
0.0
  0
LINE
  5
44C
  8
DETAIL
  6
CONTINUOUS
 62
     5
 10
-56.648820999999991
 20
-90.457885000000005
 30
0.0
 11
-56.648820999999991
 21
-70.116202000000001
 31
0.0
  0
ARC
  5
44D
  8
DETAIL
  6
CONTINUOUS
 62
     5
 10
0.0
 20
42.145605000000003
 30
0.0
 40
144.19699800000001
 50
246.867604
 51
293.13239599999991
  0
LINE
  5
44E
  8
NOTE
  6
CONTINUOUS
 62
     4
 10
307.06063599999982
 20
-365.95885099999992
 30
0.0
 11
407.06744500000002
 21
-365.95885099999992
 31
0.0
  0
TEXT
  5
44F
  8
NOTE
  6
CONTINUOUS
 62
     4
 10
322.04346499999991
 20
-344.65673700000002
 30
0.0
 40
50.706637000000001
  1
EL
 41
0.9
  0
LINE
  5
450
  8
NOTE
  6
CONTINUOUS
 62
     4
 10
-217.0
 20
197.0
 30
0.0
 11
-217.0
 21
237.0
 31
0.0
  0
LINE
  5
451
  8
NOTE
  6
CONTINUOUS
 62
     4
 10
-237.0
 20
217.0
 30
0.0
 11
-197.0
 21
217.0
 31
0.0
  0
LINE
  5
452
  8
NOTE
  6
CONTINUOUS
 62
     4
 10
217.0
 20
197.0
 30
0.0
 11
217.0
 21
237.0
 31
0.0
  0
LINE
  5
453
  8
NOTE
  6
CONTINUOUS
 62
     4
 10
197.0
 20
217.0
 30
0.0
 11
237.0
 21
217.0
 31
0.0
  0
LINE
  5
454
  8
NOTE
  6
CONTINUOUS
 62
     4
 10
217.0
 20
-237.0
 30
0.0
 11
217.0
 21
-197.0
 31
0.0
  0
LINE
  5
455
  8
NOTE
  6
CONTINUOUS
 62
     4
 10
197.0
 20
-217.0
 30
0.0
 11
237.0
 21
-217.0
 31
0.0
  0
LINE
  5
456
  8
NOTE
  6
CONTINUOUS
 62
     4
 10
-217.0
 20
-237.0
 30
0.0
 11
-217.0
 21
-197.0
 31
0.0
  0
LINE
  5
457
  8
NOTE
  6
CONTINUOUS
 62
     4
 10
-237.0
 20
-217.0
 30
0.0
 11
-197.0
 21
-217.0
 31
0.0
  0
LINE
  5
458
  8
SIZE
  6
CONTINUOUS
 62
    30
 10
257.0
 20
217.0
 30
0.0
 11
439.8603979999998
 21
217.0
 31
0.0
  0
LINE
  5
459
  8
SIZE
  6
CONTINUOUS
 62
    30
 10
257.0
 20
-217.0
 30
0.0
 11
439.8603979999998
 21
-217.0
 31
0.0
  0
LINE
  5
45A
  8
SIZE
  6
CONTINUOUS
 62
    30
 10
419.86039799999992
 20
205.0
 30
0.0
 11
419.86039799999992
 21
-205.0
 31
0.0
  0
TEXT
  5
45B
  8
SIZE
  6
CONTINUOUS
 62
    30
 10
398.74282499999993
 20
-75.428571428571416
 30
0.0
 40
64.0
  1
434
 50
90.0
 41
0.9
 72
     1
 11
398.74282499999993
 21
0.0
 31
0.0
  0
CIRCLE
  5
45C
  8
SIZE
  6
CONTINUOUS
 62
    30
 10
419.86039799999992
 20
217.0
 30
0.0
 40
6.0
  0
LINE
  5
45D
  8
SIZE
  6
CONTINUOUS
 62
    30
 10
419.86039799999992
 20
217.0
 30
0.0
 11
419.86039799999992
 21
205.0
 31
0.0
  0
CIRCLE
  5
45E
  8
SIZE
  6
CONTINUOUS
 62
    30
 10
419.86039799999992
 20
-217.0
 30
0.0
 40
6.0
  0
LINE
  5
45F
  8
SIZE
  6
CONTINUOUS
 62
    30
 10
419.86039799999992
 20
-217.0
 30
0.0
 11
419.86039799999992
 21
-205.0
 31
0.0
  0
POINT
  5
460
  8
DEFPOINTS
  6
CONTINUOUS
 62
    30
 10
419.86039799999992
 20
-217.0
 30
0.0
  0
LINE
  5
461
  8
NOTE
  6
CONTINUOUS
 62
     4
 10
228.28010599999999
 20
255.37654499999991
 30
0.0
 11
217.0
 21
217.0
 31
0.0
  0
LINE
  5
462
  8
NOTE
  6
CONTINUOUS
 62
     4
 10
217.0
 20
217.0
 30
0.0
 11
245.957131
 21
244.59501
 31
0.0
  0
LINE
  5
463
  8
DETAIL
  6
CONTINUOUS
 62
     5
 10
65.0
 20
52.609792000000013
 30
0.0
 11
65.0
 21
-64.348607999999999
 31
0.0
  0
LINE
  5
464
  8
DETAIL
  6
CONTINUOUS
 62
     5
 10
-65.0
 20
52.609791000000001
 30
0.0
 11
-65.0
 21
-64.348606000000004
 31
0.0
  0
LINE
  5
465
  8
DETAIL
  6
CONTINUOUS
 62
     5
 10
61.803452
 20
-66.948607999999993
 30
0.0
 11
62.399999999999999
 21
-66.948607999999993
 31
0.0
  0
ARC
  5
466
  8
DETAIL
  6
CONTINUOUS
 62
     5
 10
62.399999999999999
 20
-64.348607999999999
 30
0.0
 40
2.6000000000000001
 50
270.0
 51
0.0
  0
LINE
  5
467
  8
DETAIL
  6
CONTINUOUS
 62
     5
 10
-61.808188999999999
 20
-66.948606000000012
 30
0.0
 11
-62.399999999999999
 21
-66.948606000000012
 31
0.0
  0
ARC
  5
468
  8
DETAIL
  6
CONTINUOUS
 62
     5
 10
-62.399999999999999
 20
-64.348606000000004
 30
0.0
 40
2.6000000000000001
 50
180.0
 51
270.0
  0
LINE
  5
469
  8
NOTE
  6
CONTINUOUS
 62
     4
 10
173.5
 20
-210.49999999999989
 30
0.0
 11
173.5
 21
-170.5
 31
0.0
  0
LINE
  5
46A
  8
NOTE
  6
CONTINUOUS
 62
     4
 10
153.5
 20
-190.5
 30
0.0
 11
193.5
 21
-190.5
 31
0.0
  0
LINE
  5
46B
  8
NOTE
  6
CONTINUOUS
 62
     4
 10
205.4070869999999
 20
-214.62338700000001
 30
0.0
 11
173.5
 21
-190.5
 31
0.0
  0
LINE
  5
46C
  8
NOTE
  6
CONTINUOUS
 62
     4
 10
173.5
 20
-190.5
 30
0.0
 11
189.07065399999999
 21
-227.34500899999981
 31
0.0
  0
LINE
  5
46D
  8
NOTE
  6
CONTINUOUS
 62
     4
 10
173.5
 20
-190.5
 30
0.0
 11
307.06063599999982
 21
-365.95885099999992
 31
0.0
  0
POINT
  5
46E
  8
ARRANGE
  6
CONTINUOUS
 62
     1
 10
0.0
 20
0.0
 30
0.0
  0
CIRCLE
  5
46F
  8
ARRANGE
  6
CONTINUOUS
 62
     1
 10
0.0
 20
0.0
 30
0.0
 40
40.0
  0
CIRCLE
  5
470
  8
DETAIL
  6
CONTINUOUS
 62
     5
 10
0.0
 20
0.0
 30
0.0
 40
48.25
  0
ARC
  5
471
  8
DETAIL
  6
CONTINUOUS
 62
     5
 10
0.0
 20
0.0
 30
0.0
 40
207.5
 50
133.65750800000001
 51
226.34249199999991
  0
ARC
  5
472
  8
DETAIL
  6
CONTINUOUS
 62
     5
 10
0.0
 20
0.0
 30
0.0
 40
177.5
 50
133.87389499999969
 51
226.1261049999998
  0
LINE
  5
473
  8
SIZE
  6
CONTINUOUS
 62
    30
 10
177.5
 20
-20.0
 30
0.0
 11
177.5
 21
-435.12866799999989
 31
0.0
  0
LINE
  5
474
  8
SIZE
  6
CONTINUOUS
 62
    30
 10
-177.5
 20
-20.0
 30
0.0
 11
-177.5
 21
-435.12866799999989
 31
0.0
  0
LINE
  5
475
  8
SIZE
  6
CONTINUOUS
 62
    30
 10
165.5
 20
-415.128668
 30
0.0
 11
-165.5
 21
-415.128668
 31
0.0
  0
CIRCLE
  5
476
  8
SIZE
  6
CONTINUOUS
 62
    30
 10
177.5
 20
-415.128668
 30
0.0
 40
6.0
  0
LINE
  5
477
  8
SIZE
  6
CONTINUOUS
 62
    30
 10
177.5
 20
-415.128668
 30
0.0
 11
165.5
 21
-415.128668
 31
0.0
  0
CIRCLE
  5
478
  8
SIZE
  6
CONTINUOUS
 62
    30
 10
-177.5
 20
-415.128668
 30
0.0
 40
6.0
  0
LINE
  5
479
  8
SIZE
  6
CONTINUOUS
 62
    30
 10
-177.5
 20
-415.128668
 30
0.0
 11
-165.5
 21
-415.128668
 31
0.0
  0
TEXT
  5
47A
  8
SIZE
  6
CONTINUOUS
 62
    30
 10
-114.3771428571428
 20
-390.128668
 30
0.0
 40
64.0
  1
φ355
 41
0.9
 72
     1
 11
0.0
 21
-390.128668
 31
0.0
  0
POINT
  5
47B
  8
DEFPOINTS
  6
CONTINUOUS
 62
    30
 10
177.5
 20
0.0
 30
0.0
  0
POINT
  5
47C
  8
DEFPOINTS
  6
CONTINUOUS
 62
    30
 10
-177.5
 20
0.0
 30
0.0
  0
POINT
  5
47D
  8
DEFPOINTS
  6
CONTINUOUS
 62
    30
 10
-177.5
 20
-415.128668
 30
0.0
  0
LINE
  5
47E
  8
SIZE
  6
CONTINUOUS
 62
    30
 10
207.5
 20
-20.0
 30
0.0
 11
207.5
 21
-557.34491500000001
 31
0.0
  0
LINE
  5
47F
  8
SIZE
  6
CONTINUOUS
 62
    30
 10
-207.5
 20
-20.0
 30
0.0
 11
-207.5
 21
-557.34491500000001
 31
0.0
  0
LINE
  5
480
  8
SIZE
  6
CONTINUOUS
 62
    30
 10
195.5
 20
-537.3449149999999
 30
0.0
 11
-195.5
 21
-537.3449149999999
 31
0.0
  0
CIRCLE
  5
481
  8
SIZE
  6
CONTINUOUS
 62
    30
 10
207.5
 20
-537.3449149999999
 30
0.0
 40
6.0
  0
LINE
  5
482
  8
SIZE
  6
CONTINUOUS
 62
    30
 10
207.5
 20
-537.3449149999999
 30
0.0
 11
195.5
 21
-537.3449149999999
 31
0.0
  0
CIRCLE
  5
483
  8
SIZE
  6
CONTINUOUS
 62
    30
 10
-207.5
 20
-537.3449149999999
 30
0.0
 40
6.0
  0
LINE
  5
484
  8
SIZE
  6
CONTINUOUS
 62
    30
 10
-207.5
 20
-537.3449149999999
 30
0.0
 11
-195.5
 21
-537.3449149999999
 31
0.0
  0
TEXT
  5
485
  8
SIZE
  6
CONTINUOUS
 62
    30
 10
-108.89142857142851
 20
-512.3449149999999
 30
0.0
 40
64.0
  1
φ415
 41
0.9
 72
     1
 11
0.0
 21
-512.3449149999999
 31
0.0
  0
POINT
  5
486
  8
DEFPOINTS
  6
CONTINUOUS
 62
    30
 10
207.5
 20
0.0
 30
0.0
  0
POINT
  5
487
  8
DEFPOINTS
  6
CONTINUOUS
 62
    30
 10
-207.5
 20
0.0
 30
0.0
  0
POINT
  5
488
  8
DEFPOINTS
  6
CONTINUOUS
 62
    30
 10
-207.5
 20
-537.3449149999999
 30
0.0
  0
LINE
  5
489
  8
SIZE
  6
CONTINUOUS
 62
    30
 10
-217.0
 20
257.0
 30
0.0
 11
-217.0
 21
336.78742799999992
 31
0.0
  0
LINE
  5
48A
  8
SIZE
  6
CONTINUOUS
 62
    30
 10
217.0
 20
257.0
 30
0.0
 11
217.0
 21
336.78742799999992
 31
0.0
  0
LINE
  5
48B
  8
SIZE
  6
CONTINUOUS
 62
    30
 10
-205.0
 20
316.78742799999992
 30
0.0
 11
205.0
 21
316.78742799999992
 31
0.0
  0
CIRCLE
  5
48C
  8
SIZE
  6
CONTINUOUS
 62
    30
 10
-217.0
 20
316.78742799999992
 30
0.0
 40
6.0
  0
LINE
  5
48D
  8
SIZE
  6
CONTINUOUS
 62
    30
 10
-217.0
 20
316.78742799999992
 30
0.0
 11
-205.0
 21
316.78742799999992
 31
0.0
  0
CIRCLE
  5
48E
  8
SIZE
  6
CONTINUOUS
 62
    30
 10
217.0
 20
316.78742799999992
 30
0.0
 40
6.0
  0
LINE
  5
48F
  8
SIZE
  6
CONTINUOUS
 62
    30
 10
217.0
 20
316.78742799999992
 30
0.0
 11
205.0
 21
316.78742799999992
 31
0.0
  0
TEXT
  5
490
  8
SIZE
  6
CONTINUOUS
 62
    30
 10
-75.428571428571416
 20
341.78742799999992
 30
0.0
 40
64.0
  1
434
 41
0.9
 72
     1
 11
0.0
 21
341.78742799999992
 31
0.0
  0
POINT
  5
491
  8
DEFPOINTS
  6
CONTINUOUS
 62
    30
 10
217.0
 20
316.78742799999992
 30
0.0
  0
CIRCLE
  5
492
  8
DETAIL
  6
CONTINUOUS
 62
     5
 39
50.0
 10
-217.0
 20
217.0
 30
0.0
 40
6.0
  0
CIRCLE
  5
493
  8
FIX
  6
CONTINUOUS
 62
    11
 39
50.0
 10
-217.0
 20
217.0
 30
0.0
 40
6.0
  0
CIRCLE
  5
494
  8
DETAIL
  6
CONTINUOUS
 62
     5
 39
50.0
 10
217.0
 20
217.0
 30
0.0
 40
6.0
  0
CIRCLE
  5
495
  8
DETAIL
  6
CONTINUOUS
 62
     5
 39
50.0
 10
-217.0
 20
-217.0
 30
0.0
 40
6.0
  0
CIRCLE
  5
496
  8
DETAIL
  6
CONTINUOUS
 62
     5
 39
50.0
 10
217.0
 20
-217.0
 30
0.0
 40
6.0
  0
CIRCLE
  5
497
  8
FIX
  6
CONTINUOUS
 62
    11
 39
50.0
 10
217.0
 20
-217.0
 30
0.0
 40
6.0
  0
ARC
  5
498
  8
DETAIL
  6
CONTINUOUS
 62
     5
 10
-159.8820289999999
 20
159.8820289999999
 30
0.0
 40
52.549557999999998
 50
90.0
 51
180.0
  0
LINE
  5
499
  8
DETAIL
  6
CONTINUOUS
 62
     5
 10
-114.0
 20
212.43158700000001
 30
0.0
 11
114.0
 21
212.43158700000001
 31
0.0
  0
LINE
  5
49A
  8
DETAIL
  6
CONTINUOUS
 62
     5
 10
-136.0
 20
212.43158700000001
 30
0.0
 11
-159.8820289999999
 21
212.43158700000001
 31
0.0
  0
LINE
  5
49B
  8
DETAIL
  6
CONTINUOUS
 62
     5
 10
159.8820289999999
 20
212.43158700000001
 30
0.0
 11
136.0
 21
212.43158700000001
 31
0.0
  0
ARC
  5
49C
  8
DETAIL
  6
CONTINUOUS
 62
     5
 10
159.8820289999999
 20
159.8820289999999
 30
0.0
 40
52.549557999999998
 50
0.0
 51
90.0
  0
LINE
  5
49D
  8
DETAIL
  6
CONTINUOUS
 62
     5
 10
212.43158700000001
 20
159.8820289999999
 30
0.0
 11
212.43158700000001
 21
136.0
 31
0.0
  0
LINE
  5
49E
  8
DETAIL
  6
CONTINUOUS
 62
     5
 10
212.43158700000001
 20
-136.0
 30
0.0
 11
212.43158700000001
 21
-159.8820289999999
 31
0.0
  0
ARC
  5
49F
  8
DETAIL
  6
CONTINUOUS
 62
     5
 10
159.8820289999999
 20
-159.8820289999999
 30
0.0
 40
52.549557999999998
 50
270.0
 51
286.95796100000001
  0
LINE
  5
4A0
  8
DETAIL
  6
CONTINUOUS
 62
     5
 10
-212.43158700000001
 20
159.8820289999999
 30
0.0
 11
-212.43158700000001
 21
136.0
 31
0.0
  0
ARC
  5
4A1
  8
DETAIL
  6
CONTINUOUS
 62
     5
 10
-159.8820289999999
 20
-159.8820289999999
 30
0.0
 40
52.549557999999998
 50
180.0
 51
270.0
  0
LINE
  5
4A2
  8
DETAIL
  6
CONTINUOUS
 62
     5
 10
-136.0
 20
-212.43158700000001
 30
0.0
 11
-159.8820289999999
 21
-212.43158700000001
 31
0.0
  0
LINE
  5
4A3
  8
DETAIL
  6
CONTINUOUS
 62
     5
 10
159.8820289999999
 20
-212.43158700000001
 30
0.0
 11
136.0
 21
-212.43158700000001
 31
0.0
  0
ARC
  5
4A4
  8
DETAIL
  6
CONTINUOUS
 62
     5
 10
-125.0
 20
216.64992000000001
 30
0.0
 40
11.781101
 50
200.98106200000001
 51
339.01893799999982
  0
ARC
  5
4A5
  8
DETAIL
  6
CONTINUOUS
 62
     5
 10
125.0
 20
216.64992000000001
 30
0.0
 40
11.781101
 50
200.98106200000001
 51
339.01893799999982
  0
LINE
  5
4A6
  8
DETAIL
  6
CONTINUOUS
 62
     5
 10
-114.0
 20
-212.43158700000001
 30
0.0
 11
114.0
 21
-212.43158700000001
 31
0.0
  0
ARC
  5
4A7
  8
DETAIL
  6
CONTINUOUS
 62
     5
 10
-125.0
 20
-216.64992000000001
 30
0.0
 40
11.781101
 50
20.981061999999991
 51
159.01893799999999
  0
ARC
  5
4A8
  8
DETAIL
  6
CONTINUOUS
 62
     5
 10
125.0
 20
-216.64992000000001
 30
0.0
 40
11.781101
 50
20.981061999999991
 51
159.01893799999999
  0
LINE
  5
4A9
  8
DETAIL
  6
CONTINUOUS
 62
     5
 10
-212.43158700000001
 20
114.0
 30
0.0
 11
-212.43158700000001
 21
-114.0
 31
0.0
  0
ARC
  5
4AA
  8
DETAIL
  6
CONTINUOUS
 62
     5
 10
-216.64992000000001
 20
125.0
 30
0.0
 40
11.781101
 50
290.98106200000001
 51
69.018938000000006
  0
ARC
  5
4AB
  8
DETAIL
  6
CONTINUOUS
 62
     5
 10
-216.64992000000001
 20
-125.0
 30
0.0
 40
11.781101
 50
290.98106200000001
 51
69.018938000000006
  0
LINE
  5
4AC
  8
DETAIL
  6
CONTINUOUS
 62
     5
 10
-212.43158700000001
 20
-136.0
 30
0.0
 11
-212.43158700000001
 21
-159.8820289999999
 31
0.0
  0
LINE
  5
4AD
  8
DETAIL
  6
CONTINUOUS
 62
     5
 10
212.43158700000001
 20
114.0
 30
0.0
 11
212.43158700000001
 21
-114.0
 31
0.0
  0
ARC
  5
4AE
  8
DETAIL
  6
CONTINUOUS
 62
     5
 10
216.64992000000001
 20
-125.0
 30
0.0
 40
11.781101
 50
110.9810619999998
 51
249.01893799999991
  0
ARC
  5
4AF
  8
DETAIL
  6
CONTINUOUS
 62
     5
 10
216.64992000000001
 20
125.0
 30
0.0
 40
11.781101
 50
110.9810619999998
 51
249.01893799999991
  0
ARC
  5
4B0
  8
DETAIL
  6
CONTINUOUS
 62
     5
 10
0.0
 20
0.0
 30
0.0
 40
175.0
 50
202.42558699999969
 51
226.10472299999989
  0
CIRCLE
  5
4B1
  8
DETAIL
  6
CONTINUOUS
 62
     5
 10
0.0
 20
0.0
 30
0.0
 40
15.0
  0
CIRCLE
  5
4B2
  8
DETAIL
  6
CONTINUOUS
 62
     5
 10
0.0
 20
0.0
 30
0.0
 40
20.0
  0
LINE
  5
4B3
  8
DETAIL
  6
CONTINUOUS
 62
     5
 10
-179.34768
 20
189.688671
 30
0.0
 11
-66.235834999999994
 21
65.717608999999996
 31
0.0
  0
LINE
  5
4B4
  8
DETAIL
  6
CONTINUOUS
 62
     5
 10
-181.58055899999999
 20
158.266854
 30
0.0
 11
-164.5026
 21
172.87900999999991
 31
0.0
  0
LINE
  5
4B5
  8
DETAIL
  6
CONTINUOUS
 62
     5
 10
-183.5648229999999
 20
168.555227
 30
0.0
 11
-187.01434299999991
 21
174.53906000000001
 31
0.0
  0
LINE
  5
4B6
  8
DETAIL
  6
CONTINUOUS
 62
     5
 10
-176.6657909999999
 20
168.5552219999999
 30
0.0
 11
-183.564819
 21
168.5552219999999
 31
0.0
  0
LINE
  5
4B7
  8
DETAIL
  6
CONTINUOUS
 62
     5
 10
-173.2162459999999
 20
174.53906499999999
 30
0.0
 11
-176.66574700000001
 21
168.5552209999999
 31
0.0
  0
LINE
  5
4B8
  8
DETAIL
  6
CONTINUOUS
 62
     5
 10
-176.66578999999999
 20
180.52290400000001
 30
0.0
 11
-173.216296
 21
174.5390559999999
 31
0.0
  0
LINE
  5
4B9
  8
DETAIL
  6
CONTINUOUS
 62
     5
 10
-183.564798
 20
180.52290099999991
 30
0.0
 11
-176.66577000000001
 21
180.52290099999991
 31
0.0
  0
LINE
  5
4BA
  8
DETAIL
  6
CONTINUOUS
 62
     5
 10
-187.0142559999999
 20
174.53905399999999
 30
0.0
 11
-183.5647669999999
 21
180.52290500000001
 31
0.0
  0
CIRCLE
  5
4BB
  8
DETAIL
  6
CONTINUOUS
 62
     5
 10
-180.115295
 20
174.539061
 30
0.0
 40
5.8078449999999986
  0
LINE
  5
4BC
  8
DETAIL
  6
CONTINUOUS
 62
     5
 10
-65.0
 20
62.729585999999991
 30
0.0
 11
-65.0
 21
52.609792000000013
 31
0.0
  0
ARC
  5
4BD
  8
DETAIL
  6
CONTINUOUS
 62
     5
 10
-69.223844
 20
62.729585999999991
 30
0.0
 40
8.4477740000000008
 50
359.99992799999978
 51
44.999945999999987
  0
LINE
  5
4BE
  8
DETAIL
  6
CONTINUOUS
 62
     5
 10
-60.776069999999997
 20
62.729574999999997
 30
0.0
 11
-60.776069999999997
 21
54.469903000000002
 31
0.0
  0
ARC
  5
4BF
  8
DETAIL
  6
CONTINUOUS
 62
     5
 10
-69.222576000000004
 20
62.730873000000003
 30
0.0
 40
4.2238870000000004
 50
359.99992799999978
 51
44.999945999999987
  0
LINE
  5
4C0
  8
DETAIL
  6
CONTINUOUS
 62
     5
 10
-174.60741100000001
 20
193.6201879999999
 30
0.0
 11
-63.249091
 21
68.704342000000011
 31
0.0
  0
LINE
  5
4C1
  8
DETAIL
  6
CONTINUOUS
 62
     5
 10
-196.65396799999991
 20
175.33506
 30
0.0
 11
-181.58055899999999
 21
158.266854
 31
0.0
  0
ARC
  5
4C2
  8
DETAIL
  6
CONTINUOUS
 62
     5
 10
-9.3580260000000006
 20
-17.675225999999991
 30
0.0
 40
105.36960999999999
 50
54.716760999999991
 51
97.281189000000012
  0
ARC
  5
4C3
  8
DETAIL
  6
CONTINUOUS
 62
     5
 10
-21.741407999999989
 20
81.939894999999979
 30
0.0
 40
5.0
 50
101.19859799999981
 51
199.72111499999991
  0
LINE
  5
4C4
  8
DETAIL
  6
CONTINUOUS
 62
     5
 10
-17.253388000000001
 20
65.982200000000006
 30
0.0
 11
-26.448139999999999
 21
80.252683999999988
 31
0.0
  0
LINE
  5
4C5
  8
DETAIL
  6
CONTINUOUS
 62
     5
 10
55.406080000000003
 20
54.992505000000001
 30
0.0
 11
54.870752000000003
 21
61.631783999999989
 31
0.0
  0
ARC
  5
4C6
  8
DETAIL
  6
CONTINUOUS
 62
     5
 10
44.903100999999999
 20
60.828088000000001
 30
0.0
 40
10.0
 50
4.6098129999999991
 51
48.682232999999997
  0
ARC
  5
4C7
  8
DETAIL
  6
CONTINUOUS
 62
     5
 10
-63.320363999999991
 20
78.095068999999981
 30
0.0
 40
124.2637629999999
 50
349.43299300000001
 51
50.318497999999998
  0
ARC
  5
4C8
  8
DETAIL
  6
CONTINUOUS
 62
     5
 10
46.28134399999999
 20
2.628174
 30
0.0
 40
133.48263899999969
 50
176.49248600000001
 51
206.9136169999999
  0
ARC
  5
4C9
  8
DETAIL
  6
CONTINUOUS
 62
     5
 10
-68.525933999999992
 20
-55.107202999999998
 30
0.0
 40
5.0
 50
212.48088799999999
 51
313.08983499999982
  0
LINE
  5
4CA
  8
DETAIL
  6
CONTINUOUS
 62
     5
 10
-65.0
 20
-62.729585999999991
 30
0.0
 11
-65.0
 21
-52.609792000000013
 31
0.0
  0
ARC
  5
4CB
  8
DETAIL
  6
CONTINUOUS
 62
     5
 10
-62.399999999999999
 20
-64.348606000000004
 30
0.0
 40
2.6000000000000001
 50
180.0
 51
270.0
  0
LINE
  5
4CC
  8
DETAIL
  6
CONTINUOUS
 62
     5
 10
-61.808188999999999
 20
-66.948606000000012
 30
0.0
 11
-62.399999999999999
 21
-66.948606000000012
 31
0.0
  0
ARC
  5
4CD
  8
DETAIL
  6
CONTINUOUS
 62
     5
 10
-77.823641000000023
 20
11.45879399999998
 30
0.0
 40
9.1517549999999996
 50
99.442145000000011
 51
184.1611879999999
  0
ARC
  5
4CE
  8
DETAIL
  6
CONTINUOUS
 62
     5
 10
-41.274880999999993
 20
-86.184392000000003
 30
0.0
 40
122.5013139999997
 50
101.1671769999999
 51
170.08855
  0
ARC
  5
4CF
  8
DETAIL
  6
CONTINUOUS
 62
     5
 10
-144.64262199999999
 20
-26.220449999999989
 30
0.0
 40
3.0
 50
149.88184899999979
 51
190.274855
  0
ARC
  5
4D0
  8
DETAIL
  6
CONTINUOUS
 62
     5
 10
165.6754819999999
 20
-50.433880000000002
 30
0.0
 40
226.04355599999991
 50
184.254929
 51
209.617075
  0
LINE
  5
4D1
  8
DETAIL
  6
CONTINUOUS
 62
     5
 10
71.082700000000003
 20
-83.682613999999987
 30
0.0
 11
56.785778999999998
 21
-69.367869999999996
 31
0.0
  0
ARC
  5
4D2
  8
DETAIL
  6
CONTINUOUS
 62
     5
 10
81.561386999999968
 20
-30.506989999999991
 30
0.0
 40
10.0
 50
333.85953299999989
 51
111.2356429999999
  0
ARC
  5
4D3
  8
DETAIL
  6
CONTINUOUS
 62
     5
 10
316.32747599999999
 20
378.574387
 30
0.0
 40
545.63726399999985
 50
240.184774
 51
247.811891
  0
LINE
  5
4D4
  8
DETAIL
  6
CONTINUOUS
 62
     5
 10
75.463767000000004
 20
-79.301547999999983
 30
0.0
 11
63.766351999999991
 21
-66.560638999999995
 31
0.0
  0
LINE
  5
4D5
  8
DETAIL
  6
CONTINUOUS
 62
     5
 10
173.839608
 20
-183.308221
 30
0.0
 11
64.993988999999999
 21
-64.525297999999992
 31
0.0
  0
LINE
  5
4D6
  8
DETAIL
  6
CONTINUOUS
 62
     5
 10
76.057203999999999
 20
-78.708111000000002
 30
0.0
 11
81.532893999999999
 21
-84.183812000000003
 31
0.0
  0
LINE
  5
4D7
  8
DETAIL
  6
CONTINUOUS
 62
     5
 10
76.057203999999999
 20
-78.708111000000002
 30
0.0
 11
70.581497999999996
 21
-84.183817000000005
 31
0.0
  0
LINE
  5
4D8
  8
DETAIL
  6
CONTINUOUS
 62
     5
 10
81.035087000000004
 20
-83.685933999999989
 30
0.0
 11
75.559414000000004
 21
-89.161606999999975
 31
0.0
  0
LINE
  5
4D9
  8
DETAIL
  6
CONTINUOUS
 62
     5
 10
76.057211999999964
 20
-89.659537
 30
0.0
 11
81.532893999999999
 21
-84.183812000000003
 31
0.0
  0
LINE
  5
4DA
  8
DETAIL
  6
CONTINUOUS
 62
     5
 10
70.581497999999996
 20
-84.183817000000005
 30
0.0
 11
76.057210999999981
 21
-89.659550999999979
 31
0.0
  0
LINE
  5
4DB
  8
DETAIL
  6
CONTINUOUS
 62
     5
 10
76.555013000000002
 20
-89.161748999999986
 30
0.0
 11
165.777602
 21
-188.39565200000001
 31
0.0
  0
LINE
  5
4DC
  8
DETAIL
  6
CONTINUOUS
 62
     5
 10
174.32015699999999
 20
-186.982314
 30
0.0
 11
80.705658999999983
 21
-85.011054000000001
 31
0.0
  0
ARC
  5
4DD
  8
DETAIL
  6
CONTINUOUS
 62
     5
 10
169.38391899999999
 20
-186.02525700000001
 30
0.0
 40
5.2187589999999986
 50
307.38168400000001
 51
31.374437
  0
ARC
  5
4DE
  8
DETAIL
  6
CONTINUOUS
 62
     5
 10
170.072822
 20
-185.821731
 30
0.0
 40
5.0073930000000004
 50
210.93225199999989
 51
299.68109199999992
  0
LINE
  5
4DF
  8
DETAIL
  6
CONTINUOUS
 62
     5
 10
173.14723000000001
 20
-195.765221
 30
0.0
 11
167.49911399999991
 21
-190.1170789999999
 31
0.0
  0
LINE
  5
4E0
  8
DETAIL
  6
CONTINUOUS
 62
     5
 10
178.1251059999999
 20
-190.787262
 30
0.0
 11
174.32015699999999
 21
-186.982314
 31
0.0
  0
ARC
  5
4E1
  8
DETAIL
  6
CONTINUOUS
 62
     5
 10
168.1693249999999
 20
-200.74312800000001
 30
0.0
 40
7.0398119999999986
 50
0.0
 51
45.00000099999999
  0
ARC
  5
4E2
  8
DETAIL
  6
CONTINUOUS
 62
     5
 10
175.00867099999991
 20
-192.648741
 30
0.0
 40
3.519905999999998
 50
224.9999819999997
 51
45.000219999999999
  0
ARC
  5
4E3
  8
DETAIL
  6
CONTINUOUS
 62
     5
 10
168.1693249999999
 20
-200.74306299999989
 30
0.0
 40
14.079623
 50
0.0
 51
45.00000099999999
  0
LINE
  5
4E4
  8
DETAIL
  6
CONTINUOUS
 62
     5
 10
176.66578999999999
 20
-180.52290400000001
 30
0.0
 11
173.216296
 21
-174.5390559999999
 31
0.0
  0
LINE
  5
4E5
  8
DETAIL
  6
CONTINUOUS
 62
     5
 10
183.5648229999999
 20
-168.555227
 30
0.0
 11
176.66579399999981
 21
-168.555227
 31
0.0
  0
LINE
  5
4E6
  8
DETAIL
  6
CONTINUOUS
 62
     5
 10
187.0142559999999
 20
-174.53905399999999
 30
0.0
 11
183.5647669999999
 21
-180.52290500000001
 31
0.0
  0
LINE
  5
4E7
  8
DETAIL
  6
CONTINUOUS
 62
     5
 10
175.209158
 20
-200.74312800000001
 30
0.0
 11
175.209158
 21
-231.54206600000001
 31
0.0
  0
LINE
  5
4E8
  8
DETAIL
  6
CONTINUOUS
 62
     5
 10
182.2489689999999
 20
-200.74306299999989
 30
0.0
 11
182.2489689999999
 21
-231.54206600000001
 31
0.0
  0
LINE
  5
4E9
  8
DETAIL
  6
CONTINUOUS
 62
     5
 10
178.001082
 20
-256.33131900000001
 30
0.0
 11
174.35704499999991
 21
-269.93117899999982
 31
0.0
  0
LINE
  5
4EA
  8
DETAIL
  6
CONTINUOUS
 62
     5
 10
176.6411149999999
 20
-255.96691499999989
 30
0.0
 11
172.99703299999999
 21
-269.56678499999992
 31
0.0
  0
LINE
  5
4EB
  8
DETAIL
  6
CONTINUOUS
 62
     5
 10
180.81695500000001
 20
-255.9669169999998
 30
0.0
 11
184.461037
 21
-269.56678699999992
 31
0.0
  0
LINE
  5
4EC
  8
DETAIL
  6
CONTINUOUS
 62
     5
 10
179.4569679999999
 20
-256.33131800000001
 30
0.0
 11
183.10103000000001
 21
-269.93119299999989
 31
0.0
  0
LINE
  5
4ED
  8
DETAIL
  6
CONTINUOUS
 62
     5
 10
172.997028
 20
-269.56681200000003
 30
0.0
 11
174.35703000000001
 21
-269.93124499999982
 31
0.0
  0
LINE
  5
4EE
  8
DETAIL
  6
CONTINUOUS
 62
     5
 10
173.67699899999991
 20
-269.74897700000002
 30
0.0
 11
172.40158899999969
 21
-274.50893600000001
 31
0.0
  0
LINE
  5
4EF
  8
DETAIL
  6
CONTINUOUS
 62
     5
 10
184.4610839999998
 20
-269.56672200000003
 30
0.0
 11
183.101112
 21
-269.93110399999989
 31
0.0
  0
LINE
  5
4F0
  8
DETAIL
  6
CONTINUOUS
 62
     5
 10
183.78110699999991
 20
-269.74899099999982
 30
0.0
 11
185.0565109999998
 21
-274.50892999999991
 31
0.0
  0
ARC
  5
4F1
  8
DETAIL
  6
CONTINUOUS
 62
     5
 10
176.96911
 20
-234.59040200000001
 30
0.0
 40
3.519905999999998
 50
60.000042999999998
 51
119.9997029999999
  0
ARC
  5
4F2
  8
DETAIL
  6
CONTINUOUS
 62
     5
 10
176.96911
 20
-238.575132
 30
0.0
 40
3.519905999999998
 50
59.999988000000002
 51
119.99964799999999
  0
ARC
  5
4F3
  8
DETAIL
  6
CONTINUOUS
 62
     5
 10
176.96911
 20
-228.49372999999991
 30
0.0
 40
3.519905999999998
 50
240.00033499999989
 51
299.99999500000001
  0
LINE
  5
4F4
  8
DETAIL
  6
CONTINUOUS
 62
     5
 10
175.209158
 20
-256.14911599999999
 30
0.0
 11
182.2489689999999
 21
-256.14911599999999
 31
0.0
  0
LINE
  5
4F5
  8
DETAIL
  6
CONTINUOUS
 62
     5
 10
175.209158
 20
-235.52679499999991
 30
0.0
 11
175.209158
 21
-256.14911599999999
 31
0.0
  0
LINE
  5
4F6
  8
DETAIL
  6
CONTINUOUS
 62
     5
 10
182.2489689999999
 20
-235.52679499999991
 30
0.0
 11
182.2489689999999
 21
-256.14911599999999
 31
0.0
  0
ARC
  5
4F7
  8
DETAIL
  6
CONTINUOUS
 62
     5
 10
180.48901599999999
 20
-238.575132
 30
0.0
 40
3.519905999999998
 50
60.000260999999988
 51
119.999921
  0
ARC
  5
4F8
  8
DETAIL
  6
CONTINUOUS
 62
     5
 10
180.48901599999999
 20
-228.49372999999991
 30
0.0
 40
3.519905999999998
 50
240.0000609999999
 51
299.99972100000002
  0
ARC
  5
4F9
  8
DETAIL
  6
CONTINUOUS
 62
     5
 10
180.48901599999999
 20
-232.4784589999999
 30
0.0
 40
3.519905999999998
 50
240.0000609999999
 51
299.99988500000001
  0
LINE
  5
4FA
  8
DETAIL
  6
CONTINUOUS
 62
     5
 10
-196.65396799999991
 20
175.33506
 30
0.0
 11
-174.60741100000001
 21
193.6201879999999
 31
0.0
  0
LINE
  5
4FB
  8
DETAIL
  6
CONTINUOUS
 62
     5
 10
181.58055899999999
 20
158.266854
 30
0.0
 11
164.5026
 21
172.87900999999991
 31
0.0
  0
LINE
  5
4FC
  8
DETAIL
  6
CONTINUOUS
 62
     5
 10
173.2162459999999
 20
174.53906499999999
 30
0.0
 11
176.66574700000001
 21
168.5552209999999
 31
0.0
  0
LINE
  5
4FD
  8
DETAIL
  6
CONTINUOUS
 62
     5
 10
176.66578999999999
 20
180.52290400000001
 30
0.0
 11
173.216296
 21
174.5390559999999
 31
0.0
  0
LINE
  5
4FE
  8
DETAIL
  6
CONTINUOUS
 62
     5
 10
183.5648229999999
 20
168.555227
 30
0.0
 11
187.01434299999991
 21
174.53906000000001
 31
0.0
  0
LINE
  5
4FF
  8
DETAIL
  6
CONTINUOUS
 62
     5
 10
176.6657909999999
 20
168.5552219999999
 30
0.0
 11
183.564819
 21
168.5552219999999
 31
0.0
  0
LINE
  5
500
  8
DETAIL
  6
CONTINUOUS
 62
     5
 10
183.564798
 20
180.52290099999991
 30
0.0
 11
176.66577000000001
 21
180.52290099999991
 31
0.0
  0
LINE
  5
501
  8
DETAIL
  6
CONTINUOUS
 62
     5
 10
187.0142559999999
 20
174.53905399999999
 30
0.0
 11
183.5647669999999
 21
180.52290500000001
 31
0.0
  0
CIRCLE
  5
502
  8
DETAIL
  6
CONTINUOUS
 62
     5
 10
180.115295
 20
174.539061
 30
0.0
 40
5.8078449999999986
  0
LINE
  5
503
  8
DETAIL
  6
CONTINUOUS
 62
     5
 10
174.60741100000001
 20
193.6201879999999
 30
0.0
 11
63.249091
 21
68.704342000000011
 31
0.0
  0
LINE
  5
504
  8
DETAIL
  6
CONTINUOUS
 62
     5
 10
179.34768
 20
189.688671
 30
0.0
 11
66.235834999999994
 21
65.717608999999996
 31
0.0
  0
LINE
  5
505
  8
DETAIL
  6
CONTINUOUS
 62
     5
 10
196.65396799999991
 20
175.33506
 30
0.0
 11
181.58055899999999
 21
158.266854
 31
0.0
  0
LINE
  5
506
  8
DETAIL
  6
CONTINUOUS
 62
     5
 10
196.65396799999991
 20
175.33506
 30
0.0
 11
174.60741100000001
 21
193.6201879999999
 31
0.0
  0
ARC
  5
507
  8
DETAIL
  6
CONTINUOUS
 62
     5
 10
69.222576000000004
 20
62.730873000000003
 30
0.0
 40
4.2238870000000004
 50
135.00005400000001
 51
180.00007199999999
  0
ARC
  5
508
  8
DETAIL
  6
CONTINUOUS
 62
     5
 10
69.223844
 20
62.729585999999991
 30
0.0
 40
8.4477740000000008
 50
135.00005400000001
 51
180.00007199999999
  0
LINE
  5
509
  8
DETAIL
  6
CONTINUOUS
 62
     5
 10
60.776069999999997
 20
62.729574999999997
 30
0.0
 11
60.776069999999997
 21
54.469903000000002
 31
0.0
  0
LINE
  5
50A
  8
DETAIL
  6
CONTINUOUS
 62
     5
 10
65.0
 20
62.729585999999991
 30
0.0
 11
65.0
 21
52.609792000000013
 31
0.0
  0
LINE
  5
50B
  8
DETAIL
  6
CONTINUOUS
 62
     5
 10
-174.60741100000001
 20
-193.6201879999999
 30
0.0
 11
-61.684717999999982
 21
-66.949511000000001
 31
0.0
  0
LINE
  5
50C
  8
DETAIL
  6
CONTINUOUS
 62
     5
 10
-179.34768
 20
-189.688671
 30
0.0
 11
-64.999960000000002
 21
-64.363084999999984
 31
0.0
  0
LINE
  5
50D
  8
DETAIL
  6
CONTINUOUS
 62
     5
 10
-181.58055899999999
 20
-158.266854
 30
0.0
 11
-164.5026
 21
-172.87900999999991
 31
0.0
  0
LINE
  5
50E
  8
DETAIL
  6
CONTINUOUS
 62
     5
 10
-196.65396799999991
 20
-175.33506
 30
0.0
 11
-181.58055899999999
 21
-158.266854
 31
0.0
  0
LINE
  5
50F
  8
DETAIL
  6
CONTINUOUS
 62
     5
 10
-173.2162459999999
 20
-174.53906499999999
 30
0.0
 11
-176.66574700000001
 21
-168.5552209999999
 31
0.0
  0
LINE
  5
510
  8
DETAIL
  6
CONTINUOUS
 62
     5
 10
-176.66578999999999
 20
-180.52290400000001
 30
0.0
 11
-173.216296
 21
-174.5390559999999
 31
0.0
  0
LINE
  5
511
  8
DETAIL
  6
CONTINUOUS
 62
     5
 10
-196.65396799999991
 20
-175.33506
 30
0.0
 11
-174.60741100000001
 21
-193.6201879999999
 31
0.0
  0
LINE
  5
512
  8
DETAIL
  6
CONTINUOUS
 62
     5
 10
-183.5648229999999
 20
-168.555227
 30
0.0
 11
-187.01434299999991
 21
-174.53906000000001
 31
0.0
  0
LINE
  5
513
  8
DETAIL
  6
CONTINUOUS
 62
     5
 10
-183.564798
 20
-180.52290099999991
 30
0.0
 11
-176.66577000000001
 21
-180.52290099999991
 31
0.0
  0
LINE
  5
514
  8
DETAIL
  6
CONTINUOUS
 62
     5
 10
-187.0142559999999
 20
-174.53905399999999
 30
0.0
 11
-183.5647669999999
 21
-180.52290500000001
 31
0.0
  0
CIRCLE
  5
515
  8
DETAIL
  6
CONTINUOUS
 62
     5
 10
-180.115295
 20
-174.539061
 30
0.0
 40
5.8078449999999986
  0
LINE
  5
516
  8
DETAIL
  6
CONTINUOUS
 62
     5
 10
-65.0
 20
-62.729585999999991
 30
0.0
 11
-65.0
 21
-52.609792000000013
 31
0.0
  0
LINE
  5
517
  8
DETAIL
  6
CONTINUOUS
 62
     5
 10
196.65396799999991
 20
-175.33506
 30
0.0
 11
181.58055899999999
 21
-158.266854
 31
0.0
  0
LINE
  5
518
  8
DETAIL
  6
CONTINUOUS
 62
     5
 10
181.58055899999999
 20
-158.266854
 30
0.0
 11
164.5026
 21
-172.87900999999991
 31
0.0
  0
LINE
  5
519
  8
DETAIL
  6
CONTINUOUS
 62
     5
 10
176.66578999999999
 20
-180.52290400000001
 30
0.0
 11
173.216296
 21
-174.5390559999999
 31
0.0
  0
LINE
  5
51A
  8
DETAIL
  6
CONTINUOUS
 62
     5
 10
173.2162459999999
 20
-174.53906499999999
 30
0.0
 11
176.66574700000001
 21
-168.5552209999999
 31
0.0
  0
CIRCLE
  5
51B
  8
DETAIL
  6
CONTINUOUS
 62
     5
 10
180.115295
 20
-174.539061
 30
0.0
 40
5.8078449999999986
  0
LINE
  5
51C
  8
DETAIL
  6
CONTINUOUS
 62
     5
 10
187.0142559999999
 20
-174.53905399999999
 30
0.0
 11
183.5647669999999
 21
-180.52290500000001
 31
0.0
  0
LINE
  5
51D
  8
DETAIL
  6
CONTINUOUS
 62
     5
 10
183.564798
 20
-180.52290099999991
 30
0.0
 11
176.66577000000001
 21
-180.52290099999991
 31
0.0
  0
LINE
  5
51E
  8
DETAIL
  6
CONTINUOUS
 62
     5
 10
183.5648229999999
 20
-168.555227
 30
0.0
 11
187.01434299999991
 21
-174.53906000000001
 31
0.0
  0
LINE
  5
51F
  8
DETAIL
  6
CONTINUOUS
 62
     5
 10
196.65396799999991
 20
-175.33506
 30
0.0
 11
178.07885899999999
 21
-190.741015
 31
0.0
  0
ARC
  5
520
  8
DETAIL
  6
CONTINUOUS
 62
     5
 10
-143.01592500000001
 20
90.041352999999987
 30
0.0
 40
6.0
 50
147.80590499999971
 51
313.37671699999999
  0
ARC
  5
521
  8
DETAIL
  6
CONTINUOUS
 62
     5
 10
0.0
 20
0.0
 30
0.0
 40
175.0
 50
85.294828000000024
 51
132.2050879999999
  0
ARC
  5
522
  8
DETAIL
  6
CONTINUOUS
 62
     5
 10
14.108898
 20
171.42035799999991
 30
0.0
 40
3.0
 50
50.318497999999998
 51
85.294828000000024
  0
LINE
  5
523
  8
DETAIL
  6
CONTINUOUS
 62
     5
 10
-79.325001999999984
 20
20.486558999999989
 30
0.0
 11
-65.0
 21
19.441987999999991
 31
0.0
  0
ARC
  5
524
  8
DETAIL
  6
CONTINUOUS
 62
     5
 10
-158.99263199999999
 20
-65.615111999999996
 30
0.0
 40
3.0
 50
170.08855
 51
202.42558699999969
  0
ARC
  5
525
  8
DETAIL
  6
CONTINUOUS
 62
     5
 10
-36.051046999999997
 20
-165.11002999999991
 30
0.0
 40
6.0
 50
257.68302699999992
 51
29.617075
  0
ARC
  5
526
  8
DETAIL
  6
CONTINUOUS
 62
     5
 10
-88.699266000000023
 20
10.218446999999991
 30
0.0
 40
90.631725000000003
 50
37.972159999999981
 51
91.996653000000023
  0
ARC
  5
527
  8
DETAIL
  6
CONTINUOUS
 62
     5
 10
63.946334999999998
 20
82.578475999999981
 30
0.0
 40
103.796324
 50
270.55311399999999
 51
336.37297599999999
  0
ARC
  5
528
  8
DETAIL
  6
CONTINUOUS
 62
     5
 10
164.53884999999991
 20
38.574172999999981
 30
0.0
 40
6.0
 50
13.194037
 51
156.37297599999999
  0
LINE
  5
529
  8
DETAIL
  6
CONTINUOUS
 62
     5
 10
77.939342000000025
 20
-21.186004000000001
 30
0.0
 11
65.0
 21
-22.755310000000001
 31
0.0
  0
ARC
  5
52A
  8
DETAIL
  6
CONTINUOUS
 62
     5
 10
-51.664019000000003
 20
-8.4596549999999961
 30
0.0
 40
144.64209700000001
 50
323.029808
 51
328.14565399999992
  0
LINE
  5
52B
  8
DETAIL
  6
CONTINUOUS
 62
     5
 10
49.33641699999999
 20
-93.348647
 30
0.0
 11
56.232464999999998
 21
-97.107236999999998
 31
0.0
  0
ARC
  5
52C
  8
DETAIL
  6
CONTINUOUS
 62
     5
 10
59.103875999999993
 20
-91.838936000000004
 30
0.0
 40
6.0
 50
241.40805199999991
 51
323.029808
  0
ARC
  5
52D
  8
DETAIL
  6
CONTINUOUS
 62
     5
 10
159.8820289999999
 20
-159.8820289999999
 30
0.0
 40
52.549557999999998
 50
295.19087400000001
 51
0.0
  0
LINE
  5
52E
  8
SIZE
  6
CONTINUOUS
 62
    30
 10
-498.20135199999987
 20
332.09341299999988
 30
0.0
 11
-155.59928899999991
 21
103.72010999999991
 31
0.0
  0
LINE
  5
52F
  8
SIZE
  6
CONTINUOUS
 62
    30
 10
155.59928899999991
 20
-103.72010999999991
 30
0.0
 11
165.58427
 21
-110.375946
 31
0.0
  0
TEXT
  5
530
  8
SIZE
  6
CONTINUOUS
 62
    30
 10
-475.40085036450131
 20
346.94005377623859
 30
0.0
 40
64.0
  1
φ350
 50
326.31318999999968
 41
0.9
 72
     1
 11
-380.22970800000002
 21
283.50044100000002
 31
0.0
  0
LINE
  5
531
  8
SIZE
  6
CONTINUOUS
 62
    30
 10
145.61430799999991
 20
-97.064273999999997
 30
0.0
 11
-145.61430799999991
 21
97.064273999999997
 31
0.0
  0
CIRCLE
  5
532
  8
SIZE
  6
CONTINUOUS
 62
    30
 10
145.61430799999991
 20
-97.064273999999997
 30
0.0
 40
6.0
  0
LINE
  5
533
  8
SIZE
  6
CONTINUOUS
 62
    30
 10
145.61430799999991
 20
-97.064273999999997
 30
0.0
 11
155.59928899999991
 21
-103.72010999999991
 31
0.0
  0
CIRCLE
  5
534
  8
SIZE
  6
CONTINUOUS
 62
    30
 10
-145.61430799999991
 20
97.064273999999997
 30
0.0
 40
6.0
  0
LINE
  5
535
  8
SIZE
  6
CONTINUOUS
 62
    30
 10
-145.61430799999991
 20
97.064273999999997
 30
0.0
 11
-155.59928899999991
 21
103.72010999999991
 31
0.0
  0
POINT
  5
536
  8
DEFPOINTS
  6
CONTINUOUS
 62
    30
 10
-145.61430799999991
 20
97.064273999999997
 30
0.0
  0
POINT
  5
537
  8
DEFPOINTS
  6
CONTINUOUS
 62
    30
 10
145.61430799999991
 20
-97.064273999999997
 30
0.0
  0
ARC
  5
538
  8
DETAIL
  6
CONTINUOUS
 62
     5
 10
0.0
 20
0.0
 30
0.0
 40
175.0
 50
133.89527699999991
 51
147.80590499999971
  0
ARC
  5
539
  8
DETAIL
  6
CONTINUOUS
 62
     5
 10
-88.699266000000023
 20
10.218446999999991
 30
0.0
 40
90.631725000000003
 50
95.805506000000022
 51
123.631181
  0
ARC
  5
53A
  8
DETAIL
  6
CONTINUOUS
 62
     5
 10
0.0
 20
0.0
 30
0.0
 40
207.5
 50
227.8715269999999
 51
311.21756299999993
  0
ARC
  5
53B
  8
DETAIL
  6
CONTINUOUS
 62
     5
 10
0.0
 20
0.0
 30
0.0
 40
177.5
 50
227.80180200000001
 51
311.09221500000001
  0
ARC
  5
53C
  8
DETAIL
  6
CONTINUOUS
 62
     5
 10
0.0
 20
0.0
 30
0.0
 40
175.0
 50
227.79491199999981
 51
257.68302699999992
  0
ARC
  5
53D
  8
DETAIL
  6
CONTINUOUS
 62
     5
 10
0.0
 20
0.0
 30
0.0
 40
175.0
 50
313.91661599999992
 51
13.194037
  0
ARC
  5
53E
  8
DETAIL
  6
CONTINUOUS
 62
     5
 10
0.0
 20
0.0
 30
0.0
 40
177.5
 50
313.89666299999999
 51
46.126104999999967
  0
ARC
  5
53F
  8
DETAIL
  6
CONTINUOUS
 62
     5
 10
0.0
 20
0.0
 30
0.0
 40
207.5
 50
313.69474699999989
 51
46.342492
  0
ARC
  5
540
  8
DETAIL
  6
CONTINUOUS
 62
     5
 10
-51.664019000000003
 20
-8.4596549999999961
 30
0.0
 40
144.64209700000001
 50
331.93675400000001
 51
349.46207199999992
  0
ARC
  5
541
  8
DETAIL
  6
CONTINUOUS
 62
     5
 10
0.0
 20
0.0
 30
0.0
 40
207.5
 50
47.871527
 51
132.1284729999999
  0
ARC
  5
542
  8
DETAIL
  6
CONTINUOUS
 62
     5
 10
0.0
 20
0.0
 30
0.0
 40
177.5
 50
47.801802000000002
 51
132.19819799999991
  0
LINE
  5
543
  8
DETAIL
  6
CONTINUOUS
 62
     5
 39
50.0
 10
-205.0
 20
235.0
 30
0.0
 11
205.0
 21
235.0
 31
0.0
  0
LINE
  5
544
  8
DETAIL
  6
CONTINUOUS
 62
     5
 39
50.0
 10
235.0
 20
205.0
 30
0.0
 11
235.0
 21
-205.0
 31
0.0
  0
LINE
  5
545
  8
DETAIL
  6
CONTINUOUS
 62
     5
 39
50.0
 10
205.0
 20
-235.0
 30
0.0
 11
-205.0
 21
-235.0
 31
0.0
  0
LINE
  5
546
  8
DETAIL
  6
CONTINUOUS
 62
     5
 39
50.0
 10
-235.0
 20
-205.0
 30
0.0
 11
-235.0
 21
205.0
 31
0.0
  0
ARC
  5
547
  8
DETAIL
  6
CONTINUOUS
 62
     5
 39
50.0
 10
-205.0
 20
205.0
 30
0.0
 40
30.0
 50
90.0
 51
180.0
  0
ARC
  5
548
  8
DETAIL
  6
CONTINUOUS
 62
     5
 39
50.0
 10
205.0
 20
205.0
 30
0.0
 40
30.0
 50
0.0
 51
90.0
  0
ARC
  5
549
  8
DETAIL
  6
CONTINUOUS
 62
     5
 39
50.0
 10
205.0
 20
-205.0
 30
0.0
 40
30.0
 50
270.0
 51
0.0
  0
ARC
  5
54A
  8
DETAIL
  6
CONTINUOUS
 62
     5
 39
50.0
 10
-205.0
 20
-205.0
 30
0.0
 40
30.0
 50
180.0
 51
270.0
  0
LINE
  5
54B
  8
OUTLINE
  6
CONTINUOUS
 62
     3
 39
50.0
 10
-205.0
 20
235.0
 30
0.0
 11
205.0
 21
235.0
 31
0.0
  0
LINE
  5
54C
  8
OUTLINE
  6
CONTINUOUS
 62
     3
 39
50.0
 10
235.0
 20
205.0
 30
0.0
 11
235.0
 21
-205.0
 31
0.0
  0
LINE
  5
54D
  8
OUTLINE
  6
CONTINUOUS
 62
     3
 39
50.0
 10
205.0
 20
-235.0
 30
0.0
 11
-205.0
 21
-235.0
 31
0.0
  0
LINE
  5
54E
  8
OUTLINE
  6
CONTINUOUS
 62
     3
 39
50.0
 10
-235.0
 20
-205.0
 30
0.0
 11
-235.0
 21
205.0
 31
0.0
  0
ARC
  5
54F
  8
OUTLINE
  6
CONTINUOUS
 62
     3
 39
50.0
 10
-205.0
 20
205.0
 30
0.0
 40
30.0
 50
90.0
 51
180.0
  0
ARC
  5
550
  8
OUTLINE
  6
CONTINUOUS
 62
     3
 39
50.0
 10
205.0
 20
205.0
 30
0.0
 40
30.0
 50
0.0
 51
90.0
  0
ARC
  5
551
  8
OUTLINE
  6
CONTINUOUS
 62
     3
 39
50.0
 10
205.0
 20
-205.0
 30
0.0
 40
30.0
 50
270.0
 51
0.0
  0
ARC
  5
552
  8
OUTLINE
  6
CONTINUOUS
 62
     3
 39
50.0
 10
-205.0
 20
-205.0
 30
0.0
 40
30.0
 50
180.0
 51
270.0
  0
CIRCLE
  5
553
  8
FIX
  6
CONTINUOUS
 62
    11
 39
50.0
 10
217.0
 20
217.0
 30
0.0
 40
6.0
  0
CIRCLE
  5
554
  8
FIX
  6
CONTINUOUS
 62
    11
 39
50.0
 10
-217.0
 20
-217.0
 30
0.0
 40
6.0
  0
LINE
  5
555
  8
SIZE
  6
CONTINUOUS
 62
    30
 10
-235.0
 20
225.0
 30
0.0
 11
-234.99999999999969
 21
467.53972775412831
 31
0.0
  0
LINE
  5
556
  8
SIZE
  6
CONTINUOUS
 62
    30
 10
235.0
 20
225.0
 30
0.0
 11
235.0
 21
467.53972775412831
 31
0.0
  0
LINE
  5
557
  8
SIZE
  6
CONTINUOUS
 62
    30
 10
-234.99999999999969
 20
447.53972775412831
 30
0.0
 11
235.0
 21
447.53972775412831
 31
0.0
  0
LINE
  5
558
  8
SIZE
  6
CONTINUOUS
 62
    30
 10
225.0
 20
235.0
 30
0.0
 11
568.01072039756855
 21
234.99999999999969
 31
0.0
  0
LINE
  5
559
  8
SIZE
  6
CONTINUOUS
 62
    30
 10
225.0
 20
-235.0
 30
0.0
 11
568.01072039756855
 21
-235.0
 31
0.0
  0
LINE
  5
55A
  8
SIZE
  6
CONTINUOUS
 62
    30
 10
548.01072039756855
 20
234.99999999999969
 30
0.0
 11
548.01072039756855
 21
-235.0
 31
0.0
  0
CIRCLE
  5
55B
  8
SIZE
  6
CONTINUOUS
 62
    30
 39
50.0
 10
-234.99999999999969
 20
447.53972775412831
 30
0.0
 40
6.0
  0
CIRCLE
  5
55C
  8
SIZE
  6
CONTINUOUS
 62
    30
 39
50.0
 10
235.0
 20
447.53972775412819
 30
0.0
 40
6.0
  0
CIRCLE
  5
55D
  8
SIZE
  6
CONTINUOUS
 62
    30
 39
50.0
 10
548.01072039756855
 20
234.99999999999969
 30
0.0
 40
6.0
  0
CIRCLE
  5
55E
  8
SIZE
  6
CONTINUOUS
 62
    30
 39
50.0
 10
548.01072039756855
 20
-235.0
 30
0.0
 40
6.0
  0
TEXT
  5
55F
  8
SIZE
  6
CONTINUOUS
 62
    30
 10
-74.057142857142807
 20
472.53972775412831
 30
0.0
 40
64.0
  1
470
 41
0.9
  0
ARC
  5
560
  8
DETAIL
  6
CONTINUOUS
 62
     5
 10
-58.62761756971949
 20
-70.09037169639052
 30
0.0
 40
1.97406156980433
 50
359.25027180613102
 51
359.99946875032202
  0
ARC
  5
561
  8
DETAIL
  6
CONTINUOUS
 62
     5
 10
-58.627764516142818
 20
-70.090391543897113
 30
0.0
 40
1.9742085161434111
 50
0.000044807216598
 51
34.199535150257688
  0
ARC
  5
562
  8
DETAIL
  6
CONTINUOUS
 62
     5
 10
-60.146438086247997
 20
-71.12246764639309
 30
0.0
 40
3.81038674656434
 50
34.199592629880527
 51
58.637394710715618
  0
ARC
  5
563
  8
DETAIL
  6
CONTINUOUS
 62
     5
 10
-61.149591437142007
 20
-72.768300806755704
 30
0.0
 40
5.737841917804329
 50
58.637340909443438
 51
75.830873768516526
  0
ARC
  5
564
  8
DETAIL
  6
CONTINUOUS
 62
     5
 10
-61.8081968281382
 20
-75.377012429873091
 30
0.0
 40
8.4284064298767287
 50
75.830904273372056
 51
89.999946784806355
  0
TEXT
  5
565
  8
SIZE
  6
CONTINUOUS
 62
    30
 10
523.01072039756855
 20
-74.057142857142836
 30
0.0
 40
64.0
  1
470
 50
90.0
 41
0.9
  0
ARC
  5
566
  8
DETAIL
  6
CONTINUOUS
 62
     5
 10
61.798721828138198
 20
-75.377012429873133
 30
0.0
 40
8.4284064298767554
 50
90.000053215193631
 51
104.1690957266279
  0
ARC
  5
567
  8
DETAIL
  6
CONTINUOUS
 62
     5
 10
61.140115937142021
 20
-72.768304114114045
 30
0.0
 40
5.7378450021518761
 50
104.1691133063299
 51
121.36264616540279
  0
ARC
  5
568
  8
DETAIL
  6
CONTINUOUS
 62
     5
 10
60.136962086247991
 20
-71.12246764639309
 30
0.0
 40
3.8103867465643351
 50
121.3626052892843
 51
145.8004073701193
  0
ARC
  5
569
  8
DETAIL
  6
CONTINUOUS
 62
     5
 10
58.618289734339449
 20
-70.090392680472064
 30
0.0
 40
1.974210162538037
 50
145.80045743968691
 51
179.84282523243741
  0
ARC
  5
56A
  8
DETAIL
  6
CONTINUOUS
 62
     5
 10
61.797536900813853
 20
-75.349316052836798
 30
0.0
 40
8.4007101353037736
 50
89.959656952648984
 51
89.991971772080191
  0
TEXT
  5
56B
  8
ETC
  6
CONTINUOUS
 62
    61
 10
822.81374517446795
 20
404.9134949383764
 30
0.0
 40
50.0
  1
EG-35BTB
 41
0.9
  0
TEXT
  5
56C
  8
ETC
  6
CONTINUOUS
 62
    61
 10
708.1034101765656
 20
585.19364730212101
 30
0.0
 40
64.0
  1
EG-35BTB_2
 41
0.9
  0
TEXT
  5
56D
  8
ETC
  6
CONTINUOUS
 62
    61
 10
704.82013217656527
 20
486.69338330212111
 30
0.0
 40
64.0
  1
産業扇
 41
0.9
  0
ENDSEC
  0
EOF
