  0
SECTION
  2
HEADER
  9
$ACADVER
  1
AC1009
  9
$DWGCODEPAGE
  3
dos932
  9
$INSBASE
 10
0.0
 20
0.0
 30
0.0
  9
$EXTMIN
 10
-593.67368945814087
 20
-376.83104290258052
 30
-0.0000000349181948
  9
$EXTMAX
 10
1109.8526117622989
 20
560.11963689247932
 30
0.0000000814935746
  9
$LIMMIN
 10
-2970.0
 20
-2100.0
  9
$LIMMAX
 10
2970.0
 20
2100.0
  9
$ORTHOMODE
 70
     1
  9
$REGENMODE
 70
     1
  9
$FILLMODE
 70
     1
  9
$QTEXTMODE
 70
     0
  9
$MIRRTEXT
 70
     0
  9
$LTSCALE
 40
20.0
  9
$ATTMODE
 70
     1
  9
$TEXTSIZE
 40
64.0
  9
$TRACEWID
 40
0.05
  9
$TEXTSTYLE
  7
STANDARD
  9
$CLAYER
  8
SIZE
  9
$CELTYPE
  6
CONTINUOUS
  9
$CECOLOR
 62
     7
  9
$DIMSCALE
 40
1.0
  9
$DIMASZ
 40
12.0
  9
$DIMEXO
 40
20.0
  9
$DIMDLI
 40
200.0
  9
$DIMRND
 40
0.0
  9
$DIMDLE
 40
0.0
  9
$DIMEXE
 40
20.0
  9
$DIMTP
 40
0.0
  9
$DIMTM
 40
0.0
  9
$DIMTXT
 40
64.0
  9
$DIMCEN
 40
0.09
  9
$DIMTSZ
 40
0.0
  9
$DIMTOL
 70
     0
  9
$DIMLIM
 70
     0
  9
$DIMTIH
 70
     0
  9
$DIMTOH
 70
     0
  9
$DIMSE1
 70
     0
  9
$DIMSE2
 70
     0
  9
$DIMTAD
 70
     1
  9
$DIMZIN
 70
     8
  9
$DIMBLK
  1

  9
$DIMASO
 70
     1
  9
$DIMSHO
 70
     0
  9
$DIMPOST
  1

  9
$DIMAPOST
  1

  9
$DIMALT
 70
     0
  9
$DIMALTD
 70
     2
  9
$DIMALTF
 40
25.399999999999999
  9
$DIMLFAC
 40
1.0
  9
$DIMTOFL
 70
     1
  9
$DIMTVP
 40
0.0
  9
$DIMTIX
 70
     1
  9
$DIMSOXD
 70
     0
  9
$DIMSAH
 70
     0
  9
$DIMBLK1
  1

  9
$DIMBLK2
  1

  9
$DIMSTYLE
  2
STANDARD
  9
$DIMCLRD
 70
     7
  9
$DIMCLRE
 70
     7
  9
$DIMCLRT
 70
     7
  9
$DIMTFAC
 40
1.0
  9
$DIMGAP
 40
25.0
  9
$LUNITS
 70
     2
  9
$LUPREC
 70
     4
  9
$SKETCHINC
 40
0.1
  9
$FILLETRAD
 40
3.0
  9
$AUNITS
 70
     1
  9
$AUPREC
 70
     3
  9
$MENU
  1
ACAD
  9
$ELEVATION
 40
0.0
  9
$PELEVATION
 40
0.0
  9
$THICKNESS
 40
0.0
  9
$LIMCHECK
 70
     0
  9
$CHAMFERA
 40
0.0
  9
$CHAMFERB
 40
0.0
  9
$SKPOLY
 70
     0
  9
$TDCREATE
 40
2453019.62301037
  9
$TDUPDATE
 40
2459362.658034757
  9
$TDINDWG
 40
1.718638669
  9
$TDUSRTIMER
 40
1.718638669
  9
$USRTIMER
 70
     1
  9
$ANGBASE
 50
0.0
  9
$ANGDIR
 70
     0
  9
$PDMODE
 70
     3
  9
$PDSIZE
 40
-2.0
  9
$PLINEWID
 40
0.0
  9
$SPLFRAME
 70
     0
  9
$SPLINETYPE
 70
     6
  9
$SPLINESEGS
 70
     8
  9
$SURFTAB1
 70
     6
  9
$SURFTAB2
 70
     6
  9
$SURFTYPE
 70
     6
  9
$SURFU
 70
     6
  9
$SURFV
 70
     6
  9
$UCSNAME
  2

  9
$UCSORG
 10
0.0
 20
0.0
 30
0.0
  9
$UCSXDIR
 10
1.0
 20
0.0
 30
0.0
  9
$UCSYDIR
 10
0.0
 20
1.0
 30
0.0
  9
$PUCSNAME
  2

  9
$PUCSORG
 10
0.0
 20
0.0
 30
0.0
  9
$PUCSXDIR
 10
1.0
 20
0.0
 30
0.0
  9
$PUCSYDIR
 10
0.0
 20
1.0
 30
0.0
  9
$USERI1
 70
     0
  9
$USERI2
 70
     0
  9
$USERI3
 70
     0
  9
$USERI4
 70
     0
  9
$USERI5
 70
     0
  9
$USERR1
 40
20.0
  9
$USERR2
 40
0.0
  9
$USERR3
 40
0.0
  9
$USERR4
 40
0.0
  9
$USERR5
 40
0.0
  9
$WORLDVIEW
 70
     1
  9
$SHADEDGE
 70
     3
  9
$SHADEDIF
 70
    70
  9
$TILEMODE
 70
     1
  9
$MAXACTVP
 70
    48
  9
$PINSBASE
 10
0.0
 20
0.0
 30
0.0
  9
$PLIMCHECK
 70
     0
  9
$PEXTMIN
 10
-100000000000000000000.0
 20
-100000000000000000000.0
 30
-100000000000000000000.0
  9
$PEXTMAX
 10
100000000000000000000.0
 20
100000000000000000000.0
 30
100000000000000000000.0
  9
$PLIMMIN
 10
0.0
 20
0.0
  9
$PLIMMAX
 10
12.0
 20
9.0
  9
$UNITMODE
 70
     0
  9
$VISRETAIN
 70
     0
  9
$PLINEGEN
 70
     0
  9
$PSLTSCALE
 70
     0
  9
$TREEDEPTH
 70
  3020
  9
$ATTDIA
 70
     0
  9
$ATTREQ
 70
     1
  9
$BLIPMODE
 70
     1
  9
$COORDS
 70
     1
  9
$DRAGMODE
 70
     2
  9
$OSMODE
 70
     0
  9
$HANDLING
 70
     0
  9
$HANDSEED
  5
FB66
  0
ENDSEC
  0
SECTION
  2
TABLES
  0
TABLE
  2
LTYPE
 70
     2
  0
LTYPE
  2
CONTINUOUS
 70
     0
  3
実線
 72
    65
 73
     0
 40
0.0
  0
LTYPE
  2
DASHDOT
 70
     0
  3
____ _ ____ _ ____ _ ____ _ ____ _ ____ _ ____
 72
    65
 73
     4
 40
5.5
 49
4.0
 49
-0.6
 49
0.3
 49
-0.6
  0
ENDTAB
  0
TABLE
  2
LAYER
 70
    12
  0
LAYER
  2
0
 70
     0
 62
     7
  6
CONTINUOUS
  0
LAYER
  2
BASIS
 70
     0
 62
     6
  6
DASHDOT
  0
LAYER
  2
OUTLINE
 70
     0
 62
     3
  6
CONTINUOUS
  0
LAYER
  2
DETAIL
 70
     0
 62
     5
  6
CONTINUOUS
  0
LAYER
  2
SIZE
 70
     0
 62
    30
  6
CONTINUOUS
  0
LAYER
  2
ARRANGE
 70
     0
 62
     1
  6
CONTINUOUS
  0
LAYER
  2
DEFPOINTS
 70
     0
 62
     7
  6
CONTINUOUS
  0
LAYER
  2
ETC
 70
     0
 62
    61
  6
CONTINUOUS
  0
LAYER
  2
FIX
 70
     0
 62
    11
  6
CONTINUOUS
  0
LAYER
  2
NOTE
 70
     0
 62
     4
  6
CONTINUOUS
  0
LAYER
  2
SERVICESPACE
 70
    64
 62
     2
  6
DASHDOT
  0
LAYER
  2
SYMBOLLINE
 70
    64
 62
    15
  6
CONTINUOUS
  0
ENDTAB
  0
TABLE
  2
STYLE
 70
     1
  0
STYLE
  2
STANDARD
 70
     0
 40
64.0
 41
0.9
 50
0.0
 71
     0
 42
64.0
  3
SIMPLEX.shx
  4
BIGFONT.shx
  0
ENDTAB
  0
TABLE
  2
APPID
 70
    20
  0
APPID
  2
ACAD
 70
     0
  0
APPID
  2
AUTOCAD_POSTSCRIPT_FIGURE
 70
     0
  0
APPID
  2
ACAD_EXEMPT_FROM_CAD_STANDARDS
 70
     0
  0
APPID
  2
ACAD_PSEXT
 70
     0
  0
APPID
  2
ACAUTHENVIRON
 70
     0
  0
APPID
  2
GENIUS_GENOENT_13
 70
     0
  0
APPID
  2
GENIUS_GENCFG_13
 70
     0
  0
APPID
  2
GENIUS_GENCFG0_13
 70
     0
  0
APPID
  2
GENIUS_GENCFG1_13
 70
     0
  0
APPID
  2
GENIUS_GENCFG2_13
 70
     0
  0
APPID
  2
GENIUS_GENCFG3_13
 70
     0
  0
APPID
  2
GENIUS_GENCFG4_13
 70
     0
  0
APPID
  2
GENIUS_GEVCFG0_13
 70
     0
  0
APPID
  2
CONTENTBLOCKICON
 70
     0
  0
APPID
  2
CONTENTBLOCKDESCRIPTION
 70
     0
  0
APPID
  2
ACAD_NAV_VCDISPLAY
 70
     0
  0
APPID
  2
ACAD_MLEADERVER
 70
     0
  0
APPID
  2
ACDBDYNAMICBLOCKTRUENAME
 70
     0
  0
APPID
  2
ACDBDYNAMICBLOCKGUID
 70
     0
  0
APPID
  2
ACAD_DSTYLE_DIMRADIAL_EXTENSION
 70
     0
  0
ENDTAB
  0
TABLE
  2
DIMSTYLE
 70
     1
  0
DIMSTYLE
  2
STANDARD
 70
     0
  3

  4

  5
_ORIGIN
  6

  7

 40
1.0
 41
12.0
 42
20.0
 43
200.0
 44
20.0
 45
0.0
 46
0.0
 47
0.0
 48
0.0
140
64.0
141
0.09
142
0.0
143
25.399999999999999
144
1.0
145
0.0
146
1.0
147
25.0
 71
     0
 72
     0
 73
     0
 74
     0
 75
     0
 76
     0
 77
     1
 78
     8
170
     0
171
     2
172
     1
173
     0
174
     1
175
     0
176
     7
177
     7
178
     7
  0
ENDTAB
  0
TABLE
  2
VIEW
 70
     1
  0
VIEW
  2
ALL
 70
     0
 40
4282.6198079999986
 10
0.0
 20
41.309904000000003
 41
5940.0
 11
0.0
 21
0.0
 31
1.0
 12
0.0
 22
0.0
 32
0.0
 42
50.0
 43
0.0
 44
0.0
 50
0.0
 71
     0
  0
ENDTAB
  0
TABLE
  2
UCS
 70
     0
  0
ENDTAB
  0
TABLE
  2
VPORT
 70
     1
  0
VPORT
  2
*ACTIVE
 70
     0
 10
0.0
 20
0.0
 11
1.0
 21
1.0
 12
258.08946115207902
 22
91.644296994949343
 13
0.0
 23
0.0
 14
1.0
 24
1.0
 15
0.0
 25
0.0
 16
0.0
 26
0.0
 36
1.0
 17
0.0
 27
0.0
 37
0.0
 40
867.01152051194276
 41
1.8851435705368289
 42
50.0
 43
0.0
 44
0.0
 50
0.0
 51
0.0
 71
     0
 72
  1000
 73
     1
 74
     3
 75
     0
 76
     0
 77
     0
 78
     0
  0
ENDTAB
  0
ENDSEC
  0
SECTION
  2
BLOCKS
  0
BLOCK
  8
0
  2
_ORIGIN
 70
     0
 10
0.0
 20
0.0
 30
0.0
  3
_ORIGIN
  1
_ORIGIN
  0
CIRCLE
  8
SIZE
  6
CONTINUOUS
 62
    30
 10
0.0
 20
0.0
 30
0.0
 40
0.5
  0
LINE
  8
SIZE
  6
CONTINUOUS
 62
    30
 10
0.0
 20
0.0
 30
0.0
 11
-1.0
 21
0.0
 31
0.0
  0
ENDBLK
  8
0
  0
ENDSEC
  0
SECTION
  2
ENTITIES
  0
LINE
  8
DETAIL
  6
CONTINUOUS
 62
     5
 10
-101.0
 20
-260.00000000000011
 30
0.0
 11
-96.0
 21
-260.00000000000011
 31
0.0
  0
LINE
  8
DETAIL
  6
CONTINUOUS
 62
     5
 10
-0.0000000000009095
 20
-255.00520381999999
 30
0.0
 11
-1.5000000000009091
 21
-255.00520381999999
 31
0.0
  0
LINE
  8
DETAIL
  6
CONTINUOUS
 62
     5
 10
-96.0
 20
-255.00000000000011
 30
0.0
 11
-3.0000000000009091
 21
-255.00000000000011
 31
0.0
  0
LINE
  8
DETAIL
  6
CONTINUOUS
 62
     5
 10
-106.0000000000036
 20
-212.7532244233999
 30
0.0
 11
-109.0000000000036
 21
-212.7532244233999
 31
0.0
  0
LINE
  8
DETAIL
  6
CONTINUOUS
 62
     5
 10
-112.80000000000651
 20
-202.9762889454
 30
0.0
 11
-109.20000000000439
 21
-202.9762889454
 31
0.0
  0
LINE
  8
DETAIL
  6
CONTINUOUS
 62
     5
 10
-111.5000000000036
 20
-198.79690351240001
 30
0.0
 11
-106.0000000000036
 21
-198.79690351240001
 31
0.0
  0
LINE
  8
DETAIL
  6
CONTINUOUS
 62
     5
 10
-113.0000000000073
 20
-197.9762889454
 30
0.0
 11
-111.5000000000036
 21
-197.9762889454
 31
0.0
  0
LINE
  8
DETAIL
  6
CONTINUOUS
 62
     5
 10
-106.0000000000036
 20
-192.29690351240001
 30
0.0
 11
-111.5000000000036
 21
-192.29690351240001
 31
0.0
  0
LINE
  8
DETAIL
  6
CONTINUOUS
 62
     5
 10
-106.0000000000036
 20
-185.79690351239989
 30
0.0
 11
-111.5000000000036
 21
-185.79690351239989
 31
0.0
  0
LINE
  8
DETAIL
  6
CONTINUOUS
 62
     5
 10
-112.80000000000651
 20
-179.1106479044
 30
0.0
 11
-109.20000000000439
 21
-179.1106479044
 31
0.0
  0
LINE
  8
DETAIL
  6
CONTINUOUS
 62
     5
 10
-113.0000000000073
 20
-175.4624817303999
 30
0.0
 11
-219.89946229900491
 21
-175.4624817303999
 31
0.0
  0
LINE
  8
DETAIL
  6
CONTINUOUS
 62
     5
 10
-113.0000000000073
 20
-174.1106479044
 30
0.0
 11
-109.0000000000036
 21
-174.1106479044
 31
0.0
  0
LINE
  8
DETAIL
  6
CONTINUOUS
 62
     5
 10
-3.0000000000009091
 20
-197.25735931300011
 30
0.0
 11
-0.0000000000009095
 21
-197.25735931300011
 31
0.0
  0
LINE
  8
DETAIL
  6
CONTINUOUS
 62
     5
 10
-112.80000000000651
 20
-169.1106479044
 30
0.0
 11
-109.20000000000439
 21
-169.1106479044
 31
0.0
  0
LINE
  8
DETAIL
  6
CONTINUOUS
 62
     5
 10
-106.0000000000036
 20
-159.3337124263999
 30
0.0
 11
-109.0000000000036
 21
-159.3337124263999
 31
0.0
  0
LINE
  8
DETAIL
  6
CONTINUOUS
 62
     5
 10
-320.99995660799868
 20
49.0
 30
0.0
 11
-320.99995660799868
 21
-49.000000000000057
 31
0.0
  0
LINE
  8
DETAIL
  6
CONTINUOUS
 62
     5
 10
-106.0
 20
-83.125398162900012
 30
0.0
 11
-106.8000000000029
 21
-83.125398162900012
 31
0.0
  0
LINE
  8
DETAIL
  6
CONTINUOUS
 62
     5
 10
-106.8000000000029
 20
-82.399999999900103
 30
0.0
 11
-108.0999999999985
 21
-82.399999999900103
 31
0.0
  0
LINE
  8
DETAIL
  6
CONTINUOUS
 62
     5
 10
-292.49995660799868
 20
-57.700000000000053
 30
0.0
 11
-292.49995660799868
 21
-56.500000000000057
 31
0.0
  0
LINE
  8
DETAIL
  6
CONTINUOUS
 62
     5
 10
-290.49995660800232
 20
-68.700000000000045
 30
0.0
 11
-290.49995660800232
 21
-59.700000000000053
 31
0.0
  0
LINE
  8
DETAIL
  6
CONTINUOUS
 62
     5
 10
-287.69574564899989
 20
-68.700000000000045
 30
0.0
 11
-287.69574564899989
 21
-71.70632159400003
 31
0.0
  0
LINE
  8
DETAIL
  6
CONTINUOUS
 62
     5
 10
-284.89995660800378
 20
-50.942087733000051
 30
0.0
 11
-284.89995660800741
 21
-146.83118765439991
 31
0.0
  0
LINE
  8
DETAIL
  6
CONTINUOUS
 62
     5
 10
-284.89995660800378
 20
50.942087733999983
 30
0.0
 11
-284.89995660800832
 21
146.74868817239431
 31
0.0
  0
LINE
  8
DETAIL
  6
CONTINUOUS
 62
     5
 10
-275.28670795400279
 20
74.867859318999933
 30
0.0
 11
-278.17345930000192
 21
71.037637104000055
 31
0.0
  0
LINE
  8
DETAIL
  6
CONTINUOUS
 62
     5
 10
-275.28670795400279
 20
63.292143648999968
 30
0.0
 11
-278.17345930000192
 21
59.461921432999929
 31
0.0
  0
LINE
  8
DETAIL
  6
CONTINUOUS
 62
     5
 10
-151.80000000000021
 20
-73.499999999900126
 30
0.0
 11
-108.5543387610014
 21
-73.499999999900126
 31
0.0
  0
LINE
  8
DETAIL
  6
CONTINUOUS
 62
     5
 10
-107.6000000000022
 20
-72.999999999900126
 30
0.0
 11
-108.0999999999985
 21
-72.999999999900126
 31
0.0
  0
LINE
  8
DETAIL
  6
CONTINUOUS
 62
     5
 10
-106.8000000000029
 20
-72.199999999900058
 30
0.0
 11
-151.30000000000379
 21
-72.199999999900058
 31
0.0
  0
LINE
  8
DETAIL
  6
CONTINUOUS
 62
     5
 10
-108.7999999999993
 20
-65.199999999900115
 30
0.0
 11
-149.30000000000021
 21
-65.199999999900115
 31
0.0
  0
LINE
  8
DETAIL
  6
CONTINUOUS
 62
     5
 10
-278.17345930000192
 20
-70.955137620000073
 30
0.0
 11
-275.28670795400279
 21
-74.785359835999998
 31
0.0
  0
LINE
  8
DETAIL
  6
CONTINUOUS
 62
     5
 10
-278.17345930000192
 20
-59.464470974000051
 30
0.0
 11
-275.28670795400279
 21
-63.294693189000043
 31
0.0
  0
LINE
  8
DETAIL
  6
CONTINUOUS
 62
     5
 10
-278.17345930000192
 20
71.037637104000055
 30
0.0
 11
-278.17345930000192
 21
68.110756422999998
 31
0.0
  0
LINE
  8
DETAIL
  6
CONTINUOUS
 62
     5
 10
-278.17345930000192
 20
59.461921432999929
 30
0.0
 11
-278.17345930000192
 21
56.535040752999983
 31
0.0
  0
LINE
  8
DETAIL
  6
CONTINUOUS
 62
     5
 10
-278.17345930000192
 20
-70.955137620000073
 30
0.0
 11
-278.17345930000192
 21
-68.028256940000006
 31
0.0
  0
LINE
  8
DETAIL
  6
CONTINUOUS
 62
     5
 10
-278.17345930000192
 20
-59.464470974000051
 30
0.0
 11
-278.17345930000192
 21
-56.537590293000051
 31
0.0
  0
LINE
  8
DETAIL
  6
CONTINUOUS
 62
     5
 10
-266.62645391600199
 20
71.037637104000055
 30
0.0
 11
-266.62645391600199
 21
68.110756422999998
 31
0.0
  0
LINE
  8
DETAIL
  6
CONTINUOUS
 62
     5
 10
-266.62645391700238
 20
59.461921432999929
 30
0.0
 11
-266.62645391700238
 21
56.535040752999983
 31
0.0
  0
LINE
  8
DETAIL
  6
CONTINUOUS
 62
     5
 10
-266.62645391600199
 20
-70.955137620000073
 30
0.0
 11
-266.62645391600199
 21
-68.028256940000006
 31
0.0
  0
LINE
  8
DETAIL
  6
CONTINUOUS
 62
     5
 10
-266.62645391600199
 20
-59.464470974000051
 30
0.0
 11
-266.62645391600199
 21
-56.537590293000051
 31
0.0
  0
LINE
  8
DETAIL
  6
CONTINUOUS
 62
     5
 10
-260.39995660800008
 20
-49.081681361000051
 30
0.0
 11
-260.39995660800008
 21
-39.481681361000028
 31
0.0
  0
LINE
  8
DETAIL
  6
CONTINUOUS
 62
     5
 10
-260.39995660800008
 20
39.481681361999961
 30
0.0
 11
-260.39995660800008
 21
49.081681361999983
 31
0.0
  0
LINE
  8
DETAIL
  6
CONTINUOUS
 62
     5
 10
-259.89995660800378
 20
-51.801477001999899
 30
0.0
 11
-259.89995660800741
 21
-144.82032534239991
 31
0.0
  0
LINE
  8
DETAIL
  6
CONTINUOUS
 62
     5
 10
-259.89995660800378
 20
51.801477001999963
 30
0.0
 11
-259.89995660800832
 21
144.8203253433943
 31
0.0
  0
LINE
  8
DETAIL
  6
CONTINUOUS
 62
     5
 10
-256.39995660800378
 20
-75.825280414000076
 30
0.0
 11
-256.39995660800378
 21
75.825280413999963
 31
0.0
  0
LINE
  8
DETAIL
  6
CONTINUOUS
 62
     5
 10
-253.39995660800011
 20
-75.825280414000076
 30
0.0
 11
-253.39995660800011
 21
75.825280413999963
 31
0.0
  0
LINE
  8
DETAIL
  6
CONTINUOUS
 62
     5
 10
-259.89995660800378
 20
-79.682006072000036
 30
0.0
 11
-259.39995660800008
 21
-79.682006072000036
 31
0.0
  0
LINE
  8
DETAIL
  6
CONTINUOUS
 62
     5
 10
-259.89995660800378
 20
-77.753643242999999
 30
0.0
 11
-259.39995660800008
 21
-77.753643242999999
 31
0.0
  0
LINE
  8
DETAIL
  6
CONTINUOUS
 62
     5
 10
-275.28670795400279
 20
-74.785359835999998
 30
0.0
 11
-269.51320526200112
 21
-74.785359835999998
 31
0.0
  0
LINE
  8
DETAIL
  6
CONTINUOUS
 62
     5
 10
-253.39995660800011
 20
-70.500000000000057
 30
0.0
 11
-249.39995660800011
 21
-70.500000000000057
 31
0.0
  0
LINE
  8
DETAIL
  6
CONTINUOUS
 62
     5
 10
-249.39995660800011
 20
-69.050000000000011
 30
0.0
 11
-246.19995660800299
 21
-69.050000000000011
 31
0.0
  0
LINE
  8
DETAIL
  6
CONTINUOUS
 62
     5
 10
-284.89995660800378
 20
-68.700000000000045
 30
0.0
 11
-290.49982251499932
 21
-68.700000000000045
 31
0.0
  0
LINE
  8
DETAIL
  6
CONTINUOUS
 62
     5
 10
-249.39995660800011
 20
-70.49987784800004
 30
0.0
 11
-249.39995660800011
 21
70.499877847999983
 31
0.0
  0
LINE
  8
DETAIL
  6
CONTINUOUS
 62
     5
 10
-246.19995660800299
 20
69.050000000000011
 30
0.0
 11
-246.19995660800299
 21
60.949999999999989
 31
0.0
  0
LINE
  8
DETAIL
  6
CONTINUOUS
 62
     5
 10
-246.19995660800299
 20
-60.950000000000053
 30
0.0
 11
-246.19995660800299
 21
-69.050000000000011
 31
0.0
  0
LINE
  8
DETAIL
  6
CONTINUOUS
 62
     5
 10
-244.39995660800011
 20
49.281681361999972
 30
0.0
 11
-244.39995660800011
 21
39.281681361999972
 31
0.0
  0
LINE
  8
DETAIL
  6
CONTINUOUS
 62
     5
 10
-244.39995660800011
 20
-39.281681361000103
 30
0.0
 11
-244.39995660800011
 21
-49.281681360999983
 31
0.0
  0
LINE
  8
DETAIL
  6
CONTINUOUS
 62
     5
 10
-243.39995660800011
 20
66.494698137
 30
0.0
 11
-243.39995660800011
 21
63.505301863999932
 31
0.0
  0
LINE
  8
DETAIL
  6
CONTINUOUS
 62
     5
 10
-243.39995660800011
 20
-63.505301863
 30
0.0
 11
-243.39995660800011
 21
-66.494698136000011
 31
0.0
  0
LINE
  8
DETAIL
  6
CONTINUOUS
 62
     5
 10
-242.39995660800381
 20
47.281681361999972
 30
0.0
 11
-242.39995660800381
 21
41.281681361999972
 31
0.0
  0
LINE
  8
DETAIL
  6
CONTINUOUS
 62
     5
 10
-242.39995660800381
 20
-41.281681361000039
 30
0.0
 11
-242.39995660800381
 21
-47.281681361000039
 31
0.0
  0
LINE
  8
DETAIL
  6
CONTINUOUS
 62
     5
 10
-110.9194434154788
 20
199.7199575293979
 30
0.0
 11
-111.499999999477
 21
198.71440402939791
 31
0.0
  0
LINE
  8
DETAIL
  6
CONTINUOUS
 62
     5
 10
-249.39995660800011
 20
-67.022437298000057
 30
0.0
 11
-246.19995660800299
 21
-67.022437298000057
 31
0.0
  0
LINE
  8
DETAIL
  6
CONTINUOUS
 62
     5
 10
-246.19995660800299
 20
-66.500000000000057
 30
0.0
 11
-243.39995660800011
 21
-66.500000000000057
 31
0.0
  0
LINE
  8
DETAIL
  6
CONTINUOUS
 62
     5
 10
-246.19995660800299
 20
-63.5
 30
0.0
 11
-243.39995660800011
 21
-63.5
 31
0.0
  0
LINE
  8
DETAIL
  6
CONTINUOUS
 62
     5
 10
-275.28670795400279
 20
-63.294693189000043
 30
0.0
 11
-269.51320526200112
 21
-63.294693189000043
 31
0.0
  0
LINE
  8
DETAIL
  6
CONTINUOUS
 62
     5
 10
-249.39995660800011
 20
-62.977562701000011
 30
0.0
 11
-246.19995660800299
 21
-62.977562701000011
 31
0.0
  0
LINE
  8
DETAIL
  6
CONTINUOUS
 62
     5
 10
-249.39995660800011
 20
-60.950000000000053
 30
0.0
 11
-246.19995660800299
 21
-60.950000000000053
 31
0.0
  0
LINE
  8
DETAIL
  6
CONTINUOUS
 62
     5
 10
-284.89995660800378
 20
-58.700000000000053
 30
0.0
 11
-291.49995660800232
 21
-58.700000000000053
 31
0.0
  0
LINE
  8
DETAIL
  6
CONTINUOUS
 62
     5
 10
-313.49995660799868
 20
-56.500000000000057
 30
0.0
 11
-284.89995660800378
 21
-56.500000000000057
 31
0.0
  0
LINE
  8
DETAIL
  6
CONTINUOUS
 62
     5
 10
-244.89995660800381
 20
-56.200000000000053
 30
0.0
 11
-200.39995660799829
 21
-56.200000000000053
 31
0.0
  0
LINE
  8
DETAIL
  6
CONTINUOUS
 62
     5
 10
-281.89995660800008
 20
-49.420844189000043
 30
0.0
 11
-262.89995660800008
 21
-49.420844189000043
 31
0.0
  0
LINE
  8
DETAIL
  6
CONTINUOUS
 62
     5
 10
-260.19995660799941
 20
-49.281681360999983
 30
0.0
 11
-256.59995660800092
 21
-49.281681360999983
 31
0.0
  0
LINE
  8
DETAIL
  6
CONTINUOUS
 62
     5
 10
-249.39995660800011
 20
-49.281681360999983
 30
0.0
 11
-244.39995660800011
 21
-49.281681360999983
 31
0.0
  0
LINE
  8
DETAIL
  6
CONTINUOUS
 62
     5
 10
-260.39995660800008
 20
-48.643954404000063
 30
0.0
 11
-281.89995660800008
 21
-48.643954404000063
 31
0.0
  0
LINE
  8
DETAIL
  6
CONTINUOUS
 62
     5
 10
-244.39995660800011
 20
-47.281681361000039
 30
0.0
 11
-242.39995660800381
 21
-47.281681361000039
 31
0.0
  0
LINE
  8
DETAIL
  6
CONTINUOUS
 62
     5
 10
-260.39995660800008
 20
-44.281681360999983
 30
0.0
 11
-256.39995660800378
 21
-44.281681360999983
 31
0.0
  0
LINE
  8
DETAIL
  6
CONTINUOUS
 62
     5
 10
-249.39995660800011
 20
-44.281681360999983
 30
0.0
 11
-244.39995660800381
 21
-44.281681360999983
 31
0.0
  0
LINE
  8
DETAIL
  6
CONTINUOUS
 62
     5
 10
-244.39995660800011
 20
-41.281681361000039
 30
0.0
 11
-242.39995660800381
 21
-41.281681361000039
 31
0.0
  0
LINE
  8
DETAIL
  6
CONTINUOUS
 62
     5
 10
-260.19995660799941
 20
-39.281681361000103
 30
0.0
 11
-256.59995660800092
 21
-39.281681361000103
 31
0.0
  0
LINE
  8
DETAIL
  6
CONTINUOUS
 62
     5
 10
-249.39995660800011
 20
-39.281681361000103
 30
0.0
 11
-244.39995660800011
 21
-39.281681361000103
 31
0.0
  0
LINE
  8
DETAIL
  6
CONTINUOUS
 62
     5
 10
-269.51320526200112
 20
-63.294693189000043
 30
0.0
 11
-266.62645391600199
 21
-59.464470974000051
 31
0.0
  0
LINE
  8
DETAIL
  6
CONTINUOUS
 62
     5
 10
-269.51320526200112
 20
-74.785359835999998
 30
0.0
 11
-266.62645391600199
 21
-70.955137620000073
 31
0.0
  0
LINE
  8
DETAIL
  6
CONTINUOUS
 62
     5
 10
-266.62645391700238
 20
59.461921432999929
 30
0.0
 11
-269.51320526200112
 21
63.292143648999968
 31
0.0
  0
LINE
  8
DETAIL
  6
CONTINUOUS
 62
     5
 10
-266.62645391600199
 20
71.037637104000055
 30
0.0
 11
-269.51320526200112
 21
74.867859318999933
 31
0.0
  0
LINE
  8
DETAIL
  6
CONTINUOUS
 62
     5
 10
-188.092179852003
 20
7.9820955779999849
 30
0.0
 11
-188.39995660799829
 21
11.5
 31
0.0
  0
LINE
  8
DETAIL
  6
CONTINUOUS
 62
     5
 10
-189.89995660800199
 20
45.699999999999989
 30
0.0
 11
-189.89995660800199
 21
-45.700000000000053
 31
0.0
  0
LINE
  8
DETAIL
  6
CONTINUOUS
 62
     5
 10
-189.39995660799829
 20
-11.5
 30
0.0
 11
-189.39995660799829
 21
11.5
 31
0.0
  0
LINE
  8
DETAIL
  6
CONTINUOUS
 62
     5
 10
-188.39995660799829
 20
-11.5
 30
0.0
 11
-188.39995660799829
 21
11.5
 31
0.0
  0
LINE
  8
DETAIL
  6
CONTINUOUS
 62
     5
 10
-185.89995660799829
 20
-6.4994829440000217
 30
0.0
 11
-185.89995660799829
 21
6.4994829449999543
 31
0.0
  0
LINE
  8
DETAIL
  6
CONTINUOUS
 62
     5
 10
-188.092179852003
 20
-7.9820955769999964
 30
0.0
 11
-188.39995660799829
 21
-11.5
 31
0.0
  0
LINE
  8
DETAIL
  6
CONTINUOUS
 62
     5
 10
-185.89995660799829
 20
-6.5
 30
0.0
 11
-186.80664745600009
 21
-6.6274270879999904
 31
0.0
  0
LINE
  8
DETAIL
  6
CONTINUOUS
 62
     5
 10
-188.39995660799829
 20
-11.5
 30
0.0
 11
-189.39995660799829
 21
-11.5
 31
0.0
  0
LINE
  8
DETAIL
  6
CONTINUOUS
 62
     5
 10
-189.89995660800199
 20
-5.0
 30
0.0
 11
-189.39995660799829
 21
-5.0
 31
0.0
  0
LINE
  8
DETAIL
  6
CONTINUOUS
 62
     5
 10
-185.89995660799829
 20
-5.0
 30
0.0
 11
-166.0
 21
-5.0
 31
0.0
  0
LINE
  8
DETAIL
  6
CONTINUOUS
 62
     5
 10
-96.0
 20
-0.5
 30
0.0
 11
-0.0000000000009095
 21
-0.5
 31
0.0
  0
LINE
  8
BASIS
  6
DASHDOT
 62
     6
 10
-336.8253001030007
 20
0.0
 30
0.0
 11
15.97904075300085
 21
0.0
 31
0.0
  0
LINE
  8
DETAIL
  6
CONTINUOUS
 62
     5
 10
-96.0
 20
0.5
 30
0.0
 11
-0.0000000000009095
 21
0.5
 31
0.0
  0
LINE
  8
DETAIL
  6
CONTINUOUS
 62
     5
 10
-152.59999999999951
 20
-70.899999999900103
 30
0.0
 11
-152.59999999999951
 21
51.900000000099908
 31
0.0
  0
LINE
  8
DETAIL
  6
CONTINUOUS
 62
     5
 10
-151.80000000000021
 20
54.500000000099867
 30
0.0
 11
-151.80000000000021
 21
53.09985443709985
 31
0.0
  0
LINE
  8
DETAIL
  6
CONTINUOUS
 62
     5
 10
-151.80000000000021
 20
-72.099854436900102
 30
0.0
 11
-151.80000000000021
 21
-73.499999999900126
 31
0.0
  0
LINE
  8
DETAIL
  6
CONTINUOUS
 62
     5
 10
-151.30000000000379
 20
-67.199999999900058
 30
0.0
 11
-151.30000000000379
 21
-72.199999999900058
 31
0.0
  0
LINE
  8
DETAIL
  6
CONTINUOUS
 62
     5
 10
-151.30000000000379
 20
48.200000000099919
 30
0.0
 11
-151.30000000000379
 21
53.200000000099919
 31
0.0
  0
LINE
  8
DETAIL
  6
CONTINUOUS
 62
     5
 10
-189.89995660800199
 20
5.0
 30
0.0
 11
-189.39995660799829
 21
5.0
 31
0.0
  0
LINE
  8
DETAIL
  6
CONTINUOUS
 62
     5
 10
-185.89995660799829
 20
5.0
 30
0.0
 11
-166.0
 21
5.0
 31
0.0
  0
LINE
  8
DETAIL
  6
CONTINUOUS
 62
     5
 10
-188.39995660799829
 20
11.5
 30
0.0
 11
-189.39995660799829
 21
11.5
 31
0.0
  0
LINE
  8
DETAIL
  6
CONTINUOUS
 62
     5
 10
-185.89995660799829
 20
6.5
 30
0.0
 11
-186.80664745600009
 21
6.6274270889999229
 31
0.0
  0
LINE
  8
DETAIL
  6
CONTINUOUS
 62
     5
 10
-108.7999999999993
 20
46.200000000099863
 30
0.0
 11
-149.30000000000021
 21
46.200000000099863
 31
0.0
  0
LINE
  8
DETAIL
  6
CONTINUOUS
 62
     5
 10
-106.0
 20
52.125398164099813
 30
0.0
 11
-106.8000000000029
 21
52.125398164099813
 31
0.0
  0
LINE
  8
DETAIL
  6
CONTINUOUS
 62
     5
 10
-106.8000000000029
 20
53.200000000099919
 30
0.0
 11
-151.30000000000379
 21
53.200000000099919
 31
0.0
  0
LINE
  8
DETAIL
  6
CONTINUOUS
 62
     5
 10
-107.6000000000022
 20
54.000000000099931
 30
0.0
 11
-108.0999999999985
 21
54.000000000099931
 31
0.0
  0
LINE
  8
DETAIL
  6
CONTINUOUS
 62
     5
 10
-151.80000000000021
 20
54.500000000099867
 30
0.0
 11
-108.5543387610014
 21
54.500000000099867
 31
0.0
  0
LINE
  8
DETAIL
  6
CONTINUOUS
 62
     5
 10
-260.19995660799941
 20
39.281681361999972
 30
0.0
 11
-256.59995660800092
 21
39.281681361999972
 31
0.0
  0
LINE
  8
DETAIL
  6
CONTINUOUS
 62
     5
 10
-249.39995660800011
 20
39.281681361999972
 30
0.0
 11
-244.39995660800011
 21
39.281681361999972
 31
0.0
  0
LINE
  8
DETAIL
  6
CONTINUOUS
 62
     5
 10
-113.0000000000073
 20
-202.7762889453999
 30
0.0
 11
-113.0000000000073
 21
-196.54195563739989
 31
0.0
  0
LINE
  8
DETAIL
  6
CONTINUOUS
 62
     5
 10
-113.0000000000073
 20
-178.91064790439989
 30
0.0
 11
-113.0000000000073
 21
-169.3106479043999
 31
0.0
  0
LINE
  8
DETAIL
  6
CONTINUOUS
 62
     5
 10
-112.99999999948071
 20
196.54195563739779
 30
0.0
 11
-112.99999999948071
 21
202.69378946339791
 31
0.0
  0
LINE
  8
DETAIL
  6
CONTINUOUS
 62
     5
 10
-111.5000000000036
 20
-198.79690351240001
 30
0.0
 11
-111.5000000000036
 21
-185.79690351239989
 31
0.0
  0
LINE
  8
DETAIL
  6
CONTINUOUS
 62
     5
 10
-111.499999999477
 20
185.71473591239791
 30
0.0
 11
-111.499999999477
 21
198.71407214739779
 31
0.0
  0
LINE
  8
DETAIL
  6
CONTINUOUS
 62
     5
 10
-109.0000000000036
 20
-212.7532244233999
 30
0.0
 11
-109.0000000000036
 21
-198.79690351240001
 31
0.0
  0
LINE
  8
DETAIL
  6
CONTINUOUS
 62
     5
 10
-109.0000000000036
 20
-185.79690351239989
 30
0.0
 11
-109.0000000000036
 21
-159.3337124263999
 31
0.0
  0
LINE
  8
DETAIL
  6
CONTINUOUS
 62
     5
 10
-108.999999999477
 20
199.7199575293979
 30
0.0
 11
-108.999999999477
 21
212.67072494139791
 31
0.0
  0
LINE
  8
DETAIL
  6
CONTINUOUS
 62
     5
 10
-108.0999999999985
 20
63.400000000099908
 30
0.0
 11
-108.0999999999985
 21
54.000000000099931
 31
0.0
  0
LINE
  8
DETAIL
  6
CONTINUOUS
 62
     5
 10
-108.0999999999985
 20
-72.999999999900126
 30
0.0
 11
-108.0999999999985
 21
-82.399999999900103
 31
0.0
  0
LINE
  8
DETAIL
  6
CONTINUOUS
 62
     5
 10
-107.6000000000022
 20
-82.399999999900103
 30
0.0
 11
-107.6000000000022
 21
-72.699999999900115
 31
0.0
  0
LINE
  8
DETAIL
  6
CONTINUOUS
 62
     5
 10
-107.6000000000022
 20
53.700000000099863
 30
0.0
 11
-107.6000000000022
 21
63.400000000099908
 31
0.0
  0
LINE
  8
DETAIL
  6
CONTINUOUS
 62
     5
 10
-106.8000000000029
 20
-83.125398162900012
 30
0.0
 11
-106.8000000000029
 21
64.125398164099806
 31
0.0
  0
LINE
  8
DETAIL
  6
CONTINUOUS
 62
     5
 10
-106.0
 20
-255.00000000000011
 30
0.0
 11
-106.0
 21
255.0
 31
0.0
  0
LINE
  8
DETAIL
  6
CONTINUOUS
 62
     5
 10
-244.39995660800011
 20
41.281681361999972
 30
0.0
 11
-242.39995660800381
 21
41.281681361999972
 31
0.0
  0
LINE
  8
DETAIL
  6
CONTINUOUS
 62
     5
 10
-260.39995660800008
 20
44.281681361999972
 30
0.0
 11
-256.39995660800378
 21
44.281681361999972
 31
0.0
  0
LINE
  8
DETAIL
  6
CONTINUOUS
 62
     5
 10
-249.39995660800011
 20
44.281681361999972
 30
0.0
 11
-244.39995660800011
 21
44.281681361999972
 31
0.0
  0
LINE
  8
DETAIL
  6
CONTINUOUS
 62
     5
 10
-108.0999999999985
 20
63.400000000099908
 30
0.0
 11
-106.8000000000029
 21
63.400000000099908
 31
0.0
  0
LINE
  8
DETAIL
  6
CONTINUOUS
 62
     5
 10
-106.8000000000029
 20
64.125398164099806
 30
0.0
 11
-106.0
 21
64.125398164099806
 31
0.0
  0
LINE
  8
DETAIL
  6
CONTINUOUS
 62
     5
 10
-244.39995660800011
 20
47.281681361999972
 30
0.0
 11
-242.39995660800381
 21
47.281681361999972
 31
0.0
  0
LINE
  8
DETAIL
  6
CONTINUOUS
 62
     5
 10
-260.39995660800008
 20
48.643954405000038
 30
0.0
 11
-281.89995660800008
 21
48.643954405000038
 31
0.0
  0
LINE
  8
DETAIL
  6
CONTINUOUS
 62
     5
 10
-260.19995660799941
 20
49.281681361999972
 30
0.0
 11
-256.59995660800092
 21
49.281681361999972
 31
0.0
  0
LINE
  8
DETAIL
  6
CONTINUOUS
 62
     5
 10
-249.39995660800011
 20
49.281681361999972
 30
0.0
 11
-244.39995660800011
 21
49.281681361999972
 31
0.0
  0
LINE
  8
DETAIL
  6
CONTINUOUS
 62
     5
 10
-281.89995660800008
 20
49.503343672999961
 30
0.0
 11
-262.89995660800008
 21
49.503343672999961
 31
0.0
  0
LINE
  8
DETAIL
  6
CONTINUOUS
 62
     5
 10
-313.49995660799868
 20
56.5
 30
0.0
 11
-284.89995660800378
 21
56.5
 31
0.0
  0
LINE
  8
DETAIL
  6
CONTINUOUS
 62
     5
 10
-244.89995660800381
 20
56.199999999999989
 30
0.0
 11
-200.39995660799829
 21
56.199999999999989
 31
0.0
  0
LINE
  8
DETAIL
  6
CONTINUOUS
 62
     5
 10
-96.0
 20
-260.00000000000011
 30
0.0
 11
-96.0
 21
260.0
 31
0.0
  0
LINE
  8
DETAIL
  6
CONTINUOUS
 62
     5
 10
-249.39995660800011
 20
60.949999999999989
 30
0.0
 11
-246.19995660800299
 21
60.949999999999989
 31
0.0
  0
LINE
  8
DETAIL
  6
CONTINUOUS
 62
     5
 10
-249.39995660800011
 20
62.977562702
 30
0.0
 11
-246.19995660800299
 21
62.977562702
 31
0.0
  0
LINE
  8
DETAIL
  6
CONTINUOUS
 62
     5
 10
-269.51320526200112
 20
63.292143648999968
 30
0.0
 11
-275.28670795400279
 21
63.292143648999968
 31
0.0
  0
LINE
  8
DETAIL
  6
CONTINUOUS
 62
     5
 10
-246.19995660800299
 20
63.5
 30
0.0
 11
-243.39995660800011
 21
63.5
 31
0.0
  0
LINE
  8
DETAIL
  6
CONTINUOUS
 62
     5
 10
-246.19995660800299
 20
66.5
 30
0.0
 11
-243.39995660800011
 21
66.5
 31
0.0
  0
LINE
  8
DETAIL
  6
CONTINUOUS
 62
     5
 10
-249.39995660800011
 20
67.022437298999989
 30
0.0
 11
-246.19995660800299
 21
67.022437298999989
 31
0.0
  0
LINE
  8
DETAIL
  6
CONTINUOUS
 62
     5
 10
-249.39995660800011
 20
69.050000000000011
 30
0.0
 11
-246.19995660800299
 21
69.050000000000011
 31
0.0
  0
LINE
  8
DETAIL
  6
CONTINUOUS
 62
     5
 10
-253.39995660800011
 20
70.5
 30
0.0
 11
-249.39995660800011
 21
70.5
 31
0.0
  0
LINE
  8
DETAIL
  6
CONTINUOUS
 62
     5
 10
-269.51320526200112
 20
74.867859318999933
 30
0.0
 11
-275.28670795400279
 21
74.867859318999933
 31
0.0
  0
LINE
  8
DETAIL
  6
CONTINUOUS
 62
     5
 10
-259.89995660800378
 20
77.753643242999942
 30
0.0
 11
-259.39995660800008
 21
77.753643242999942
 31
0.0
  0
LINE
  8
DETAIL
  6
CONTINUOUS
 62
     5
 10
-259.89995660800378
 20
79.682006071999979
 30
0.0
 11
-259.39995660800008
 21
79.682006071999979
 31
0.0
  0
LINE
  8
DETAIL
  6
CONTINUOUS
 62
     5
 10
-3.0000000000009091
 20
-255.00000000000011
 30
0.0
 11
-3.0000000000009091
 21
-253.94454364800009
 31
0.0
  0
LINE
  8
DETAIL
  6
CONTINUOUS
 62
     5
 10
-3.0000000000009091
 20
-200.055456351
 30
0.0
 11
-3.0000000000009091
 21
-197.25735931300011
 31
0.0
  0
LINE
  8
DETAIL
  6
CONTINUOUS
 62
     5
 10
-3.0000000000009091
 20
197.25735931300011
 30
0.0
 11
-3.0000000000009091
 21
200.05545635199999
 31
0.0
  0
LINE
  8
DETAIL
  6
CONTINUOUS
 62
     5
 10
-3.0000000000009091
 20
253.944543649
 30
0.0
 11
-3.0000000000009091
 21
255.0
 31
0.0
  0
LINE
  8
DETAIL
  6
CONTINUOUS
 62
     5
 10
-2.0000000000009091
 20
0.5
 30
0.0
 11
-2.0000000000009091
 21
-0.5
 31
0.0
  0
LINE
  8
DETAIL
  6
CONTINUOUS
 62
     5
 10
-1.5000000000009091
 20
-201.1161165230001
 30
0.0
 11
-1.5000000000009091
 21
-255.00520381999999
 31
0.0
  0
LINE
  8
DETAIL
  6
CONTINUOUS
 62
     5
 10
-1.5000000000009091
 20
201.11611652399989
 30
0.0
 11
-1.5000000000009091
 21
255.00520381999991
 31
0.0
  0
LINE
  8
DETAIL
  6
CONTINUOUS
 62
     5
 10
-0.0000000000009095
 20
255.00520381999991
 30
0.0
 11
-0.0000000000009095
 21
201.11611652399989
 31
0.0
  0
LINE
  8
DETAIL
  6
CONTINUOUS
 62
     5
 10
-0.0000000000009095
 20
197.25735931300011
 30
0.0
 11
-0.0000000000009095
 21
0.5
 31
0.0
  0
LINE
  8
DETAIL
  6
CONTINUOUS
 62
     5
 10
-0.0000000000009095
 20
-255.00520381999999
 30
0.0
 11
-0.0000000000009095
 21
-201.1161165230001
 31
0.0
  0
LINE
  8
DETAIL
  6
CONTINUOUS
 62
     5
 10
-0.0000000000009095
 20
-197.25735931300011
 30
0.0
 11
-0.0000000000009095
 21
-0.5
 31
0.0
  0
LINE
  8
DETAIL
  6
CONTINUOUS
 62
     5
 10
-110.9194434154788
 20
184.70885053039791
 30
0.0
 11
-111.499999999477
 21
185.71440402939791
 31
0.0
  0
LINE
  8
DETAIL
  6
CONTINUOUS
 62
     5
 10
-3.0000000000009091
 20
197.25735931300011
 30
0.0
 11
-0.0000000000009095
 21
197.25735931300011
 31
0.0
  0
LINE
  8
DETAIL
  6
CONTINUOUS
 62
     5
 10
-219.89946229900491
 20
175.4624817303999
 30
0.0
 11
-112.0000000000073
 21
175.4624817303999
 31
0.0
  0
LINE
  8
DETAIL
  6
CONTINUOUS
 62
     5
 10
-105.999999999477
 20
184.70885053039791
 30
0.0
 11
-110.9194434154788
 21
184.70885053039791
 31
0.0
  0
LINE
  8
DETAIL
  6
CONTINUOUS
 62
     5
 10
-105.999999999477
 20
188.46162728039781
 30
0.0
 11
-111.4999999994734
 21
188.46162728039781
 31
0.0
  0
LINE
  8
DETAIL
  6
CONTINUOUS
 62
     5
 10
-111.5000000000073
 20
194.6135928084
 30
0.0
 11
-219.89946229900491
 21
194.6135928084
 31
0.0
  0
LINE
  8
DETAIL
  6
CONTINUOUS
 62
     5
 10
-105.999999999477
 20
195.96718077939781
 30
0.0
 11
-111.4999999994734
 21
195.96718077939781
 31
0.0
  0
LINE
  8
DETAIL
  6
CONTINUOUS
 62
     5
 10
-111.5000000000073
 20
196.54195563740001
 30
0.0
 11
-219.89946229900491
 21
196.54195563739981
 31
0.0
  0
LINE
  8
DETAIL
  6
CONTINUOUS
 62
     5
 10
-112.99999999948071
 20
197.89378946339789
 30
0.0
 11
-111.499999999477
 21
197.89378946339789
 31
0.0
  0
LINE
  8
DETAIL
  6
CONTINUOUS
 62
     5
 10
-105.999999999477
 20
199.7199575293979
 30
0.0
 11
-110.9194434154788
 21
199.7199575293979
 31
0.0
  0
LINE
  8
DETAIL
  6
CONTINUOUS
 62
     5
 10
-112.79999999947999
 20
202.89378946339789
 30
0.0
 11
-109.1999999994778
 21
202.89378946339789
 31
0.0
  0
LINE
  8
DETAIL
  6
CONTINUOUS
 62
     5
 10
-105.999999999477
 20
212.67072494139791
 30
0.0
 11
-108.999999999477
 21
212.67072494139791
 31
0.0
  0
LINE
  8
DETAIL
  6
CONTINUOUS
 62
     5
 10
-96.0
 20
255.0
 30
0.0
 11
-3.0000000000009091
 21
255.0
 31
0.0
  0
LINE
  8
DETAIL
  6
CONTINUOUS
 62
     5
 10
-0.0000000000009095
 20
255.00520381999991
 30
0.0
 11
-1.5000000000009091
 21
255.00520381999991
 31
0.0
  0
LINE
  8
DETAIL
  6
CONTINUOUS
 62
     5
 10
-101.0
 20
260.0
 30
0.0
 11
-96.0
 21
260.0
 31
0.0
  0
ARC
  8
DETAIL
  6
CONTINUOUS
 62
     5
 10
-246.7399753350019
 20
-144.81955729640001
 30
0.0
 40
38.159981281
 50
180.00115319290171
 51
182.8953602862974
  0
ARC
  8
DETAIL
  6
CONTINUOUS
 62
     5
 10
-200.39995660799829
 20
-45.700000000000053
 30
0.0
 40
10.5
 50
270.0
 51
0.0
  0
ARC
  8
DETAIL
  6
CONTINUOUS
 62
     5
 10
-313.49995660799868
 20
-49.000000000000057
 30
0.0
 40
7.5
 50
180.0
 51
270.0
  0
ARC
  8
DETAIL
  6
CONTINUOUS
 62
     5
 10
-244.89995660800381
 20
-60.700000000000053
 30
0.0
 40
4.5
 50
90.0
 51
180.0
  0
ARC
  8
DETAIL
  6
CONTINUOUS
 62
     5
 10
-186.59788780400049
 20
-8.112829191000003
 30
0.0
 40
1.5
 50
97.999999999987637
 51
175.00000000000031
  0
ARC
  8
DETAIL
  6
CONTINUOUS
 62
     5
 10
-291.49995660800232
 20
-57.700000000000053
 30
0.0
 40
1.0
 50
180.0
 51
270.0
  0
ARC
  8
DETAIL
  6
CONTINUOUS
 62
     5
 10
-291.49995660800232
 20
-59.700000000000053
 30
0.0
 40
1.0
 50
0.0
 51
90.0
  0
ARC
  8
DETAIL
  6
CONTINUOUS
 62
     5
 10
-260.19995660799941
 20
-39.481681361000028
 30
0.0
 40
0.2
 50
90.000000000104222
 51
180.0
  0
ARC
  8
DETAIL
  6
CONTINUOUS
 62
     5
 10
-260.19995660799941
 20
-49.081681361000051
 30
0.0
 40
0.2
 50
180.00000000009771
 51
269.99999999989569
  0
ARC
  8
DETAIL
  6
CONTINUOUS
 62
     5
 10
-256.59995660800092
 20
-49.081681361000051
 30
0.0
 40
0.2
 50
269.99999999989569
 51
0.0
  0
ARC
  8
DETAIL
  6
CONTINUOUS
 62
     5
 10
-256.59995660800092
 20
-39.481681361000028
 30
0.0
 40
0.2
 50
0.0
 51
90.000000000104222
  0
ARC
  8
DETAIL
  6
CONTINUOUS
 62
     5
 10
-246.73997533500281
 20
144.81955729639441
 30
0.0
 40
38.159981281
 50
177.1046397137026
 51
179.99884680709829
  0
ARC
  8
DETAIL
  6
CONTINUOUS
 62
     5
 10
-200.39995660799829
 20
45.699999999999989
 30
0.0
 40
10.5
 50
0.0
 51
90.0
  0
ARC
  8
DETAIL
  6
CONTINUOUS
 62
     5
 10
-313.49995660799868
 20
49.0
 30
0.0
 40
7.5
 50
90.0
 51
180.0
  0
ARC
  8
DETAIL
  6
CONTINUOUS
 62
     5
 10
-244.89995660800381
 20
60.699999999999989
 30
0.0
 40
4.5
 50
180.0
 51
270.0
  0
ARC
  8
DETAIL
  6
CONTINUOUS
 62
     5
 10
-186.59788780400049
 20
8.1128291919999924
 30
0.0
 40
1.5
 50
184.99999999999969
 51
262.00000000001228
  0
ARC
  8
DETAIL
  6
CONTINUOUS
 62
     5
 10
-260.19995660799941
 20
49.081681361999983
 30
0.0
 40
0.2
 50
90.000000000104222
 51
180.0
  0
ARC
  8
DETAIL
  6
CONTINUOUS
 62
     5
 10
-260.19995660799941
 20
39.481681361999961
 30
0.0
 40
0.2
 50
180.00000000009771
 51
269.99999999989569
  0
ARC
  8
DETAIL
  6
CONTINUOUS
 62
     5
 10
-256.59995660800092
 20
39.481681361999961
 30
0.0
 40
0.2
 50
269.99999999989569
 51
0.0
  0
ARC
  8
DETAIL
  6
CONTINUOUS
 62
     5
 10
-256.59995660800092
 20
49.081681361999983
 30
0.0
 40
0.2
 50
0.0
 51
90.000000000104222
  0
CIRCLE
  8
DETAIL
  6
CONTINUOUS
 62
     5
 10
-49.769403266298468
 20
-177.75735931300011
 30
0.0
 40
6.5
  0
ARC
  8
DETAIL
  6
CONTINUOUS
 62
     5
 10
-103.5775000000031
 20
-77.699999999900115
 30
0.0
 40
6.5225
 50
133.8973981670959
 51
226.1026018329041
  0
ARC
  8
DETAIL
  6
CONTINUOUS
 62
     5
 10
-101.0
 20
-255.00000000000011
 30
0.0
 40
5.0
 50
180.0
 51
270.0
  0
ARC
  8
DETAIL
  6
CONTINUOUS
 62
     5
 10
-3.0000000000009091
 20
-252.0
 30
0.0
 40
3.0
 50
270.0
 51
298.07776528020707
  0
ARC
  8
DETAIL
  6
CONTINUOUS
 62
     5
 10
-108.7999999999993
 20
-67.199999999900058
 30
0.0
 40
2.0
 50
0.0
 51
90.0
  0
ARC
  8
DETAIL
  6
CONTINUOUS
 62
     5
 10
-149.30000000000021
 20
-67.199999999900058
 30
0.0
 40
2.0
 50
90.0
 51
180.0
  0
ARC
  8
DETAIL
  6
CONTINUOUS
 62
     5
 10
-151.30000000000379
 20
-70.899999999900103
 30
0.0
 40
1.3
 50
180.0
 51
270.0
  0
ARC
  8
DETAIL
  6
CONTINUOUS
 62
     5
 10
-108.0999999999985
 20
-72.699999999900115
 30
0.0
 40
0.5
 50
0.0
 51
90.000000000104222
  0
ARC
  8
DETAIL
  6
CONTINUOUS
 62
     5
 10
-112.80000000000651
 20
-202.7762889453999
 30
0.0
 40
0.2
 50
180.00000000009771
 51
269.99999999989569
  0
ARC
  8
DETAIL
  6
CONTINUOUS
 62
     5
 10
-109.20000000000439
 20
-202.7762889453999
 30
0.0
 40
0.2
 50
269.99999999989569
 51
0.0
  0
ARC
  8
DETAIL
  6
CONTINUOUS
 62
     5
 10
-112.80000000000651
 20
-169.3106479043999
 30
0.0
 40
0.2
 50
90.000000000104222
 51
180.0
  0
ARC
  8
DETAIL
  6
CONTINUOUS
 62
     5
 10
-112.80000000000651
 20
-178.91064790439989
 30
0.0
 40
0.2
 50
180.00000000009771
 51
269.99999999989569
  0
ARC
  8
DETAIL
  6
CONTINUOUS
 62
     5
 10
-109.20000000000439
 20
-169.3106479043999
 30
0.0
 40
0.2
 50
0.0
 51
90.000000000104222
  0
ARC
  8
DETAIL
  6
CONTINUOUS
 62
     5
 10
-109.20000000000439
 20
-178.91064790439989
 30
0.0
 40
0.2
 50
269.99999999989569
 51
0.0
  0
ARC
  8
DETAIL
  6
CONTINUOUS
 62
     5
 10
-103.5775000000031
 20
58.700000000099863
 30
0.0
 40
6.5225
 50
133.8973981670959
 51
226.1026018329041
  0
ARC
  8
DETAIL
  6
CONTINUOUS
 62
     5
 10
-101.0
 20
255.0
 30
0.0
 40
5.0
 50
90.0
 51
180.0
  0
ARC
  8
DETAIL
  6
CONTINUOUS
 62
     5
 10
-3.0000000000009091
 20
252.00000000000011
 30
0.0
 40
3.0
 50
61.922234719792833
 51
90.0
  0
ARC
  8
DETAIL
  6
CONTINUOUS
 62
     5
 10
-108.69529046847769
 20
186.58551024039789
 30
0.0
 40
2.8047095440000001
 50
180.00554296499871
 51
182.94743713529999
  0
ARC
  8
DETAIL
  6
CONTINUOUS
 62
     5
 10
-108.6953140034793
 20
197.8432977213979
 30
0.0
 40
2.8046860090000001
 50
177.05255766100191
 51
179.99445501719629
  0
ARC
  8
DETAIL
  6
CONTINUOUS
 62
     5
 10
-149.30000000000021
 20
48.200000000099919
 30
0.0
 40
2.0
 50
180.0
 51
270.0
  0
ARC
  8
DETAIL
  6
CONTINUOUS
 62
     5
 10
-108.7999999999993
 20
48.200000000099919
 30
0.0
 40
2.0
 50
270.0
 51
0.0
  0
ARC
  8
DETAIL
  6
CONTINUOUS
 62
     5
 10
-108.0999999999985
 20
53.700000000099863
 30
0.0
 40
1.3
 50
337.34798607430031
 51
0.0
  0
ARC
  8
DETAIL
  6
CONTINUOUS
 62
     5
 10
-151.30000000000379
 20
51.900000000099908
 30
0.0
 40
1.3
 50
90.0
 51
180.0
  0
ARC
  8
DETAIL
  6
CONTINUOUS
 62
     5
 10
-108.0999999999985
 20
53.700000000099863
 30
0.0
 40
0.5
 50
269.99999999989569
 51
0.0
  0
ARC
  8
DETAIL
  6
CONTINUOUS
 62
     5
 10
-112.79999999947999
 20
202.69378946339791
 30
0.0
 40
0.2
 50
90.000000000104222
 51
180.00000000009771
  0
ARC
  8
DETAIL
  6
CONTINUOUS
 62
     5
 10
-109.1999999994778
 20
202.69378946339791
 30
0.0
 40
0.2
 50
0.0
 51
90.000000000104222
  0
LINE
  8
DETAIL
  6
CONTINUOUS
 62
     5
 10
-278.17345930000192
 20
-68.028256940000006
 30
0.0
 11
-275.28670795400279
 21
-64.198034724000081
 31
0.0
  0
LINE
  8
DETAIL
  6
CONTINUOUS
 62
     5
 10
-275.28670795400279
 20
-64.198034724000081
 30
0.0
 11
-269.51320526200112
 21
-64.198034724000081
 31
0.0
  0
LINE
  8
DETAIL
  6
CONTINUOUS
 62
     5
 10
-269.51320526200112
 20
-64.198034724000081
 30
0.0
 11
-266.62645391600199
 21
-68.028256940000006
 31
0.0
  0
LINE
  8
DETAIL
  6
CONTINUOUS
 62
     5
 10
-275.28670795400279
 20
-52.707368078000172
 30
0.0
 11
-278.17345930000192
 21
-56.537590293000051
 31
0.0
  0
LINE
  8
DETAIL
  6
CONTINUOUS
 62
     5
 10
-266.62645391600199
 20
-56.537590293000051
 30
0.0
 11
-269.51320526200112
 21
-52.707368078000172
 31
0.0
  0
LINE
  8
DETAIL
  6
CONTINUOUS
 62
     5
 10
-269.51320526200112
 20
-52.707368078000172
 30
0.0
 11
-275.28670795400279
 21
-52.707368078000172
 31
0.0
  0
LINE
  8
DETAIL
  6
CONTINUOUS
 62
     5
 10
-278.17345930000192
 20
56.535040752999983
 30
0.0
 11
-275.28670795400279
 21
52.704818537999977
 31
0.0
  0
LINE
  8
DETAIL
  6
CONTINUOUS
 62
     5
 10
-275.28670795400279
 20
52.704818537999977
 30
0.0
 11
-269.51320526200112
 21
52.704818537999977
 31
0.0
  0
LINE
  8
DETAIL
  6
CONTINUOUS
 62
     5
 10
-269.51320526200112
 20
52.704818537999977
 30
0.0
 11
-266.62645391600199
 21
56.535040752999983
 31
0.0
  0
LINE
  8
DETAIL
  6
CONTINUOUS
 62
     5
 10
-278.17345930000192
 20
68.110756422999998
 30
0.0
 11
-275.28670795400279
 21
64.280534207999949
 31
0.0
  0
LINE
  8
DETAIL
  6
CONTINUOUS
 62
     5
 10
-275.28670795400279
 20
64.280534207999949
 30
0.0
 11
-269.51320526200112
 21
64.280534207999949
 31
0.0
  0
LINE
  8
DETAIL
  6
CONTINUOUS
 62
     5
 10
-269.51320526200112
 20
64.280534207999949
 30
0.0
 11
-266.62645391600199
 21
68.110756422999998
 31
0.0
  0
ARC
  8
DETAIL
  6
CONTINUOUS
 62
     5
 10
-238.9161792627165
 20
-144.81086447361449
 30
0.0
 40
46.028137966857138
 50
182.51570448907961
 51
238.76687302306419
  0
ARC
  8
DETAIL
  6
CONTINUOUS
 62
     5
 10
-220.74147085056941
 20
-118.9652263013444
 30
0.0
 40
77.581298731593932
 50
237.18694313948791
 51
270.62185712638183
  0
ARC
  8
DETAIL
  6
CONTINUOUS
 62
     5
 10
-238.03583153390721
 20
-142.22236533915611
 30
0.0
 40
47.090205585602753
 50
185.61665577091949
 51
239.4392300471813
  0
ARC
  8
DETAIL
  6
CONTINUOUS
 62
     5
 10
-220.68929107547959
 20
-116.7380733919277
 30
0.0
 40
77.879524612582131
 50
237.98283277568009
 51
270.581085098335
  0
ARC
  8
DETAIL
  6
CONTINUOUS
 62
     5
 10
-238.61339667483841
 20
144.63626349558379
 30
0.0
 40
46.334738247475073
 50
121.44132036321091
 51
177.38695004819539
  0
ARC
  8
DETAIL
  6
CONTINUOUS
 62
     5
 10
-220.2089984217582
 20
117.11990041566879
 30
0.0
 40
79.422658405864723
 50
89.77669900889849
 51
122.4145007227698
  0
ARC
  8
DETAIL
  6
CONTINUOUS
 62
     5
 10
-238.17598304059169
 20
142.49803519754369
 30
0.0
 40
46.78157267749738
 50
120.5846302660229
 51
177.15650363008581
  0
ARC
  8
DETAIL
  6
CONTINUOUS
 62
     5
 10
-220.1404279405215
 20
114.78778814252409
 30
0.0
 40
79.826168359721649
 50
89.827044996450851
 51
121.6090371271309
  0
ARC
  8
DETAIL
  6
CONTINUOUS
 62
     5
 10
-220.44885089320451
 20
134.75011098815639
 30
0.0
 40
40.716077405382038
 50
89.226875352255135
 51
165.68056376124369
  0
ARC
  8
DETAIL
  6
CONTINUOUS
 62
     5
 10
-220.44885089320451
 20
-134.83261047116031
 30
0.0
 40
40.716077405382038
 50
194.31943623875631
 51
270.77312464779698
  0
ARC
  8
DETAIL
  6
CONTINUOUS
 62
     5
 10
-281.91453547567471
 20
-51.732100642671178
 30
0.0
 40
3.0881806512569732
 50
89.729513657260213
 51
165.17792544846151
  0
ARC
  8
DETAIL
  6
CONTINUOUS
 62
     5
 10
-281.79445888513601
 20
-52.665739284263744
 30
0.0
 40
3.2466096083136091
 50
91.862139048483641
 51
163.04530005719789
  0
ARC
  8
DETAIL
  6
CONTINUOUS
 62
     5
 10
-281.91453547567471
 20
51.732100642670282
 30
0.0
 40
3.0881806512569732
 50
194.82207455153849
 51
270.27048634273979
  0
ARC
  8
DETAIL
  6
CONTINUOUS
 62
     5
 10
-281.97512284137059
 20
52.540405948720718
 30
0.0
 40
3.0379923023658701
 50
195.68719515056091
 51
271.41776115025061
  0
ARC
  8
DETAIL
  6
CONTINUOUS
 62
     5
 10
-262.6177929697842
 20
52.242182801628417
 30
0.0
 40
2.7533354483688122
 50
264.11796400412362
 51
350.7894751013867
  0
ARC
  8
DETAIL
  6
CONTINUOUS
 62
     5
 10
-262.76328281904352
 20
-52.329182211764419
 30
0.0
 40
2.9115476604787638
 50
10.4423210286649
 51
92.690565631466157
  0
ARC
  8
DETAIL
  6
CONTINUOUS
 62
     5
 10
-258.6468745081047
 20
74.258059528696435
 30
0.0
 40
5.4759774245160129
 50
16.630549625667761
 51
97.904635956718209
  0
ARC
  8
DETAIL
  6
CONTINUOUS
 62
     5
 10
-259.02341555819288
 20
75.041669971131682
 30
0.0
 40
2.7379887124529589
 50
16.630549629183321
 51
97.904635953193264
  0
ARC
  8
DETAIL
  6
CONTINUOUS
 62
     5
 10
-258.6468745081047
 20
-74.258059528695298
 30
0.0
 40
5.4759774245160129
 50
262.09536404328179
 51
343.36945037433219
  0
ARC
  8
DETAIL
  6
CONTINUOUS
 62
     5
 10
-259.02341555819288
 20
-75.041669971130545
 30
0.0
 40
2.7379887124529589
 50
262.09536404680682
 51
343.36945037081671
  0
ARC
  8
DETAIL
  6
CONTINUOUS
 62
     5
 10
-264.8089635401584
 20
-70.192335644837613
 30
0.0
 40
22.936803368208238
 50
183.7846650854633
 51
208.8449802284207
  0
ARC
  8
DETAIL
  6
CONTINUOUS
 62
     5
 10
-112.3102214017199
 20
182.5406348655583
 30
0.0
 40
7.0849480677583792
 50
272.50955424239709
 51
332.9552601887429
  0
ARC
  8
DETAIL
  6
CONTINUOUS
 62
     5
 10
-2.8344583887555932
 20
201.41233541784791
 30
0.0
 40
1.3669399490802361
 50
263.04419018000061
 51
347.4845891967322
  0
ARC
  8
DETAIL
  6
CONTINUOUS
 62
     5
 10
-2.6679949390618281
 20
201.70725063526149
 30
0.0
 40
2.73269766574293
 50
263.02169424959408
 51
347.50708512710457
  0
ARC
  8
DETAIL
  6
CONTINUOUS
 62
     5
 10
-2.8344583887555932
 20
-201.41233541784791
 30
0.0
 40
1.3669399490802361
 50
12.51541080326782
 51
96.955809819999359
  0
ARC
  8
DETAIL
  6
CONTINUOUS
 62
     5
 10
-2.6679949390618281
 20
-201.70725063526149
 30
0.0
 40
2.73269766574293
 50
12.49291487289538
 51
96.978305750405909
  0
ARC
  8
DETAIL
  6
CONTINUOUS
 62
     5
 10
-2.8344583887555932
 20
255.30142271512841
 30
0.0
 40
1.366939949357723
 50
263.04419018141812
 51
347.48458914433081
  0
ARC
  8
DETAIL
  6
CONTINUOUS
 62
     5
 10
-2.8344583887555932
 20
-255.30142271512841
 30
0.0
 40
1.366939949357723
 50
12.51541085566922
 51
96.955809818581955
  0
LINE
  8
SIZE
  6
CONTINUOUS
 62
    30
 10
-0.0000000000009083
 20
275.00520381999991
 30
0.0
 11
-0.0000000000008951
 21
490.85409207264968
 31
0.0
  0
LINE
  8
SIZE
  6
CONTINUOUS
 62
    30
 10
-320.99995660799868
 20
69.0
 30
0.0
 11
-320.99995660799868
 21
490.85409207264968
 31
0.0
  0
LINE
  8
SIZE
  6
CONTINUOUS
 62
    30
 10
-12.000000000000901
 20
470.85409207264968
 30
0.0
 11
-308.99995660799868
 21
470.85409207264968
 31
0.0
  0
CIRCLE
  8
SIZE
  6
CONTINUOUS
 62
    30
 10
-0.0000000000008963
 20
470.85409207264968
 30
0.0
 40
6.0
  0
LINE
  8
SIZE
  6
CONTINUOUS
 62
    30
 10
-0.0000000000008963
 20
470.85409207264968
 30
0.0
 11
-12.000000000000897
 21
470.85409207264968
 31
0.0
  0
CIRCLE
  8
SIZE
  6
CONTINUOUS
 62
    30
 10
-320.99995660799868
 20
470.85409207264968
 30
0.0
 40
6.0
  0
LINE
  8
SIZE
  6
CONTINUOUS
 62
    30
 10
-320.99995660799868
 20
470.85409207264968
 30
0.0
 11
-308.99995660799868
 21
470.85409207264968
 31
0.0
  0
TEXT
  8
SIZE
  6
CONTINUOUS
 62
    30
 10
-235.09197830399978
 20
495.85409207264968
 30
0.0
 40
64.0
  1
321
 50
0.0
 41
0.9
 51
0.0
  7
STANDARD
 71
     0
 72
     1
 11
-160.4999783039998
 21
495.85409207264968
 31
0.0
210
0.0
220
0.0
230
1.0
  0
POINT
  8
DEFPOINTS
  6
CONTINUOUS
 62
    30
 10
-0.0000000000009095
 20
255.00520381999991
 30
0.0
  0
POINT
  8
DEFPOINTS
  6
CONTINUOUS
 62
    30
 10
-320.99995660799868
 20
49.0
 30
0.0
  0
POINT
  8
DEFPOINTS
  6
CONTINUOUS
 62
    30
 10
-320.99995660799868
 20
470.85409207264968
 30
0.0
  0
LINE
  8
SIZE
  6
CONTINUOUS
 62
    30
 10
-96.0
 20
280.00000000000011
 30
0.0
 11
-96.0
 21
340.79316834125677
 31
0.0
  0
LINE
  8
SIZE
  6
CONTINUOUS
 62
    30
 10
-166.0
 20
258.0
 30
0.0
 11
-166.0
 21
340.79316834125677
 31
0.0
  0
LINE
  8
SIZE
  6
CONTINUOUS
 62
    30
 10
-84.0
 20
320.79316834125677
 30
0.0
 11
-72.0
 21
320.79316834125677
 31
0.0
  0
LINE
  8
SIZE
  6
CONTINUOUS
 62
    30
 10
-178.0
 20
320.79316834125677
 30
0.0
 11
-453.78106947279957
 21
320.79316834125677
 31
0.0
  0
LINE
  8
SIZE
  6
CONTINUOUS
 62
    30
 10
-96.0
 20
320.79316834125677
 30
0.0
 11
-166.0
 21
320.79316834125677
 31
0.0
  0
CIRCLE
  8
SIZE
  6
CONTINUOUS
 62
    30
 10
-96.0
 20
320.79316834125677
 30
0.0
 40
6.0
  0
LINE
  8
SIZE
  6
CONTINUOUS
 62
    30
 10
-96.0
 20
320.79316834125677
 30
0.0
 11
-84.0
 21
320.79316834125677
 31
0.0
  0
CIRCLE
  8
SIZE
  6
CONTINUOUS
 62
    30
 10
-166.0
 20
320.79316834125677
 30
0.0
 40
6.0
  0
LINE
  8
SIZE
  6
CONTINUOUS
 62
    30
 10
-166.0
 20
320.79316834125677
 30
0.0
 11
-178.0
 21
320.79316834125677
 31
0.0
  0
TEXT
  8
SIZE
  6
CONTINUOUS
 62
    30
 10
-436.2964980442282
 20
345.79316834125677
 30
0.0
 40
64.0
  1
70
 50
0.0
 41
0.9
 51
0.0
  7
STANDARD
 71
     0
 72
     1
 11
-382.1524980442282
 21
345.79316834125677
 31
0.0
210
0.0
220
0.0
230
1.0
  0
POINT
  8
DEFPOINTS
  6
CONTINUOUS
 62
    30
 10
-96.0
 20
260.00000000000011
 30
0.0
  0
POINT
  8
DEFPOINTS
  6
CONTINUOUS
 62
    30
 10
-166.0
 20
238.0
 30
0.0
  0
POINT
  8
DEFPOINTS
  6
CONTINUOUS
 62
    30
 10
-166.0
 20
320.79316834125677
 30
0.0
  0
CIRCLE
  8
FIX
  6
CONTINUOUS
 62
    11
 10
-0.0000000000009095
 20
230.00000000000011
 30
0.0
 40
7.5
  0
CIRCLE
  8
FIX
  6
CONTINUOUS
 62
    11
 10
-0.0000000000009095
 20
-230.0
 30
0.0
 40
7.5
  0
LINE
  8
BASIS
  6
DASHDOT
 62
     6
 10
-0.0000000000009095
 20
-250.0
 30
0.0
 11
-0.0000000000009095
 21
-210.0
 31
0.0
  0
LINE
  8
BASIS
  6
DASHDOT
 62
     6
 10
-20.000000000000909
 20
-230.0
 30
0.0
 11
19.999999999999091
 21
-230.0
 31
0.0
  0
LINE
  8
BASIS
  6
DASHDOT
 62
     6
 10
-0.0000000000009095
 20
210.00000000000011
 30
0.0
 11
-0.0000000000009095
 21
250.00000000000011
 31
0.0
  0
LINE
  8
BASIS
  6
DASHDOT
 62
     6
 10
-20.000000000000909
 20
230.00000000000011
 30
0.0
 11
19.999999999999091
 21
230.00000000000011
 31
0.0
  0
LINE
  8
SIZE
  6
CONTINUOUS
 62
    30
 10
-76.000000000000043
 20
260.00000000000011
 30
0.0
 11
313.84702440830262
 21
260.00000000000023
 31
0.0
  0
LINE
  8
SIZE
  6
CONTINUOUS
 62
    30
 10
-76.000000000000043
 20
-260.00000000000023
 30
0.0
 11
313.84702440830267
 21
-260.00000000000011
 31
0.0
  0
LINE
  8
SIZE
  6
CONTINUOUS
 62
    30
 10
293.84702440830262
 20
248.0000000000002
 30
0.0
 11
293.84702440830267
 21
-248.00000000000011
 31
0.0
  0
CIRCLE
  8
SIZE
  6
CONTINUOUS
 62
    30
 10
293.84702440830262
 20
260.00000000000023
 30
0.0
 40
6.0
  0
LINE
  8
SIZE
  6
CONTINUOUS
 62
    30
 10
293.84702440830262
 20
260.00000000000023
 30
0.0
 11
293.84702440830262
 21
248.00000000000023
 31
0.0
  0
CIRCLE
  8
SIZE
  6
CONTINUOUS
 62
    30
 10
293.84702440830267
 20
-260.00000000000011
 30
0.0
 40
6.0
  0
LINE
  8
SIZE
  6
CONTINUOUS
 62
    30
 10
293.84702440830267
 20
-260.00000000000011
 30
0.0
 11
293.84702440830267
 21
-248.00000000000011
 31
0.0
  0
TEXT
  8
SIZE
  6
CONTINUOUS
 62
    30
 10
268.84702440830256
 20
-80.92800000000004
 30
0.0
 40
64.0
  1
520
 50
90.0
 41
0.9
 51
0.0
  7
STANDARD
 71
     0
 72
     1
 11
268.84702440830256
 21
-0.0000000000000414
 31
0.0
210
0.0
220
0.0
230
1.0
  0
POINT
  8
DEFPOINTS
  6
CONTINUOUS
 62
    30
 10
-96.000000000000043
 20
260.00000000000011
 30
0.0
  0
POINT
  8
DEFPOINTS
  6
CONTINUOUS
 62
    30
 10
-96.000000000000057
 20
-260.00000000000023
 30
0.0
  0
POINT
  8
DEFPOINTS
  6
CONTINUOUS
 62
    30
 10
293.84702440830267
 20
-260.00000000000011
 30
0.0
  0
LINE
  8
SIZE
  6
CONTINUOUS
 62
    30
 10
39.999999999999098
 20
230.0000000000002
 30
0.0
 11
198.42155636508571
 21
230.00000000000031
 31
0.0
  0
LINE
  8
SIZE
  6
CONTINUOUS
 62
    30
 10
39.999999999999098
 20
-230.00000000000011
 30
0.0
 11
198.42155636508579
 21
-230.00000000000011
 31
0.0
  0
LINE
  8
SIZE
  6
CONTINUOUS
 62
    30
 10
178.42155636508571
 20
218.00000000000031
 30
0.0
 11
178.42155636508579
 21
-218.00000000000011
 31
0.0
  0
CIRCLE
  8
SIZE
  6
CONTINUOUS
 62
    30
 10
178.42155636508571
 20
230.00000000000031
 30
0.0
 40
6.0
  0
LINE
  8
SIZE
  6
CONTINUOUS
 62
    30
 10
178.42155636508571
 20
230.00000000000031
 30
0.0
 11
178.42155636508571
 21
218.00000000000031
 31
0.0
  0
CIRCLE
  8
SIZE
  6
CONTINUOUS
 62
    30
 10
178.42155636508579
 20
-230.00000000000011
 30
0.0
 40
6.0
  0
LINE
  8
SIZE
  6
CONTINUOUS
 62
    30
 10
178.42155636508579
 20
-230.00000000000011
 30
0.0
 11
178.42155636508579
 21
-218.00000000000011
 31
0.0
  0
TEXT
  8
SIZE
  6
CONTINUOUS
 62
    30
 10
153.42155636508571
 20
-81.503999999999948
 30
0.0
 40
64.0
  1
460
 50
90.0
 41
0.9
 51
0.0
  7
STANDARD
 71
     0
 72
     1
 11
153.42155636508571
 21
0.0000000000000509
 31
0.0
210
0.0
220
0.0
230
1.0
  0
POINT
  8
DEFPOINTS
  6
CONTINUOUS
 62
    30
 10
19.999999999999101
 20
230.0000000000002
 30
0.0
  0
POINT
  8
DEFPOINTS
  6
CONTINUOUS
 62
    30
 10
19.999999999999101
 20
-230.00000000000011
 30
0.0
  0
POINT
  8
DEFPOINTS
  6
CONTINUOUS
 62
    30
 10
178.42155636508579
 20
-230.00000000000011
 30
0.0
  0
LINE
  8
SIZE
  6
CONTINUOUS
 62
    30
 10
-186.00000000000011
 20
-238.00000000000011
 30
0.0
 11
-524.60363537906994
 21
-238.0000000000002
 31
0.0
  0
LINE
  8
SIZE
  6
CONTINUOUS
 62
    30
 10
-186.00000000000011
 20
238.00000000000011
 30
0.0
 11
-524.60363537906994
 21
238.00000000000011
 31
0.0
  0
LINE
  8
SIZE
  6
CONTINUOUS
 62
    30
 10
-504.60363537906977
 20
-226.0000000000002
 30
0.0
 11
-504.60363537906989
 21
226.00000000000011
 31
0.0
  0
CIRCLE
  8
SIZE
  6
CONTINUOUS
 62
    30
 10
-504.60363537906977
 20
-238.0000000000002
 30
0.0
 40
6.0
  0
LINE
  8
SIZE
  6
CONTINUOUS
 62
    30
 10
-504.60363537906977
 20
-238.0000000000002
 30
0.0
 11
-504.60363537906977
 21
-226.0000000000002
 31
0.0
  0
CIRCLE
  8
SIZE
  6
CONTINUOUS
 62
    30
 10
-504.60363537906989
 20
238.00000000000011
 30
0.0
 40
6.0
  0
LINE
  8
SIZE
  6
CONTINUOUS
 62
    30
 10
-504.60363537906989
 20
238.00000000000011
 30
0.0
 11
-504.60363537906989
 21
226.00000000000011
 31
0.0
  0
TEXT
  8
SIZE
  6
CONTINUOUS
 62
    30
 10
-529.60363537906983
 20
-115.48799999999996
 30
0.0
 40
64.0
  1
φ476
 50
90.0
 41
0.9
 51
0.0
  7
STANDARD
 71
     0
 72
     1
 11
-529.60363537906983
 21
0.0000000000000927
 31
0.0
210
0.0
220
0.0
230
1.0
  0
POINT
  8
DEFPOINTS
  6
CONTINUOUS
 62
    30
 10
-166.00000000000011
 20
-238.00000000000011
 30
0.0
  0
POINT
  8
DEFPOINTS
  6
CONTINUOUS
 62
    30
 10
-166.00000000000011
 20
238.00000000000011
 30
0.0
  0
POINT
  8
DEFPOINTS
  6
CONTINUOUS
 62
    30
 10
-504.60363537906989
 20
238.00000000000011
 30
0.0
  0
POINT
  8
ARRANGE
  6
CONTINUOUS
 62
     1
 10
0.0
 20
0.0
 30
0.0
  0
CIRCLE
  8
ARRANGE
  6
CONTINUOUS
 62
     1
 10
0.0
 20
0.0
 30
0.0
 40
40.0
  0
LINE
  8
SIZE
  6
CONTINUOUS
 62
    30
 10
-96.0
 20
280.0
 30
0.0
 11
-96.0
 21
340.79316834125677
 31
0.0
  0
LINE
  8
SIZE
  6
CONTINUOUS
 62
    30
 10
-0.0000000000009083
 20
275.00520381999991
 30
0.0
 11
-0.0000000000009042
 21
340.79316834125677
 31
0.0
  0
LINE
  8
SIZE
  6
CONTINUOUS
 62
    30
 10
-84.0
 20
320.79316834125677
 30
0.0
 11
-12.000000000000909
 21
320.79316834125677
 31
0.0
  0
LINE
  8
SIZE
  6
CONTINUOUS
 62
    30
 10
-0.0000000000009055
 20
320.79316834125677
 30
0.0
 11
153.5428571428566
 21
320.79316834125677
 31
0.0
  0
CIRCLE
  8
SIZE
  6
CONTINUOUS
 62
    30
 10
-96.0
 20
320.79316834125677
 30
0.0
 40
6.0
  0
LINE
  8
SIZE
  6
CONTINUOUS
 62
    30
 10
-96.0
 20
320.79316834125677
 30
0.0
 11
-84.0
 21
320.79316834125677
 31
0.0
  0
CIRCLE
  8
SIZE
  6
CONTINUOUS
 62
    30
 10
-0.0000000000009055
 20
320.79316834125677
 30
0.0
 40
6.0
  0
LINE
  8
SIZE
  6
CONTINUOUS
 62
    30
 10
-0.0000000000009055
 20
320.79316834125677
 30
0.0
 11
-12.000000000000906
 21
320.79316834125677
 31
0.0
  0
TEXT
  8
SIZE
  6
CONTINUOUS
 62
    30
 10
29.717714285713761
 20
345.79316834125677
 30
0.0
 40
64.0
  1
96
 50
0.0
 41
0.9
 51
0.0
  7
STANDARD
 71
     0
 72
     1
 11
83.285714285713766
 21
345.79316834125677
 31
0.0
210
0.0
220
0.0
230
1.0
  0
POINT
  8
DEFPOINTS
  6
CONTINUOUS
 62
    30
 10
-96.0
 20
260.0
 30
0.0
  0
POINT
  8
DEFPOINTS
  6
CONTINUOUS
 62
    30
 10
-0.0000000000009095
 20
255.00520381999991
 30
0.0
  0
POINT
  8
DEFPOINTS
  6
CONTINUOUS
 62
    30
 10
-0.0000000000009055
 20
320.79316834125677
 30
0.0
  0
LINE
  8
SIZE
  6
CONTINUOUS
 62
    30
 10
-333.4999566079988
 20
56.500000000000028
 30
0.0
 11
-403.56613670122539
 21
56.500000000000007
 31
0.0
  0
LINE
  8
SIZE
  6
CONTINUOUS
 62
    30
 10
-333.4999566079988
 20
-56.500000000000092
 30
0.0
 11
-403.56613670122539
 21
-56.500000000000099
 31
0.0
  0
LINE
  8
SIZE
  6
CONTINUOUS
 62
    30
 10
-383.56613670122539
 20
68.500000000000014
 30
0.0
 11
-383.56613670122539
 21
80.500000000000014
 31
0.0
  0
LINE
  8
SIZE
  6
CONTINUOUS
 62
    30
 10
-383.56613670122539
 20
-68.500000000000099
 30
0.0
 11
-383.56613670122539
 21
-80.500000000000099
 31
0.0
  0
LINE
  8
SIZE
  6
CONTINUOUS
 62
    30
 10
-383.56613670122539
 20
56.500000000000021
 30
0.0
 11
-383.56613670122539
 21
-56.500000000000092
 31
0.0
  0
CIRCLE
  8
SIZE
  6
CONTINUOUS
 62
    30
 10
-383.56613670122539
 20
56.500000000000021
 30
0.0
 40
6.0
  0
LINE
  8
SIZE
  6
CONTINUOUS
 62
    30
 10
-383.56613670122539
 20
56.500000000000021
 30
0.0
 11
-383.56613670122539
 21
68.500000000000028
 31
0.0
  0
CIRCLE
  8
SIZE
  6
CONTINUOUS
 62
    30
 10
-383.56613670122539
 20
-56.500000000000092
 30
0.0
 40
6.0
  0
LINE
  8
SIZE
  6
CONTINUOUS
 62
    30
 10
-383.56613670122539
 20
-56.500000000000092
 30
0.0
 11
-383.56613670122539
 21
-68.500000000000085
 31
0.0
  0
TEXT
  8
SIZE
  6
CONTINUOUS
 62
    30
 10
-408.56613670122528
 20
-103.39199999999991
 30
0.0
 40
64.0
  1
φ113
 50
90.0
 41
0.9
 51
0.0
  7
STANDARD
 71
     0
 72
     1
 11
-408.56613670122528
 21
0.0000000000000782
 31
0.0
210
0.0
220
0.0
230
1.0
  0
POINT
  8
DEFPOINTS
  6
CONTINUOUS
 62
    30
 10
-313.4999566079988
 20
56.500000000000028
 30
0.0
  0
POINT
  8
DEFPOINTS
  6
CONTINUOUS
 62
    30
 10
-313.4999566079988
 20
-56.500000000000092
 30
0.0
  0
POINT
  8
DEFPOINTS
  6
CONTINUOUS
 62
    30
 10
-383.56613670122539
 20
-56.500000000000092
 30
0.0
  0
TEXT
  8
ETC
  6
CONTINUOUS
 62
    61
 10
355.11556894762361
 20
476.92684995194628
 30
0.0
 40
64.0
  1
EG-40CSXC2-Q_4
 41
0.9
  0
TEXT
  8
ETC
  6
CONTINUOUS
 62
    61
 10
350.92957494762408
 20
358.97153993711521
 30
0.0
 40
64.0
  1
有圧換気扇
 41
0.9
  0
TEXT
  8
ETC
  6
CONTINUOUS
 62
    61
 10
401.63097319617918
 20
250.82276705088992
 30
0.0
 40
40.0
  1
EG-40CSXC2-Q
 50
0.0
 41
0.9
 51
0.0
  7
STANDARD
 71
     0
 11
0.0
 21
0.0
 31
0.0
210
0.0
220
0.0
230
1.0
  0
LINE
  8
DETAIL
  6
CONTINUOUS
 62
     5
 10
-166.0
 20
-238.00000000350019
 30
0.0
 11
-164.80000000000109
 21
-238.00000000350019
 31
0.0
  0
LINE
  8
DETAIL
  6
CONTINUOUS
 62
     5
 10
-166.0
 20
238.0
 30
0.0
 11
-166.0
 21
196.54195563740001
 31
0.0
  0
LINE
  8
DETAIL
  6
CONTINUOUS
 62
     5
 10
-166.0
 20
175.4624817303999
 30
0.0
 11
-166.0
 21
-175.4624817303999
 31
0.0
  0
LINE
  8
DETAIL
  6
CONTINUOUS
 62
     5
 10
-166.0
 20
-196.54195563739989
 30
0.0
 11
-166.0
 21
-238.00000000350019
 31
0.0
  0
LINE
  8
DETAIL
  6
CONTINUOUS
 62
     5
 10
-164.80000000000109
 20
237.90000000178759
 30
0.0
 11
-164.800000000002
 21
196.54195563740001
 31
0.0
  0
LINE
  8
DETAIL
  6
CONTINUOUS
 62
     5
 10
-164.800000000002
 20
175.4624817303999
 30
0.0
 11
-164.80000000000109
 21
-175.4624817303999
 31
0.0
  0
LINE
  8
DETAIL
  6
CONTINUOUS
 62
     5
 10
-164.80000000000109
 20
-196.54195563739989
 30
0.0
 11
-164.80000000000109
 21
-238.00000000350019
 31
0.0
  0
LINE
  8
DETAIL
  6
CONTINUOUS
 62
     5
 10
-164.80000000000109
 20
237.89999999979989
 30
0.0
 11
-164.80000000000109
 21
238.0
 31
0.0
  0
LINE
  8
DETAIL
  6
CONTINUOUS
 62
     5
 10
-130.60000000000039
 20
203.79999999639989
 30
0.0
 11
-121.0
 21
203.79999999639989
 31
0.0
  0
LINE
  8
DETAIL
  6
CONTINUOUS
 62
     5
 10
-166.0
 20
238.0
 30
0.0
 11
-164.80000000000109
 21
238.0
 31
0.0
  0
ARC
  8
DETAIL
  6
CONTINUOUS
 62
     5
 10
-130.68523369882769
 20
237.9146629729413
 30
0.0
 40
34.11476945234125
 50
180.0246264745553
 51
270.14315020663958
  0
ARC
  8
DETAIL
  6
CONTINUOUS
 62
     5
 10
-121.0
 20
218.79999999639989
 30
0.0
 40
15.0
 50
270.0
 51
323.1301023574793
  0
LINE
  8
DETAIL
  6
CONTINUOUS
 62
     5
 10
-111.5000000000073
 20
-194.61359280839989
 30
0.0
 11
-219.89946229900491
 21
-194.61359280839989
 31
0.0
  0
LINE
  8
DETAIL
  6
CONTINUOUS
 62
     5
 10
-111.5000000000073
 20
-196.54195563739989
 30
0.0
 11
-219.89946229900491
 21
-196.54195563739989
 31
0.0
  0
LINE
  8
DETAIL
  6
CONTINUOUS
 62
     5
 10
-130.60000000000039
 20
-203.79999999639989
 30
0.0
 11
-121.0
 21
-203.79999999639989
 31
0.0
  0
ARC
  8
DETAIL
  6
CONTINUOUS
 62
     5
 10
-130.68523369882769
 20
-237.9146629729413
 30
0.0
 40
34.11476945234125
 50
89.856849793360382
 51
179.97537352543819
  0
ARC
  8
DETAIL
  6
CONTINUOUS
 62
     5
 10
-121.0
 20
-218.79999999639989
 30
0.0
 40
15.0
 50
36.869897642520037
 51
90.0
  0
LINE
  8
OUTLINE
  6
CONTINUOUS
 62
     3
 10
-0.0000000000009095
 20
-255.00520381999999
 30
0.0
 11
-1.5000000000009091
 21
-255.00520381999999
 31
0.0
  0
ARC
  8
OUTLINE
  6
CONTINUOUS
 62
     3
 10
-2.8344583887553201
 20
-255.30142271512847
 30
0.0
 40
1.3669399493570151
 50
12.515410855673963
 51
27.703510305287466
  0
ARC
  8
OUTLINE
  6
CONTINUOUS
 62
     3
 10
-3.0000000000010099
 20
-251.99999999999883
 30
0.0
 40
3.0000000000011586
 50
270.0
 51
297.29643088894318
  0
LINE
  8
OUTLINE
  6
CONTINUOUS
 62
     3
 10
-3.0000000000009091
 20
-255.0
 30
0.0
 11
-96.0
 21
-255.00000000000011
 31
0.0
  0
LINE
  8
OUTLINE
  6
CONTINUOUS
 62
     3
 10
-96.0
 20
-255.00000000000011
 30
0.0
 11
-96.0
 21
-260.00000000000011
 31
0.0
  0
LINE
  8
OUTLINE
  6
CONTINUOUS
 62
     3
 10
-96.0
 20
-260.00000000000011
 30
0.0
 11
-101.0
 21
-260.00000000000011
 31
0.0
  0
ARC
  8
OUTLINE
  6
CONTINUOUS
 62
     3
 10
-101.0
 20
-255.00000000000011
 30
0.0
 40
4.9999999999999991
 50
180.0
 51
270.0
  0
LINE
  8
OUTLINE
  6
CONTINUOUS
 62
     3
 10
-106.0
 20
-255.00000000000011
 30
0.0
 11
-106.0
 21
-212.7532244233999
 31
0.0
  0
LINE
  8
OUTLINE
  6
CONTINUOUS
 62
     3
 10
-106.0
 20
-212.7532244233999
 30
0.0
 11
-109.0000000000036
 21
-212.7532244233999
 31
0.0
  0
LINE
  8
OUTLINE
  6
CONTINUOUS
 62
     3
 10
-109.0000000000036
 20
-212.7532244233999
 30
0.0
 11
-109.0000000000036
 21
-209.79999999639509
 31
0.0
  0
ARC
  8
OUTLINE
  6
CONTINUOUS
 62
     3
 10
-121.00000000000009
 20
-218.79999999640006
 30
0.0
 40
15.000000000000169
 50
36.86989764586724
 51
90.0
  0
LINE
  8
OUTLINE
  6
CONTINUOUS
 62
     3
 10
-121.0
 20
-203.79999999639989
 30
0.0
 11
-130.7704673975195
 21
-203.79999999639989
 31
0.0
  0
ARC
  8
OUTLINE
  6
CONTINUOUS
 62
     3
 10
-130.68523369882726
 20
-237.91466297294127
 30
0.0
 40
34.114769452341264
 50
90.143150206389521
 51
180.14332375287529
  0
LINE
  8
OUTLINE
  6
CONTINUOUS
 62
     3
 10
-164.7998964170429
 20
-238.00000000350019
 30
0.0
 11
-166.0
 21
-238.00000000350019
 31
0.0
  0
LINE
  8
OUTLINE
  6
CONTINUOUS
 62
     3
 10
-166.0
 20
-238.00000000350019
 30
0.0
 11
-166.0
 21
-196.54195563739989
 31
0.0
  0
LINE
  8
OUTLINE
  6
CONTINUOUS
 62
     3
 10
-166.0
 20
-196.54195563739989
 30
0.0
 11
-219.8994622988312
 21
-196.54195563739989
 31
0.0
  0
ARC
  8
OUTLINE
  6
CONTINUOUS
 62
     3
 10
-220.74147085056958
 20
-118.96522630134567
 30
0.0
 40
77.581298731592639
 50
237.18694313948254
 51
270.62185712654218
  0
ARC
  8
OUTLINE
  6
CONTINUOUS
 62
     3
 10
-238.9161792627163
 20
-144.81086447361446
 30
0.0
 40
46.028137966857358
 50
182.51570448905431
 51
238.76687302306709
  0
LINE
  8
OUTLINE
  6
CONTINUOUS
 62
     3
 10
-284.89995660800741
 20
-146.83118765438209
 30
0.0
 11
-284.89995660800469
 21
-81.258000843982813
 31
0.0
  0
ARC
  8
OUTLINE
  6
CONTINUOUS
 62
     3
 10
-264.80896354015931
 20
-70.192335644836476
 30
0.0
 40
22.936803368207396
 50
183.78466508546853
 51
208.84498022836328
  0
LINE
  8
OUTLINE
  6
CONTINUOUS
 62
     3
 10
-287.69574564899989
 20
-71.70632159399986
 30
0.0
 11
-287.69574564899989
 21
-68.700000000000045
 31
0.0
  0
LINE
  8
OUTLINE
  6
CONTINUOUS
 62
     3
 10
-287.69574564899989
 20
-68.700000000000045
 30
0.0
 11
-290.49995660800232
 21
-68.700000000000045
 31
0.0
  0
LINE
  8
OUTLINE
  6
CONTINUOUS
 62
     3
 10
-290.49995660800232
 20
-68.700000000000045
 30
0.0
 11
-290.49995660800232
 21
-59.700000000000053
 31
0.0
  0
ARC
  8
OUTLINE
  6
CONTINUOUS
 62
     3
 10
-291.49995660800232
 20
-59.700000000000031
 30
0.0
 40
0.9999999999999804
 50
0.0
 51
90.0
  0
ARC
  8
OUTLINE
  6
CONTINUOUS
 62
     3
 10
-291.49995660800232
 20
-57.700000000000074
 30
0.0
 40
0.9999999999999804
 50
180.0
 51
270.0
  0
LINE
  8
OUTLINE
  6
CONTINUOUS
 62
     3
 10
-292.49995660800232
 20
-57.700000000000053
 30
0.0
 11
-292.49995660799868
 21
-56.500000000000057
 31
0.0
  0
LINE
  8
OUTLINE
  6
CONTINUOUS
 62
     3
 10
-292.49995660799868
 20
-56.500000000000057
 30
0.0
 11
-313.49995660799868
 21
-56.500000000000057
 31
0.0
  0
ARC
  8
OUTLINE
  6
CONTINUOUS
 62
     3
 10
-313.49995660799863
 20
-49.000000000000007
 30
0.0
 40
7.500000000000048
 50
180.0
 51
270.0
  0
LINE
  8
OUTLINE
  6
CONTINUOUS
 62
     3
 10
-320.99995660799868
 20
-49.000000000000057
 30
0.0
 11
-320.99995660799868
 21
49.0
 31
0.0
  0
ARC
  8
OUTLINE
  6
CONTINUOUS
 62
     3
 10
-313.49995660799863
 20
48.99999999999995
 30
0.0
 40
7.500000000000048
 50
90.0
 51
180.0
  0
LINE
  8
OUTLINE
  6
CONTINUOUS
 62
     3
 10
-313.49995660799868
 20
56.5
 30
0.0
 11
-284.89995660800378
 21
56.5
 31
0.0
  0
LINE
  8
OUTLINE
  6
CONTINUOUS
 62
     3
 10
-284.89995660800378
 20
56.5
 30
0.0
 11
-284.89995660800832
 21
146.74868817238001
 31
0.0
  0
ARC
  8
OUTLINE
  6
CONTINUOUS
 62
     3
 10
-238.61339667483873
 20
144.63626349558271
 30
0.0
 40
46.334738247475215
 50
121.44132036325266
 51
177.38695004821852
  0
ARC
  8
OUTLINE
  6
CONTINUOUS
 62
     3
 10
-220.20899842175788
 20
117.11990041567002
 30
0.0
 40
79.422658405863359
 50
89.77669900928197
 51
122.41450072281958
  0
LINE
  8
OUTLINE
  6
CONTINUOUS
 62
     3
 10
-219.89946229953421
 20
196.54195563739981
 30
0.0
 11
-166.0
 21
196.54195563739981
 31
0.0
  0
LINE
  8
OUTLINE
  6
CONTINUOUS
 62
     3
 10
-166.0
 20
196.54195563739981
 30
0.0
 11
-166.0
 21
237.99999999999989
 31
0.0
  0
LINE
  8
OUTLINE
  6
CONTINUOUS
 62
     3
 10
-166.0
 20
237.99999999999989
 30
0.0
 11
-164.799896417052
 21
238.0
 31
0.0
  0
ARC
  8
OUTLINE
  6
CONTINUOUS
 62
     3
 10
-130.6852336988276
 20
237.91466297294122
 30
0.0
 40
34.114769452341271
 50
179.85667625300323
 51
270.14315020643744
  0
LINE
  8
OUTLINE
  6
CONTINUOUS
 62
     3
 10
-130.6000000001068
 20
203.79999999639989
 30
0.0
 11
-121.0
 21
203.79999999639989
 31
0.0
  0
ARC
  8
OUTLINE
  6
CONTINUOUS
 62
     3
 10
-121.00000000000001
 20
218.79999999639969
 30
0.0
 40
14.999999999999794
 50
270.0
 51
323.13010235748663
  0
LINE
  8
OUTLINE
  6
CONTINUOUS
 62
     3
 10
-108.999999999477
 20
209.79999999709739
 30
0.0
 11
-108.999999999477
 21
212.67072494139791
 31
0.0
  0
LINE
  8
OUTLINE
  6
CONTINUOUS
 62
     3
 10
-108.999999999477
 20
212.67072494139791
 30
0.0
 11
-106.0
 21
212.67072494139791
 31
0.0
  0
LINE
  8
OUTLINE
  6
CONTINUOUS
 62
     3
 10
-106.0
 20
212.67072494139791
 30
0.0
 11
-106.0
 21
255.0
 31
0.0
  0
ARC
  8
OUTLINE
  6
CONTINUOUS
 62
     3
 10
-101.0
 20
255.0
 30
0.0
 40
4.9999999999999991
 50
90.0
 51
180.0
  0
LINE
  8
OUTLINE
  6
CONTINUOUS
 62
     3
 10
-101.0
 20
260.0
 30
0.0
 11
-96.0
 21
260.0
 31
0.0
  0
LINE
  8
OUTLINE
  6
CONTINUOUS
 62
     3
 10
-96.0
 20
260.0
 30
0.0
 11
-96.0
 21
255.0
 31
0.0
  0
LINE
  8
OUTLINE
  6
CONTINUOUS
 62
     3
 10
-96.0
 20
255.0
 30
0.0
 11
-3.0000000000009091
 21
255.00000000000011
 31
0.0
  0
ARC
  8
OUTLINE
  6
CONTINUOUS
 62
     3
 10
-2.9999999999946256
 20
251.99999999999869
 30
0.0
 40
3.0000000000014104
 50
62.703569111157435
 51
90.0
  0
ARC
  8
OUTLINE
  6
CONTINUOUS
 62
     3
 10
-2.8344583887546682
 20
255.30142271512651
 30
0.0
 40
1.3669399493559702
 50
332.29648969490086
 51
347.48458914439686
  0
LINE
  8
OUTLINE
  6
CONTINUOUS
 62
     3
 10
-1.5000000000009091
 20
255.00520381999991
 30
0.0
 11
-0.0000000000009095
 21
255.00520381999979
 31
0.0
  0
LINE
  8
OUTLINE
  6
CONTINUOUS
 62
     3
 10
-0.0000000000009095
 20
255.00520381999979
 30
0.0
 11
-0.0000000000009095
 21
201.1161165239956
 31
0.0
  0
ARC
  8
OUTLINE
  6
CONTINUOUS
 62
     3
 10
-2.6679949390618543
 20
201.70725063526146
 30
0.0
 40
2.7326976657429385
 50
263.02169424959266
 51
347.50708512701817
  0
LINE
  8
OUTLINE
  6
CONTINUOUS
 62
     3
 10
-3.0000000000009091
 20
198.99479618000001
 30
0.0
 11
-3.0000000000009091
 21
197.25735931300011
 31
0.0
  0
LINE
  8
OUTLINE
  6
CONTINUOUS
 62
     3
 10
-3.0000000000009091
 20
197.25735931300011
 30
0.0
 11
-0.0000000000009095
 21
197.25735931300011
 31
0.0
  0
LINE
  8
OUTLINE
  6
CONTINUOUS
 62
     3
 10
-0.0000000000009095
 20
197.25735931300011
 30
0.0
 11
-0.0000000000009095
 21
0.5
 31
0.0
  0
LINE
  8
OUTLINE
  6
CONTINUOUS
 62
     3
 10
-0.0000000000009095
 20
0.5
 30
0.0
 11
-2.0000000000009091
 21
0.5
 31
0.0
  0
LINE
  8
OUTLINE
  6
CONTINUOUS
 62
     3
 10
-2.0000000000009091
 20
0.5
 30
0.0
 11
-2.0000000000009091
 21
-0.5
 31
0.0
  0
LINE
  8
OUTLINE
  6
CONTINUOUS
 62
     3
 10
-2.0000000000009091
 20
-0.5
 30
0.0
 11
-0.0000000000009095
 21
-0.5
 31
0.0
  0
LINE
  8
OUTLINE
  6
CONTINUOUS
 62
     3
 10
-0.0000000000009095
 20
-0.5
 30
0.0
 11
-0.0000000000009095
 21
-197.25735931300011
 31
0.0
  0
LINE
  8
OUTLINE
  6
CONTINUOUS
 62
     3
 10
-0.0000000000009095
 20
-197.25735931300011
 30
0.0
 11
-3.0000000000009091
 21
-197.25735931300011
 31
0.0
  0
LINE
  8
OUTLINE
  6
CONTINUOUS
 62
     3
 10
-3.0000000000009091
 20
-197.25735931300011
 30
0.0
 11
-3.0000000000009091
 21
-198.99479618000001
 31
0.0
  0
ARC
  8
OUTLINE
  6
CONTINUOUS
 62
     3
 10
-2.667994939061948
 20
-201.70725063526157
 30
0.0
 40
2.7326976657430362
 50
12.492914872981999
 51
96.978305750405013
  0
LINE
  8
OUTLINE
  6
CONTINUOUS
 62
     3
 10
-0.0000000000009095
 20
-201.11611652399569
 30
0.0
 11
-0.0000000000009095
 21
-255.00520381999999
 31
0.0
  0
TEXT
  8
NOTE
  6
CONTINUOUS
 62
     4
 10
187.3304229632067
 20
-358.72191765549002
 30
0.0
 40
64.0
  1
4-φ15
 50
0.0
 41
0.9
 51
0.0
  7
STANDARD
 71
     0
 11
0.0
 21
0.0
 31
0.0
210
0.0
220
0.0
230
1.0
  0
LINE
  8
NOTE
  6
CONTINUOUS
 62
     4
 10
187.24042296320661
 20
-371.52191765548997
 30
0.0
 11
456.13042296320651
 21
-371.52191765548997
 31
0.0
  0
LINE
  8
NOTE
  6
CONTINUOUS
 62
     4
 10
17.70822251102382
 20
-255.51541372876477
 30
0.0
 11
-0.0000000000009095
 21
-230.0
 31
0.0
  0
LINE
  8
NOTE
  6
CONTINUOUS
 62
     4
 10
-0.0000000000009095
 20
-230.0
 30
0.0
 11
28.093497371047377
 21
-243.24284288636329
 31
0.0
  0
LINE
  8
NOTE
  6
CONTINUOUS
 62
     4
 10
-0.0000000000009095
 20
-230.0
 30
0.0
 11
45.801719882072106
 21
-268.75825661512806
 31
0.0
  0
LINE
  8
NOTE
  6
CONTINUOUS
 62
     4
 10
45.801719882072078
 20
-268.75825661512812
 30
0.0
 11
167.24042296320661
 21
-371.52191765548997
 31
0.0
  0
LINE
  8
NOTE
  6
CONTINUOUS
 62
     4
 10
167.24042296320661
 20
-371.52191765548997
 30
0.0
 11
187.24042296320661
 21
-371.52191765548997
 31
0.0
  0
TEXT
  8
NOTE
  6
CONTINUOUS
 62
     4
 10
-311.38272588214369
 20
-364.02726805604112
 30
0.0
 40
64.0
  1
EL
 50
0.0
 41
0.9
 51
0.0
  7
STANDARD
 71
     0
 72
     2
 11
-210.00672588214371
 21
-364.02726805604112
 31
0.0
210
0.0
220
0.0
230
1.0
  0
LINE
  8
NOTE
  6
CONTINUOUS
 62
     4
 10
-209.91672588214351
 20
-376.82726805604108
 30
0.0
 11
-295.03529731071501
 21
-376.82726805604108
 31
0.0
  0
LINE
  8
NOTE
  6
CONTINUOUS
 62
     4
 10
-143.76171595547373
 20
-229.13760529336682
 30
0.0
 11
-125.8000000000002
 21
-203.79999999639989
 31
0.0
  0
LINE
  8
NOTE
  6
CONTINUOUS
 62
     4
 10
-125.8000000000002
 20
-203.79999999639989
 30
0.0
 11
-128.68645306398489
 21
-234.72387218213066
 31
0.0
  0
LINE
  8
NOTE
  6
CONTINUOUS
 62
     4
 10
-125.8000000000002
 20
-203.79999999639989
 30
0.0
 11
-146.64816901945844
 21
-260.06147747909762
 31
0.0
  0
LINE
  8
NOTE
  6
CONTINUOUS
 62
     4
 10
-146.64816901945841
 20
-260.06147747909768
 30
0.0
 11
-189.91672588214351
 21
-376.82726805604108
 31
0.0
  0
LINE
  8
NOTE
  6
CONTINUOUS
 62
     4
 10
-189.91672588214351
 20
-376.82726805604108
 30
0.0
 11
-209.91672588214351
 21
-376.82726805604108
 31
0.0
  0
ENDSEC
  0
EOF
