  0
SECTION
  2
HEADER
  9
$ACADVER
  1
AC1009
  9
$DWGCODEPAGE
  3
dos932
  9
$INSBASE
 10
0.0
 20
0.0
 30
0.0
  9
$EXTMIN
 10
-518.89799357030824
 20
-607.22349922547983
 30
-0.0000000349181948
  9
$EXTMAX
 10
1010.60486994754
 20
432.58667775963659
 30
0.0000000814935746
  9
$LIMMIN
 10
-2970.0
 20
-2100.0
  9
$LIMMAX
 10
2970.0
 20
2100.0
  9
$ORTHOMODE
 70
     1
  9
$REGENMODE
 70
     1
  9
$FILLMODE
 70
     1
  9
$QTEXTMODE
 70
     0
  9
$MIRRTEXT
 70
     0
  9
$LTSCALE
 40
20.0
  9
$ATTMODE
 70
     1
  9
$TEXTSIZE
 40
64.0
  9
$TRACEWID
 40
0.05
  9
$TEXTSTYLE
  7
STANDARD
  9
$CLAYER
  8
SIZE
  9
$CELTYPE
  6
CONTINUOUS
  9
$CECOLOR
 62
     7
  9
$DIMSCALE
 40
1.0
  9
$DIMASZ
 40
12.0
  9
$DIMEXO
 40
20.0
  9
$DIMDLI
 40
200.0
  9
$DIMRND
 40
0.0
  9
$DIMDLE
 40
0.0
  9
$DIMEXE
 40
20.0
  9
$DIMTP
 40
0.0
  9
$DIMTM
 40
0.0
  9
$DIMTXT
 40
64.0
  9
$DIMCEN
 40
0.09
  9
$DIMTSZ
 40
0.0
  9
$DIMTOL
 70
     0
  9
$DIMLIM
 70
     0
  9
$DIMTIH
 70
     0
  9
$DIMTOH
 70
     0
  9
$DIMSE1
 70
     0
  9
$DIMSE2
 70
     0
  9
$DIMTAD
 70
     1
  9
$DIMZIN
 70
     8
  9
$DIMBLK
  1

  9
$DIMASO
 70
     1
  9
$DIMSHO
 70
     0
  9
$DIMPOST
  1

  9
$DIMAPOST
  1

  9
$DIMALT
 70
     0
  9
$DIMALTD
 70
     2
  9
$DIMALTF
 40
25.399999999999999
  9
$DIMLFAC
 40
1.0
  9
$DIMTOFL
 70
     1
  9
$DIMTVP
 40
0.0
  9
$DIMTIX
 70
     1
  9
$DIMSOXD
 70
     0
  9
$DIMSAH
 70
     0
  9
$DIMBLK1
  1

  9
$DIMBLK2
  1

  9
$DIMSTYLE
  2
STANDARD
  9
$DIMCLRD
 70
     7
  9
$DIMCLRE
 70
     7
  9
$DIMCLRT
 70
     7
  9
$DIMTFAC
 40
1.0
  9
$DIMGAP
 40
25.0
  9
$LUNITS
 70
     2
  9
$LUPREC
 70
     4
  9
$SKETCHINC
 40
0.1
  9
$FILLETRAD
 40
3.0
  9
$AUNITS
 70
     1
  9
$AUPREC
 70
     3
  9
$MENU
  1
ACAD
  9
$ELEVATION
 40
0.0
  9
$PELEVATION
 40
0.0
  9
$THICKNESS
 40
0.0
  9
$LIMCHECK
 70
     0
  9
$CHAMFERA
 40
0.0
  9
$CHAMFERB
 40
0.0
  9
$SKPOLY
 70
     0
  9
$TDCREATE
 40
2453019.62301037
  9
$TDUPDATE
 40
2459389.497066516
  9
$TDINDWG
 40
1.7264048727
  9
$TDUSRTIMER
 40
1.7264048727
  9
$USRTIMER
 70
     1
  9
$ANGBASE
 50
0.0
  9
$ANGDIR
 70
     0
  9
$PDMODE
 70
     3
  9
$PDSIZE
 40
-2.0
  9
$PLINEWID
 40
0.0
  9
$SPLFRAME
 70
     0
  9
$SPLINETYPE
 70
     6
  9
$SPLINESEGS
 70
     8
  9
$SURFTAB1
 70
     6
  9
$SURFTAB2
 70
     6
  9
$SURFTYPE
 70
     6
  9
$SURFU
 70
     6
  9
$SURFV
 70
     6
  9
$UCSNAME
  2

  9
$UCSORG
 10
0.0
 20
0.0
 30
0.0
  9
$UCSXDIR
 10
1.0
 20
0.0
 30
0.0
  9
$UCSYDIR
 10
0.0
 20
1.0
 30
0.0
  9
$PUCSNAME
  2

  9
$PUCSORG
 10
0.0
 20
0.0
 30
0.0
  9
$PUCSXDIR
 10
1.0
 20
0.0
 30
0.0
  9
$PUCSYDIR
 10
0.0
 20
1.0
 30
0.0
  9
$USERI1
 70
     0
  9
$USERI2
 70
     0
  9
$USERI3
 70
     0
  9
$USERI4
 70
     0
  9
$USERI5
 70
     0
  9
$USERR1
 40
20.0
  9
$USERR2
 40
0.0
  9
$USERR3
 40
0.0
  9
$USERR4
 40
0.0
  9
$USERR5
 40
0.0
  9
$WORLDVIEW
 70
     1
  9
$SHADEDGE
 70
     3
  9
$SHADEDIF
 70
    70
  9
$TILEMODE
 70
     1
  9
$MAXACTVP
 70
    48
  9
$PINSBASE
 10
0.0
 20
0.0
 30
0.0
  9
$PLIMCHECK
 70
     0
  9
$PEXTMIN
 10
-100000000000000000000.0
 20
-100000000000000000000.0
 30
-100000000000000000000.0
  9
$PEXTMAX
 10
100000000000000000000.0
 20
100000000000000000000.0
 30
100000000000000000000.0
  9
$PLIMMIN
 10
0.0
 20
0.0
  9
$PLIMMAX
 10
12.0
 20
9.0
  9
$UNITMODE
 70
     0
  9
$VISRETAIN
 70
     0
  9
$PLINEGEN
 70
     0
  9
$PSLTSCALE
 70
     0
  9
$TREEDEPTH
 70
  3020
  9
$ATTDIA
 70
     0
  9
$ATTREQ
 70
     1
  9
$BLIPMODE
 70
     1
  9
$COORDS
 70
     1
  9
$DRAGMODE
 70
     2
  9
$OSMODE
 70
     0
  9
$HANDLING
 70
     0
  9
$HANDSEED
  5
FB01
  0
ENDSEC
  0
SECTION
  2
TABLES
  0
TABLE
  2
LTYPE
 70
     2
  0
LTYPE
  2
CONTINUOUS
 70
     0
  3
実線
 72
    65
 73
     0
 40
0.0
  0
LTYPE
  2
DASHDOT
 70
     0
  3
____ _ ____ _ ____ _ ____ _ ____ _ ____ _ ____
 72
    65
 73
     4
 40
5.5
 49
4.0
 49
-0.6
 49
0.3
 49
-0.6
  0
ENDTAB
  0
TABLE
  2
LAYER
 70
    12
  0
LAYER
  2
0
 70
     0
 62
     7
  6
CONTINUOUS
  0
LAYER
  2
BASIS
 70
     0
 62
     6
  6
DASHDOT
  0
LAYER
  2
OUTLINE
 70
     0
 62
     3
  6
CONTINUOUS
  0
LAYER
  2
DETAIL
 70
     0
 62
     5
  6
CONTINUOUS
  0
LAYER
  2
SIZE
 70
     0
 62
    30
  6
CONTINUOUS
  0
LAYER
  2
ARRANGE
 70
     0
 62
     1
  6
CONTINUOUS
  0
LAYER
  2
DEFPOINTS
 70
     0
 62
     7
  6
CONTINUOUS
  0
LAYER
  2
ETC
 70
     0
 62
    61
  6
CONTINUOUS
  0
LAYER
  2
FIX
 70
     0
 62
    11
  6
CONTINUOUS
  0
LAYER
  2
NOTE
 70
     0
 62
     4
  6
CONTINUOUS
  0
LAYER
  2
SERVICESPACE
 70
    64
 62
     2
  6
DASHDOT
  0
LAYER
  2
SYMBOLLINE
 70
    64
 62
    15
  6
CONTINUOUS
  0
ENDTAB
  0
TABLE
  2
STYLE
 70
     1
  0
STYLE
  2
STANDARD
 70
     0
 40
64.0
 41
0.9
 50
0.0
 71
     0
 42
64.0
  3
SIMPLEX.shx
  4
BIGFONT.shx
  0
ENDTAB
  0
TABLE
  2
APPID
 70
    20
  0
APPID
  2
ACAD
 70
     0
  0
APPID
  2
AUTOCAD_POSTSCRIPT_FIGURE
 70
     0
  0
APPID
  2
ACAD_EXEMPT_FROM_CAD_STANDARDS
 70
     0
  0
APPID
  2
ACAD_PSEXT
 70
     0
  0
APPID
  2
ACAUTHENVIRON
 70
     0
  0
APPID
  2
GENIUS_GENOENT_13
 70
     0
  0
APPID
  2
GENIUS_GENCFG_13
 70
     0
  0
APPID
  2
GENIUS_GENCFG0_13
 70
     0
  0
APPID
  2
GENIUS_GENCFG1_13
 70
     0
  0
APPID
  2
GENIUS_GENCFG2_13
 70
     0
  0
APPID
  2
GENIUS_GENCFG3_13
 70
     0
  0
APPID
  2
GENIUS_GENCFG4_13
 70
     0
  0
APPID
  2
GENIUS_GEVCFG0_13
 70
     0
  0
APPID
  2
CONTENTBLOCKICON
 70
     0
  0
APPID
  2
CONTENTBLOCKDESCRIPTION
 70
     0
  0
APPID
  2
ACAD_NAV_VCDISPLAY
 70
     0
  0
APPID
  2
ACAD_MLEADERVER
 70
     0
  0
APPID
  2
ACDBDYNAMICBLOCKTRUENAME
 70
     0
  0
APPID
  2
ACDBDYNAMICBLOCKGUID
 70
     0
  0
APPID
  2
ACAD_DSTYLE_DIMRADIAL_EXTENSION
 70
     0
  0
ENDTAB
  0
TABLE
  2
DIMSTYLE
 70
     1
  0
DIMSTYLE
  2
STANDARD
 70
     0
  3

  4

  5
_ORIGIN
  6

  7

 40
1.0
 41
12.0
 42
20.0
 43
200.0
 44
20.0
 45
0.0
 46
0.0
 47
0.0
 48
0.0
140
64.0
141
0.09
142
0.0
143
25.399999999999999
144
1.0
145
0.0
146
1.0
147
25.0
 71
     0
 72
     0
 73
     0
 74
     0
 75
     0
 76
     0
 77
     1
 78
     8
170
     0
171
     2
172
     1
173
     0
174
     1
175
     0
176
     7
177
     7
178
     7
  0
ENDTAB
  0
TABLE
  2
VIEW
 70
     1
  0
VIEW
  2
ALL
 70
     0
 40
4282.6198079999986
 10
0.0
 20
41.309904000000003
 41
5940.0
 11
0.0
 21
0.0
 31
1.0
 12
0.0
 22
0.0
 32
0.0
 42
50.0
 43
0.0
 44
0.0
 50
0.0
 71
     0
  0
ENDTAB
  0
TABLE
  2
UCS
 70
     0
  0
ENDTAB
  0
TABLE
  2
VPORT
 70
     1
  0
VPORT
  2
*ACTIVE
 70
     0
 10
0.0
 20
0.0
 11
1.0
 21
1.0
 12
245.8534381886156
 22
-87.31841073292162
 13
0.0
 23
0.0
 14
1.0
 24
1.0
 15
0.0
 25
0.0
 16
0.0
 26
0.0
 36
1.0
 17
0.0
 27
0.0
 37
0.0
 40
996.48870133014407
 41
1.833137485311398
 42
50.0
 43
0.0
 44
0.0
 50
0.0
 51
0.0
 71
     0
 72
  1000
 73
     1
 74
     3
 75
     0
 76
     0
 77
     0
 78
     0
  0
ENDTAB
  0
ENDSEC
  0
SECTION
  2
BLOCKS
  0
BLOCK
  8
0
  2
_ORIGIN
 70
     0
 10
0.0
 20
0.0
 30
0.0
  3
_ORIGIN
  1
_ORIGIN
  0
CIRCLE
  8
SIZE
  6
CONTINUOUS
 62
    30
 10
0.0
 20
0.0
 30
0.0
 40
0.5
  0
LINE
  8
SIZE
  6
CONTINUOUS
 62
    30
 10
0.0
 20
0.0
 30
0.0
 11
-1.0
 21
0.0
 31
0.0
  0
ENDBLK
  8
0
  0
ENDSEC
  0
SECTION
  2
ENTITIES
  0
LINE
  8
DETAIL
  6
CONTINUOUS
 62
     5
 10
-5.0
 20
-260.00000000000023
 30
0.0
 11
0.0
 21
-260.00000000000023
 31
0.0
  0
LINE
  8
DETAIL
  6
CONTINUOUS
 62
     5
 10
-10.00000000000364
 20
-212.7532244234001
 30
0.0
 11
-13.00000000000364
 21
-212.7532244234001
 31
0.0
  0
LINE
  8
DETAIL
  6
CONTINUOUS
 62
     5
 10
-16.800000000006548
 20
-202.9762889454
 30
0.0
 11
-13.200000000004369
 21
-202.9762889454
 31
0.0
  0
LINE
  8
DETAIL
  6
CONTINUOUS
 62
     5
 10
-15.50000000000364
 20
-198.79690351240009
 30
0.0
 11
-10.00000000000364
 21
-198.79690351240009
 31
0.0
  0
LINE
  8
DETAIL
  6
CONTINUOUS
 62
     5
 10
-17.00000000000728
 20
-197.9762889454
 30
0.0
 11
-15.50000000000364
 21
-197.9762889454
 31
0.0
  0
LINE
  8
DETAIL
  6
CONTINUOUS
 62
     5
 10
-10.00000000000364
 20
-192.29690351240009
 30
0.0
 11
-15.50000000000364
 21
-192.29690351240009
 31
0.0
  0
LINE
  8
DETAIL
  6
CONTINUOUS
 62
     5
 10
-10.00000000000364
 20
-185.79690351240001
 30
0.0
 11
-15.50000000000364
 21
-185.79690351240001
 31
0.0
  0
LINE
  8
DETAIL
  6
CONTINUOUS
 62
     5
 10
-16.800000000006548
 20
-179.11064790440011
 30
0.0
 11
-13.200000000004369
 21
-179.11064790440011
 31
0.0
  0
LINE
  8
DETAIL
  6
CONTINUOUS
 62
     5
 10
-17.00000000000728
 20
-175.46248173039999
 30
0.0
 11
-145.01867235755159
 21
-175.46248173039999
 31
0.0
  0
LINE
  8
DETAIL
  6
CONTINUOUS
 62
     5
 10
-17.00000000000728
 20
-174.11064790440011
 30
0.0
 11
-13.00000000000364
 21
-174.11064790440011
 31
0.0
  0
LINE
  8
DETAIL
  6
CONTINUOUS
 62
     5
 10
-16.800000000006548
 20
-169.11064790440011
 30
0.0
 11
-13.200000000004369
 21
-169.11064790440011
 31
0.0
  0
LINE
  8
DETAIL
  6
CONTINUOUS
 62
     5
 10
-10.00000000000364
 20
-159.3337124264001
 30
0.0
 11
-13.00000000000364
 21
-159.3337124264001
 31
0.0
  0
LINE
  8
DETAIL
  6
CONTINUOUS
 62
     5
 10
-248.9999666665453
 20
49.0
 30
0.0
 11
-248.9999666665453
 21
-49.000000000000227
 31
0.0
  0
LINE
  8
DETAIL
  6
CONTINUOUS
 62
     5
 10
-10.0
 20
-83.125398162900183
 30
0.0
 11
-10.80000000000291
 21
-83.125398162900183
 31
0.0
  0
LINE
  8
DETAIL
  6
CONTINUOUS
 62
     5
 10
-10.80000000000291
 20
-82.399999999900274
 30
0.0
 11
-12.099999999998539
 21
-82.399999999900274
 31
0.0
  0
LINE
  8
DETAIL
  6
CONTINUOUS
 62
     5
 10
-220.4999666665453
 20
-57.700000000000053
 30
0.0
 11
-220.4999666665453
 21
-56.500000000000227
 31
0.0
  0
LINE
  8
DETAIL
  6
CONTINUOUS
 62
     5
 10
-218.499966666549
 20
-68.700000000000159
 30
0.0
 11
-218.499966666549
 21
-59.700000000000053
 31
0.0
  0
LINE
  8
DETAIL
  6
CONTINUOUS
 62
     5
 10
-215.6957557075466
 20
-68.700000000000159
 30
0.0
 11
-215.6957557075466
 21
-71.706321594000087
 31
0.0
  0
LINE
  8
DETAIL
  6
CONTINUOUS
 62
     5
 10
-212.8999666665504
 20
-50.942087733000108
 30
0.0
 11
-212.89996666655409
 21
-146.8311876544
 31
0.0
  0
LINE
  8
DETAIL
  6
CONTINUOUS
 62
     5
 10
-212.8999666665504
 20
50.94208773399987
 30
0.0
 11
-212.899966666555
 21
146.7486881723942
 31
0.0
  0
LINE
  8
DETAIL
  6
CONTINUOUS
 62
     5
 10
-203.2867180125495
 20
74.867859318999763
 30
0.0
 11
-206.1734693585486
 21
71.037637103999941
 31
0.0
  0
LINE
  8
DETAIL
  6
CONTINUOUS
 62
     5
 10
-203.2867180125495
 20
63.292143648999847
 30
0.0
 11
-206.1734693585486
 21
59.461921432999823
 31
0.0
  0
LINE
  8
DETAIL
  6
CONTINUOUS
 62
     5
 10
-56.554166666977842
 20
-73.499999999900183
 30
0.0
 11
-12.55433876100142
 21
-73.499999999900183
 31
0.0
  0
LINE
  8
DETAIL
  6
CONTINUOUS
 62
     5
 10
-11.600000000002179
 20
-72.999999999900183
 30
0.0
 11
-12.099999999998539
 21
-72.999999999900183
 31
0.0
  0
LINE
  8
DETAIL
  6
CONTINUOUS
 62
     5
 10
-10.80000000000291
 20
-72.199999999900228
 30
0.0
 11
-56.054166666981473
 21
-72.199999999900228
 31
0.0
  0
LINE
  8
DETAIL
  6
CONTINUOUS
 62
     5
 10
-12.799999999999271
 20
-65.199999999900228
 30
0.0
 11
-54.054166666977842
 21
-65.199999999900228
 31
0.0
  0
LINE
  8
DETAIL
  6
CONTINUOUS
 62
     5
 10
-206.1734693585486
 20
-70.955137620000187
 30
0.0
 11
-203.2867180125495
 21
-74.785359836000111
 31
0.0
  0
LINE
  8
DETAIL
  6
CONTINUOUS
 62
     5
 10
-206.1734693585486
 20
-59.464470974000051
 30
0.0
 11
-203.2867180125495
 21
-63.2946931890001
 31
0.0
  0
LINE
  8
DETAIL
  6
CONTINUOUS
 62
     5
 10
-206.1734693585486
 20
71.037637103999941
 30
0.0
 11
-206.1734693585486
 21
68.110756422999884
 31
0.0
  0
LINE
  8
DETAIL
  6
CONTINUOUS
 62
     5
 10
-206.1734693585486
 20
59.461921432999823
 30
0.0
 11
-206.1734693585486
 21
56.535040752999983
 31
0.0
  0
LINE
  8
DETAIL
  6
CONTINUOUS
 62
     5
 10
-206.1734693585486
 20
-70.955137620000187
 30
0.0
 11
-206.1734693585486
 21
-68.028256940000119
 31
0.0
  0
LINE
  8
DETAIL
  6
CONTINUOUS
 62
     5
 10
-206.1734693585486
 20
-59.464470974000051
 30
0.0
 11
-206.1734693585486
 21
-56.537590293000221
 31
0.0
  0
LINE
  8
DETAIL
  6
CONTINUOUS
 62
     5
 10
-194.62646397454861
 20
71.037637103999941
 30
0.0
 11
-194.62646397454861
 21
68.110756422999884
 31
0.0
  0
LINE
  8
DETAIL
  6
CONTINUOUS
 62
     5
 10
-194.62646397554909
 20
59.461921432999823
 30
0.0
 11
-194.62646397554909
 21
56.535040752999983
 31
0.0
  0
LINE
  8
DETAIL
  6
CONTINUOUS
 62
     5
 10
-194.62646397454861
 20
-70.955137620000187
 30
0.0
 11
-194.62646397454861
 21
-68.028256940000119
 31
0.0
  0
LINE
  8
DETAIL
  6
CONTINUOUS
 62
     5
 10
-194.62646397454861
 20
-59.464470974000051
 30
0.0
 11
-194.62646397454861
 21
-56.537590293000221
 31
0.0
  0
LINE
  8
DETAIL
  6
CONTINUOUS
 62
     5
 10
-188.39996666654679
 20
-49.081681361000157
 30
0.0
 11
-188.39996666654679
 21
-39.481681361000028
 31
0.0
  0
LINE
  8
DETAIL
  6
CONTINUOUS
 62
     5
 10
-188.39996666654679
 20
39.48168136199979
 30
0.0
 11
-188.39996666654679
 21
49.081681361999927
 31
0.0
  0
LINE
  8
DETAIL
  6
CONTINUOUS
 62
     5
 10
-187.8999666665504
 20
-51.801477001999963
 30
0.0
 11
-187.89996666655409
 21
-144.8203253424
 31
0.0
  0
LINE
  8
DETAIL
  6
CONTINUOUS
 62
     5
 10
-187.8999666665504
 20
51.801477001999963
 30
0.0
 11
-187.899966666555
 21
144.82032534339419
 31
0.0
  0
LINE
  8
DETAIL
  6
CONTINUOUS
 62
     5
 10
-184.3999666665504
 20
-75.82528041400019
 30
0.0
 11
-184.3999666665504
 21
75.825280413999963
 31
0.0
  0
LINE
  8
DETAIL
  6
CONTINUOUS
 62
     5
 10
-181.39996666654679
 20
-75.82528041400019
 30
0.0
 11
-181.39996666654679
 21
75.825280413999963
 31
0.0
  0
LINE
  8
DETAIL
  6
CONTINUOUS
 62
     5
 10
-187.8999666665504
 20
-79.682006072000149
 30
0.0
 11
-187.39996666654679
 21
-79.682006072000149
 31
0.0
  0
LINE
  8
DETAIL
  6
CONTINUOUS
 62
     5
 10
-187.8999666665504
 20
-77.753643243000056
 30
0.0
 11
-187.39996666654679
 21
-77.753643243000056
 31
0.0
  0
LINE
  8
DETAIL
  6
CONTINUOUS
 62
     5
 10
-203.2867180125495
 20
-74.785359836000111
 30
0.0
 11
-197.51321532054769
 21
-74.785359836000111
 31
0.0
  0
LINE
  8
DETAIL
  6
CONTINUOUS
 62
     5
 10
-181.39996666654679
 20
-70.500000000000114
 30
0.0
 11
-177.39996666654679
 21
-70.500000000000114
 31
0.0
  0
LINE
  8
DETAIL
  6
CONTINUOUS
 62
     5
 10
-177.39996666654679
 20
-69.050000000000068
 30
0.0
 11
-174.1999666665497
 21
-69.050000000000068
 31
0.0
  0
LINE
  8
DETAIL
  6
CONTINUOUS
 62
     5
 10
-212.8999666665504
 20
-68.700000000000159
 30
0.0
 11
-218.499832573546
 21
-68.700000000000159
 31
0.0
  0
LINE
  8
DETAIL
  6
CONTINUOUS
 62
     5
 10
-177.39996666654679
 20
-70.499877848000096
 30
0.0
 11
-177.39996666654679
 21
70.499877847999869
 31
0.0
  0
LINE
  8
DETAIL
  6
CONTINUOUS
 62
     5
 10
-174.1999666665497
 20
69.049999999999955
 30
0.0
 11
-174.1999666665497
 21
60.949999999999818
 31
0.0
  0
LINE
  8
DETAIL
  6
CONTINUOUS
 62
     5
 10
-174.1999666665497
 20
-60.950000000000159
 30
0.0
 11
-174.1999666665497
 21
-69.050000000000068
 31
0.0
  0
LINE
  8
DETAIL
  6
CONTINUOUS
 62
     5
 10
-172.39996666654679
 20
49.281681361999972
 30
0.0
 11
-172.39996666654679
 21
39.281681361999972
 31
0.0
  0
LINE
  8
DETAIL
  6
CONTINUOUS
 62
     5
 10
-172.39996666654679
 20
-39.28168136100021
 30
0.0
 11
-172.39996666654679
 21
-49.281681360999983
 31
0.0
  0
LINE
  8
DETAIL
  6
CONTINUOUS
 62
     5
 10
-171.39996666654679
 20
66.494698136999887
 30
0.0
 11
-171.39996666654679
 21
63.505301863999883
 31
0.0
  0
LINE
  8
DETAIL
  6
CONTINUOUS
 62
     5
 10
-171.39996666654679
 20
-63.505301863000113
 30
0.0
 11
-171.39996666654679
 21
-66.494698136000125
 31
0.0
  0
LINE
  8
DETAIL
  6
CONTINUOUS
 62
     5
 10
-170.3999666665504
 20
47.281681361999972
 30
0.0
 11
-170.3999666665504
 21
41.281681361999972
 31
0.0
  0
LINE
  8
DETAIL
  6
CONTINUOUS
 62
     5
 10
-170.3999666665504
 20
-41.28168136100021
 30
0.0
 11
-170.3999666665504
 21
-47.28168136100021
 31
0.0
  0
LINE
  8
DETAIL
  6
CONTINUOUS
 62
     5
 10
-14.91944341547878
 20
199.71995752939779
 30
0.0
 11
-15.499999999477041
 21
198.71440402939771
 31
0.0
  0
LINE
  8
DETAIL
  6
CONTINUOUS
 62
     5
 10
-177.39996666654679
 20
-67.022437298000114
 30
0.0
 11
-174.1999666665497
 21
-67.022437298000114
 31
0.0
  0
LINE
  8
DETAIL
  6
CONTINUOUS
 62
     5
 10
-174.1999666665497
 20
-66.500000000000114
 30
0.0
 11
-171.39996666654679
 21
-66.500000000000114
 31
0.0
  0
LINE
  8
DETAIL
  6
CONTINUOUS
 62
     5
 10
-174.1999666665497
 20
-63.500000000000107
 30
0.0
 11
-171.39996666654679
 21
-63.500000000000107
 31
0.0
  0
LINE
  8
DETAIL
  6
CONTINUOUS
 62
     5
 10
-203.2867180125495
 20
-63.2946931890001
 30
0.0
 11
-197.51321532054769
 21
-63.2946931890001
 31
0.0
  0
LINE
  8
DETAIL
  6
CONTINUOUS
 62
     5
 10
-177.39996666654679
 20
-62.977562701000117
 30
0.0
 11
-174.1999666665497
 21
-62.977562701000117
 31
0.0
  0
LINE
  8
DETAIL
  6
CONTINUOUS
 62
     5
 10
-177.39996666654679
 20
-60.950000000000159
 30
0.0
 11
-174.1999666665497
 21
-60.950000000000159
 31
0.0
  0
LINE
  8
DETAIL
  6
CONTINUOUS
 62
     5
 10
-212.8999666665504
 20
-58.700000000000053
 30
0.0
 11
-219.499966666549
 21
-58.700000000000053
 31
0.0
  0
LINE
  8
DETAIL
  6
CONTINUOUS
 62
     5
 10
-241.4999666665453
 20
-56.500000000000227
 30
0.0
 11
-212.8999666665504
 21
-56.500000000000227
 31
0.0
  0
LINE
  8
DETAIL
  6
CONTINUOUS
 62
     5
 10
-172.8999666665504
 20
-56.200000000000053
 30
0.0
 11
-131.10212408953791
 21
-56.200000000000053
 31
0.0
  0
LINE
  8
DETAIL
  6
CONTINUOUS
 62
     5
 10
-209.89996666654679
 20
-49.420844189000043
 30
0.0
 11
-190.89996666654679
 21
-49.420844189000043
 31
0.0
  0
LINE
  8
DETAIL
  6
CONTINUOUS
 62
     5
 10
-188.19996666654609
 20
-49.281681360999983
 30
0.0
 11
-184.59996666654749
 21
-49.281681360999983
 31
0.0
  0
LINE
  8
DETAIL
  6
CONTINUOUS
 62
     5
 10
-177.39996666654679
 20
-49.281681360999983
 30
0.0
 11
-172.39996666654679
 21
-49.281681360999983
 31
0.0
  0
LINE
  8
DETAIL
  6
CONTINUOUS
 62
     5
 10
-188.39996666654679
 20
-48.643954404000169
 30
0.0
 11
-209.89996666654679
 21
-48.643954404000169
 31
0.0
  0
LINE
  8
DETAIL
  6
CONTINUOUS
 62
     5
 10
-172.39996666654679
 20
-47.28168136100021
 30
0.0
 11
-170.3999666665504
 21
-47.28168136100021
 31
0.0
  0
LINE
  8
DETAIL
  6
CONTINUOUS
 62
     5
 10
-188.39996666654679
 20
-44.281681360999983
 30
0.0
 11
-184.3999666665504
 21
-44.281681360999983
 31
0.0
  0
LINE
  8
DETAIL
  6
CONTINUOUS
 62
     5
 10
-177.39996666654679
 20
-44.281681360999983
 30
0.0
 11
-172.3999666665504
 21
-44.281681360999983
 31
0.0
  0
LINE
  8
DETAIL
  6
CONTINUOUS
 62
     5
 10
-172.39996666654679
 20
-41.28168136100021
 30
0.0
 11
-170.3999666665504
 21
-41.28168136100021
 31
0.0
  0
LINE
  8
DETAIL
  6
CONTINUOUS
 62
     5
 10
-188.19996666654609
 20
-39.28168136100021
 30
0.0
 11
-184.59996666654749
 21
-39.28168136100021
 31
0.0
  0
LINE
  8
DETAIL
  6
CONTINUOUS
 62
     5
 10
-177.39996666654679
 20
-39.28168136100021
 30
0.0
 11
-172.39996666654679
 21
-39.28168136100021
 31
0.0
  0
LINE
  8
DETAIL
  6
CONTINUOUS
 62
     5
 10
-197.51321532054769
 20
-63.2946931890001
 30
0.0
 11
-194.62646397454861
 21
-59.464470974000051
 31
0.0
  0
LINE
  8
DETAIL
  6
CONTINUOUS
 62
     5
 10
-197.51321532054769
 20
-74.785359836000111
 30
0.0
 11
-194.62646397454861
 21
-70.955137620000187
 31
0.0
  0
LINE
  8
DETAIL
  6
CONTINUOUS
 62
     5
 10
-194.62646397554909
 20
59.461921432999823
 30
0.0
 11
-197.51321532054769
 21
63.292143648999847
 31
0.0
  0
LINE
  8
DETAIL
  6
CONTINUOUS
 62
     5
 10
-194.62646397454861
 20
71.037637103999941
 30
0.0
 11
-197.51321532054769
 21
74.867859318999763
 31
0.0
  0
LINE
  8
DETAIL
  6
CONTINUOUS
 62
     5
 10
-113.2113899105498
 20
7.9820955779998712
 30
0.0
 11
-113.5191666665451
 21
11.5
 31
0.0
  0
LINE
  8
DETAIL
  6
CONTINUOUS
 62
     5
 10
-115.0191666665487
 20
45.699999999999818
 30
0.0
 11
-115.0191666665487
 21
-34.057066288982242
 31
0.0
  0
LINE
  8
DETAIL
  6
CONTINUOUS
 62
     5
 10
-114.5191666665451
 20
-11.5
 30
0.0
 11
-114.5191666665451
 21
11.5
 31
0.0
  0
LINE
  8
DETAIL
  6
CONTINUOUS
 62
     5
 10
-113.5191666665451
 20
-11.5
 30
0.0
 11
-113.5191666665451
 21
11.5
 31
0.0
  0
LINE
  8
DETAIL
  6
CONTINUOUS
 62
     5
 10
-111.0191666665451
 20
-6.4994829440001922
 30
0.0
 11
-111.0191666665451
 21
6.4994829449999543
 31
0.0
  0
LINE
  8
DETAIL
  6
CONTINUOUS
 62
     5
 10
-113.2113899105498
 20
-7.9820955770001092
 30
0.0
 11
-113.5191666665451
 21
-11.5
 31
0.0
  0
LINE
  8
DETAIL
  6
CONTINUOUS
 62
     5
 10
-111.0191666665451
 20
-6.5
 30
0.0
 11
-111.92585751454681
 21
-6.627427088000104
 31
0.0
  0
LINE
  8
DETAIL
  6
CONTINUOUS
 62
     5
 10
-113.5191666665451
 20
-11.5
 30
0.0
 11
-114.5191666665451
 21
-11.5
 31
0.0
  0
LINE
  8
DETAIL
  6
CONTINUOUS
 62
     5
 10
-115.0191666665487
 20
-5.0
 30
0.0
 11
-114.5191666665451
 21
-5.0
 31
0.0
  0
LINE
  8
DETAIL
  6
CONTINUOUS
 62
     5
 10
-111.0191666665451
 20
-5.0
 30
0.0
 11
-82.139999999664724
 21
-5.0
 31
0.0
  0
LINE
  8
BASIS
  6
DASHDOT
 62
     6
 10
-264.82531016154729
 20
0.0
 30
0.0
 11
15.97904075300085
 21
-0.0000000000002274
 31
0.0
  0
LINE
  8
DETAIL
  6
CONTINUOUS
 62
     5
 10
-57.354166666977108
 20
-70.899999999900274
 30
0.0
 11
-57.354166666977108
 21
51.900000000099681
 31
0.0
  0
LINE
  8
DETAIL
  6
CONTINUOUS
 62
     5
 10
-56.554166666977842
 20
54.500000000099817
 30
0.0
 11
-56.554166666977842
 21
53.099854437099793
 31
0.0
  0
LINE
  8
DETAIL
  6
CONTINUOUS
 62
     5
 10
-56.554166666977842
 20
-72.099854436900159
 30
0.0
 11
-56.554166666977842
 21
-73.499999999900183
 31
0.0
  0
LINE
  8
DETAIL
  6
CONTINUOUS
 62
     5
 10
-56.054166666981473
 20
-67.199999999900228
 30
0.0
 11
-56.054166666981473
 21
-72.199999999900228
 31
0.0
  0
LINE
  8
DETAIL
  6
CONTINUOUS
 62
     5
 10
-56.054166666981473
 20
48.200000000099863
 30
0.0
 11
-56.054166666981473
 21
53.200000000099863
 31
0.0
  0
LINE
  8
DETAIL
  6
CONTINUOUS
 62
     5
 10
-115.0191666665487
 20
5.0
 30
0.0
 11
-114.5191666665451
 21
5.0
 31
0.0
  0
LINE
  8
DETAIL
  6
CONTINUOUS
 62
     5
 10
-111.0191666665451
 20
5.0
 30
0.0
 11
-82.139999999664724
 21
5.0
 31
0.0
  0
LINE
  8
DETAIL
  6
CONTINUOUS
 62
     5
 10
-113.5191666665451
 20
11.5
 30
0.0
 11
-114.5191666665451
 21
11.5
 31
0.0
  0
LINE
  8
DETAIL
  6
CONTINUOUS
 62
     5
 10
-111.0191666665451
 20
6.5
 30
0.0
 11
-111.92585751454681
 21
6.6274270889998661
 31
0.0
  0
LINE
  8
DETAIL
  6
CONTINUOUS
 62
     5
 10
-12.799999999999271
 20
46.200000000099863
 30
0.0
 11
-54.054166666977842
 21
46.200000000099863
 31
0.0
  0
LINE
  8
DETAIL
  6
CONTINUOUS
 62
     5
 10
-10.0
 20
52.125398164099813
 30
0.0
 11
-10.80000000000291
 21
52.125398164099813
 31
0.0
  0
LINE
  8
DETAIL
  6
CONTINUOUS
 62
     5
 10
-10.80000000000291
 20
53.200000000099863
 30
0.0
 11
-56.054166666981473
 21
53.200000000099863
 31
0.0
  0
LINE
  8
DETAIL
  6
CONTINUOUS
 62
     5
 10
-11.600000000002179
 20
54.000000000099817
 30
0.0
 11
-12.099999999998539
 21
54.000000000099817
 31
0.0
  0
LINE
  8
DETAIL
  6
CONTINUOUS
 62
     5
 10
-56.554166666977842
 20
54.500000000099817
 30
0.0
 11
-12.55433876100142
 21
54.500000000099817
 31
0.0
  0
LINE
  8
DETAIL
  6
CONTINUOUS
 62
     5
 10
-188.19996666654609
 20
39.281681361999972
 30
0.0
 11
-184.59996666654749
 21
39.281681361999972
 31
0.0
  0
LINE
  8
DETAIL
  6
CONTINUOUS
 62
     5
 10
-177.39996666654679
 20
39.281681361999972
 30
0.0
 11
-172.39996666654679
 21
39.281681361999972
 31
0.0
  0
LINE
  8
DETAIL
  6
CONTINUOUS
 62
     5
 10
-17.00000000000728
 20
-202.77628894540001
 30
0.0
 11
-17.00000000000728
 21
-196.54195563740001
 31
0.0
  0
LINE
  8
DETAIL
  6
CONTINUOUS
 62
     5
 10
-17.00000000000728
 20
-178.91064790440001
 30
0.0
 11
-17.00000000000728
 21
-169.31064790440001
 31
0.0
  0
LINE
  8
DETAIL
  6
CONTINUOUS
 62
     5
 10
-16.999999999480679
 20
196.54195563739771
 30
0.0
 11
-16.999999999480679
 21
202.69378946339791
 31
0.0
  0
LINE
  8
DETAIL
  6
CONTINUOUS
 62
     5
 10
-15.50000000000364
 20
-198.79690351240009
 30
0.0
 11
-15.50000000000364
 21
-185.79690351240001
 31
0.0
  0
LINE
  8
DETAIL
  6
CONTINUOUS
 62
     5
 10
-15.499999999477041
 20
185.7147359123978
 30
0.0
 11
-15.499999999477041
 21
198.7140721473977
 31
0.0
  0
LINE
  8
DETAIL
  6
CONTINUOUS
 62
     5
 10
-13.00000000000364
 20
-212.7532244234001
 30
0.0
 11
-13.00000000000364
 21
-198.79690351240009
 31
0.0
  0
LINE
  8
DETAIL
  6
CONTINUOUS
 62
     5
 10
-13.00000000000364
 20
-185.79690351240001
 30
0.0
 11
-13.00000000000364
 21
-159.3337124264001
 31
0.0
  0
LINE
  8
DETAIL
  6
CONTINUOUS
 62
     5
 10
-12.999999999477041
 20
199.71995752939779
 30
0.0
 11
-12.999999999477041
 21
212.67072494139779
 31
0.0
  0
LINE
  8
DETAIL
  6
CONTINUOUS
 62
     5
 10
-12.099999999998539
 20
63.400000000099681
 30
0.0
 11
-12.099999999998539
 21
54.000000000099817
 31
0.0
  0
LINE
  8
DETAIL
  6
CONTINUOUS
 62
     5
 10
-12.099999999998539
 20
-72.999999999900183
 30
0.0
 11
-12.099999999998539
 21
-82.399999999900274
 31
0.0
  0
LINE
  8
DETAIL
  6
CONTINUOUS
 62
     5
 10
-11.600000000002179
 20
-82.399999999900274
 30
0.0
 11
-11.600000000002179
 21
-72.699999999900228
 31
0.0
  0
LINE
  8
DETAIL
  6
CONTINUOUS
 62
     5
 10
-11.600000000002179
 20
53.700000000099863
 30
0.0
 11
-11.600000000002179
 21
63.400000000099681
 31
0.0
  0
LINE
  8
DETAIL
  6
CONTINUOUS
 62
     5
 10
-10.80000000000291
 20
-83.125398162900183
 30
0.0
 11
-10.80000000000291
 21
64.125398164099806
 31
0.0
  0
LINE
  8
DETAIL
  6
CONTINUOUS
 62
     5
 10
-10.0
 20
-255.0000000000002
 30
0.0
 11
-10.0
 21
255.0
 31
0.0
  0
LINE
  8
DETAIL
  6
CONTINUOUS
 62
     5
 10
-172.39996666654679
 20
41.281681361999972
 30
0.0
 11
-170.3999666665504
 21
41.281681361999972
 31
0.0
  0
LINE
  8
DETAIL
  6
CONTINUOUS
 62
     5
 10
-188.39996666654679
 20
44.281681361999972
 30
0.0
 11
-184.3999666665504
 21
44.281681361999972
 31
0.0
  0
LINE
  8
DETAIL
  6
CONTINUOUS
 62
     5
 10
-177.39996666654679
 20
44.281681361999972
 30
0.0
 11
-172.39996666654679
 21
44.281681361999972
 31
0.0
  0
LINE
  8
DETAIL
  6
CONTINUOUS
 62
     5
 10
-12.099999999998539
 20
63.400000000099681
 30
0.0
 11
-10.80000000000291
 21
63.400000000099681
 31
0.0
  0
LINE
  8
DETAIL
  6
CONTINUOUS
 62
     5
 10
-10.80000000000291
 20
64.125398164099806
 30
0.0
 11
-10.0
 21
64.125398164099806
 31
0.0
  0
LINE
  8
DETAIL
  6
CONTINUOUS
 62
     5
 10
-172.39996666654679
 20
47.281681361999972
 30
0.0
 11
-170.3999666665504
 21
47.281681361999972
 31
0.0
  0
LINE
  8
DETAIL
  6
CONTINUOUS
 62
     5
 10
-188.39996666654679
 20
48.643954404999931
 30
0.0
 11
-209.89996666654679
 21
48.643954404999931
 31
0.0
  0
LINE
  8
DETAIL
  6
CONTINUOUS
 62
     5
 10
-188.19996666654609
 20
49.281681361999972
 30
0.0
 11
-184.59996666654749
 21
49.281681361999972
 31
0.0
  0
LINE
  8
DETAIL
  6
CONTINUOUS
 62
     5
 10
-177.39996666654679
 20
49.281681361999972
 30
0.0
 11
-172.39996666654679
 21
49.281681361999972
 31
0.0
  0
LINE
  8
DETAIL
  6
CONTINUOUS
 62
     5
 10
-209.89996666654679
 20
49.50334367299979
 30
0.0
 11
-190.89996666654679
 21
49.50334367299979
 31
0.0
  0
LINE
  8
DETAIL
  6
CONTINUOUS
 62
     5
 10
-241.4999666665453
 20
56.5
 30
0.0
 11
-212.8999666665504
 21
56.5
 31
0.0
  0
LINE
  8
DETAIL
  6
CONTINUOUS
 62
     5
 10
-172.8999666665504
 20
56.199999999999818
 30
0.0
 11
-125.5191666665451
 21
56.199999999999818
 31
0.0
  0
LINE
  8
DETAIL
  6
CONTINUOUS
 62
     5
 10
0.0
 20
-260.00000000000023
 30
0.0
 11
0.0
 21
260.0
 31
0.0
  0
LINE
  8
DETAIL
  6
CONTINUOUS
 62
     5
 10
-177.39996666654679
 20
60.949999999999818
 30
0.0
 11
-174.1999666665497
 21
60.949999999999818
 31
0.0
  0
LINE
  8
DETAIL
  6
CONTINUOUS
 62
     5
 10
-177.39996666654679
 20
62.977562701999886
 30
0.0
 11
-174.1999666665497
 21
62.977562701999886
 31
0.0
  0
LINE
  8
DETAIL
  6
CONTINUOUS
 62
     5
 10
-197.51321532054769
 20
63.292143648999847
 30
0.0
 11
-203.2867180125495
 21
63.292143648999847
 31
0.0
  0
LINE
  8
DETAIL
  6
CONTINUOUS
 62
     5
 10
-174.1999666665497
 20
63.5
 30
0.0
 11
-171.39996666654679
 21
63.5
 31
0.0
  0
LINE
  8
DETAIL
  6
CONTINUOUS
 62
     5
 10
-174.1999666665497
 20
66.5
 30
0.0
 11
-171.39996666654679
 21
66.5
 31
0.0
  0
LINE
  8
DETAIL
  6
CONTINUOUS
 62
     5
 10
-177.39996666654679
 20
67.022437298999876
 30
0.0
 11
-174.1999666665497
 21
67.022437298999876
 31
0.0
  0
LINE
  8
DETAIL
  6
CONTINUOUS
 62
     5
 10
-177.39996666654679
 20
69.049999999999955
 30
0.0
 11
-174.1999666665497
 21
69.049999999999955
 31
0.0
  0
LINE
  8
DETAIL
  6
CONTINUOUS
 62
     5
 10
-181.39996666654679
 20
70.5
 30
0.0
 11
-177.39996666654679
 21
70.5
 31
0.0
  0
LINE
  8
DETAIL
  6
CONTINUOUS
 62
     5
 10
-197.51321532054769
 20
74.867859318999763
 30
0.0
 11
-203.2867180125495
 21
74.867859318999763
 31
0.0
  0
LINE
  8
DETAIL
  6
CONTINUOUS
 62
     5
 10
-187.8999666665504
 20
77.753643242999942
 30
0.0
 11
-187.39996666654679
 21
77.753643242999942
 31
0.0
  0
LINE
  8
DETAIL
  6
CONTINUOUS
 62
     5
 10
-187.8999666665504
 20
79.682006071999922
 30
0.0
 11
-187.39996666654679
 21
79.682006071999922
 31
0.0
  0
LINE
  8
DETAIL
  6
CONTINUOUS
 62
     5
 10
-14.91944341547878
 20
184.70885053039771
 30
0.0
 11
-15.499999999477041
 21
185.71440402939771
 31
0.0
  0
LINE
  8
DETAIL
  6
CONTINUOUS
 62
     5
 10
-145.01867235755159
 20
175.46248173039979
 30
0.0
 11
-16.00000000000728
 21
175.46248173039979
 31
0.0
  0
LINE
  8
DETAIL
  6
CONTINUOUS
 62
     5
 10
-9.9999999994770405
 20
184.70885053039771
 30
0.0
 11
-14.91944341547878
 21
184.70885053039771
 31
0.0
  0
LINE
  8
DETAIL
  6
CONTINUOUS
 62
     5
 10
-9.9999999994770405
 20
188.46162728039781
 30
0.0
 11
-15.499999999473401
 21
188.46162728039761
 31
0.0
  0
LINE
  8
DETAIL
  6
CONTINUOUS
 62
     5
 10
-15.50000000000728
 20
194.61359280839969
 30
0.0
 11
-145.01867235755159
 21
194.61359280839969
 31
0.0
  0
LINE
  8
DETAIL
  6
CONTINUOUS
 62
     5
 10
-9.9999999994770405
 20
195.96718077939769
 30
0.0
 11
-15.499999999473401
 21
195.96718077939769
 31
0.0
  0
LINE
  8
DETAIL
  6
CONTINUOUS
 62
     5
 10
-15.50000000000728
 20
196.5419556373997
 30
0.0
 11
-145.01867235755159
 21
196.5419556373997
 31
0.0
  0
LINE
  8
DETAIL
  6
CONTINUOUS
 62
     5
 10
-16.999999999480679
 20
197.89378946339781
 30
0.0
 11
-15.499999999477041
 21
197.89378946339781
 31
0.0
  0
LINE
  8
DETAIL
  6
CONTINUOUS
 62
     5
 10
-9.9999999994770405
 20
199.71995752939779
 30
0.0
 11
-14.91944341547878
 21
199.71995752939779
 31
0.0
  0
LINE
  8
DETAIL
  6
CONTINUOUS
 62
     5
 10
-16.799999999479951
 20
202.89378946339781
 30
0.0
 11
-13.19999999947777
 21
202.89378946339781
 31
0.0
  0
LINE
  8
DETAIL
  6
CONTINUOUS
 62
     5
 10
-9.9999999994770405
 20
212.67072494139779
 30
0.0
 11
-12.999999999477041
 21
212.67072494139779
 31
0.0
  0
LINE
  8
DETAIL
  6
CONTINUOUS
 62
     5
 10
-5.0
 20
260.0
 30
0.0
 11
0.0
 21
260.0
 31
0.0
  0
ARC
  8
DETAIL
  6
CONTINUOUS
 62
     5
 10
-174.73998539354849
 20
-144.81955729640001
 30
0.0
 40
38.159981281
 50
180.0011531928952
 51
182.8953602862974
  0
ARC
  8
DETAIL
  6
CONTINUOUS
 62
     5
 10
-241.4999666665453
 20
-49.000000000000227
 30
0.0
 40
7.5
 50
180.0
 51
270.0
  0
ARC
  8
DETAIL
  6
CONTINUOUS
 62
     5
 10
-172.8999666665504
 20
-60.700000000000159
 30
0.0
 40
4.5
 50
90.0
 51
180.0
  0
ARC
  8
DETAIL
  6
CONTINUOUS
 62
     5
 10
-111.71709786254721
 20
-8.1128291910001735
 30
0.0
 40
1.5
 50
98.000000000013785
 51
175.00000000000051
  0
ARC
  8
DETAIL
  6
CONTINUOUS
 62
     5
 10
-219.499966666549
 20
-57.700000000000053
 30
0.0
 40
1.0
 50
180.0
 51
270.0
  0
ARC
  8
DETAIL
  6
CONTINUOUS
 62
     5
 10
-219.499966666549
 20
-59.700000000000053
 30
0.0
 40
1.0
 50
0.0
 51
90.0
  0
ARC
  8
DETAIL
  6
CONTINUOUS
 62
     5
 10
-188.19996666654609
 20
-39.481681361000028
 30
0.0
 40
0.2
 50
90.000000000104222
 51
180.0
  0
ARC
  8
DETAIL
  6
CONTINUOUS
 62
     5
 10
-188.19996666654609
 20
-49.081681361000157
 30
0.0
 40
0.2
 50
180.00000000010431
 51
269.99999999989569
  0
ARC
  8
DETAIL
  6
CONTINUOUS
 62
     5
 10
-184.59996666654749
 20
-49.081681361000157
 30
0.0
 40
0.2
 50
269.99999999989569
 51
0.0
  0
ARC
  8
DETAIL
  6
CONTINUOUS
 62
     5
 10
-184.59996666654749
 20
-39.481681361000028
 30
0.0
 40
0.2
 50
0.0
 51
90.000000000104222
  0
ARC
  8
DETAIL
  6
CONTINUOUS
 62
     5
 10
-174.7399853935494
 20
144.81955729639441
 30
0.0
 40
38.159981281
 50
177.1046397137026
 51
179.9988468071048
  0
ARC
  8
DETAIL
  6
CONTINUOUS
 62
     5
 10
-125.5191666665451
 20
45.699999999999818
 30
0.0
 40
10.5
 50
0.0
 51
90.0
  0
ARC
  8
DETAIL
  6
CONTINUOUS
 62
     5
 10
-241.4999666665453
 20
49.0
 30
0.0
 40
7.5
 50
90.0
 51
180.0
  0
ARC
  8
DETAIL
  6
CONTINUOUS
 62
     5
 10
-172.8999666665504
 20
60.699999999999818
 30
0.0
 40
4.5
 50
180.0
 51
270.0
  0
ARC
  8
DETAIL
  6
CONTINUOUS
 62
     5
 10
-111.71709786254721
 20
8.1128291919999356
 30
0.0
 40
1.5
 50
184.99999999999949
 51
261.99999999998619
  0
ARC
  8
DETAIL
  6
CONTINUOUS
 62
     5
 10
-188.19996666654609
 20
49.081681361999927
 30
0.0
 40
0.2
 50
90.000000000104222
 51
180.0
  0
ARC
  8
DETAIL
  6
CONTINUOUS
 62
     5
 10
-188.19996666654609
 20
39.48168136199979
 30
0.0
 40
0.2
 50
180.00000000010431
 51
269.99999999989569
  0
ARC
  8
DETAIL
  6
CONTINUOUS
 62
     5
 10
-184.59996666654749
 20
39.48168136199979
 30
0.0
 40
0.2
 50
269.99999999989569
 51
0.0
  0
ARC
  8
DETAIL
  6
CONTINUOUS
 62
     5
 10
-184.59996666654749
 20
49.081681361999927
 30
0.0
 40
0.2
 50
0.0
 51
90.000000000104222
  0
ARC
  8
DETAIL
  6
CONTINUOUS
 62
     5
 10
-7.5775000000030559
 20
-77.699999999900228
 30
0.0
 40
6.5225
 50
133.89739816709471
 51
226.10260183290529
  0
ARC
  8
DETAIL
  6
CONTINUOUS
 62
     5
 10
-5.0
 20
-255.0000000000002
 30
0.0
 40
5.0
 50
180.0
 51
270.0
  0
ARC
  8
DETAIL
  6
CONTINUOUS
 62
     5
 10
-12.799999999999271
 20
-67.199999999900228
 30
0.0
 40
2.0
 50
0.0
 51
90.0
  0
ARC
  8
DETAIL
  6
CONTINUOUS
 62
     5
 10
-54.054166666977842
 20
-67.199999999900228
 30
0.0
 40
2.0
 50
90.0
 51
180.0
  0
ARC
  8
DETAIL
  6
CONTINUOUS
 62
     5
 10
-56.054166666981473
 20
-70.899999999900274
 30
0.0
 40
1.3
 50
180.0
 51
270.0
  0
ARC
  8
DETAIL
  6
CONTINUOUS
 62
     5
 10
-12.099999999998539
 20
-72.699999999900228
 30
0.0
 40
0.5
 50
0.0
 51
90.000000000104222
  0
ARC
  8
DETAIL
  6
CONTINUOUS
 62
     5
 10
-16.800000000006548
 20
-202.77628894540001
 30
0.0
 40
0.2
 50
180.00000000010431
 51
269.99999999989569
  0
ARC
  8
DETAIL
  6
CONTINUOUS
 62
     5
 10
-13.200000000004369
 20
-202.77628894540001
 30
0.0
 40
0.2
 50
269.99999999989569
 51
0.0
  0
ARC
  8
DETAIL
  6
CONTINUOUS
 62
     5
 10
-16.800000000006548
 20
-169.31064790440001
 30
0.0
 40
0.2
 50
90.000000000104222
 51
180.0
  0
ARC
  8
DETAIL
  6
CONTINUOUS
 62
     5
 10
-16.800000000006548
 20
-178.91064790440001
 30
0.0
 40
0.2
 50
180.00000000010431
 51
269.99999999989569
  0
ARC
  8
DETAIL
  6
CONTINUOUS
 62
     5
 10
-13.200000000004369
 20
-169.31064790440001
 30
0.0
 40
0.2
 50
0.0
 51
90.000000000104222
  0
ARC
  8
DETAIL
  6
CONTINUOUS
 62
     5
 10
-13.200000000004369
 20
-178.91064790440001
 30
0.0
 40
0.2
 50
269.99999999989569
 51
0.0
  0
ARC
  8
DETAIL
  6
CONTINUOUS
 62
     5
 10
-7.5775000000030559
 20
58.700000000099863
 30
0.0
 40
6.5225
 50
133.89739816709471
 51
226.10260183290529
  0
ARC
  8
DETAIL
  6
CONTINUOUS
 62
     5
 10
-5.0
 20
255.0
 30
0.0
 40
5.0
 50
90.0
 51
180.0
  0
ARC
  8
DETAIL
  6
CONTINUOUS
 62
     5
 10
-12.69529046847765
 20
186.58551024039781
 30
0.0
 40
2.8047095440000001
 50
180.00554296499871
 51
182.94743713529971
  0
ARC
  8
DETAIL
  6
CONTINUOUS
 62
     5
 10
-12.69531400347933
 20
197.8432977213977
 30
0.0
 40
2.8046860090000001
 50
177.05255766099569
 51
179.99445501720291
  0
ARC
  8
DETAIL
  6
CONTINUOUS
 62
     5
 10
-54.054166666977842
 20
48.200000000099863
 30
0.0
 40
2.0
 50
180.0
 51
270.0
  0
ARC
  8
DETAIL
  6
CONTINUOUS
 62
     5
 10
-12.799999999999271
 20
48.200000000099863
 30
0.0
 40
2.0
 50
270.0
 51
0.0
  0
ARC
  8
DETAIL
  6
CONTINUOUS
 62
     5
 10
-12.099999999998539
 20
53.700000000099863
 30
0.0
 40
1.3
 50
337.3479860743015
 51
0.0
  0
ARC
  8
DETAIL
  6
CONTINUOUS
 62
     5
 10
-56.054166666981473
 20
51.900000000099681
 30
0.0
 40
1.3
 50
90.0
 51
180.0
  0
ARC
  8
DETAIL
  6
CONTINUOUS
 62
     5
 10
-12.099999999998539
 20
53.700000000099863
 30
0.0
 40
0.5
 50
269.99999999989569
 51
0.0
  0
ARC
  8
DETAIL
  6
CONTINUOUS
 62
     5
 10
-16.799999999479951
 20
202.69378946339791
 30
0.0
 40
0.2
 50
90.000000000104222
 51
180.00000000010431
  0
ARC
  8
DETAIL
  6
CONTINUOUS
 62
     5
 10
-13.19999999947777
 20
202.69378946339791
 30
0.0
 40
0.2
 50
0.0
 51
90.000000000104222
  0
LINE
  8
DETAIL
  6
CONTINUOUS
 62
     5
 10
-206.1734693585486
 20
-68.028256940000119
 30
0.0
 11
-203.2867180125495
 21
-64.198034724000195
 31
0.0
  0
LINE
  8
DETAIL
  6
CONTINUOUS
 62
     5
 10
-203.2867180125495
 20
-64.198034724000195
 30
0.0
 11
-197.51321532054769
 21
-64.198034724000195
 31
0.0
  0
LINE
  8
DETAIL
  6
CONTINUOUS
 62
     5
 10
-197.51321532054769
 20
-64.198034724000195
 30
0.0
 11
-194.62646397454861
 21
-68.028256940000119
 31
0.0
  0
LINE
  8
DETAIL
  6
CONTINUOUS
 62
     5
 10
-203.2867180125495
 20
-52.707368078000172
 30
0.0
 11
-206.1734693585486
 21
-56.537590293000221
 31
0.0
  0
LINE
  8
DETAIL
  6
CONTINUOUS
 62
     5
 10
-194.62646397454861
 20
-56.537590293000221
 30
0.0
 11
-197.51321532054769
 21
-52.707368078000172
 31
0.0
  0
LINE
  8
DETAIL
  6
CONTINUOUS
 62
     5
 10
-197.51321532054769
 20
-52.707368078000172
 30
0.0
 11
-203.2867180125495
 21
-52.707368078000172
 31
0.0
  0
LINE
  8
DETAIL
  6
CONTINUOUS
 62
     5
 10
-206.1734693585486
 20
56.535040752999983
 30
0.0
 11
-203.2867180125495
 21
52.704818537999927
 31
0.0
  0
LINE
  8
DETAIL
  6
CONTINUOUS
 62
     5
 10
-203.2867180125495
 20
52.704818537999927
 30
0.0
 11
-197.51321532054769
 21
52.704818537999927
 31
0.0
  0
LINE
  8
DETAIL
  6
CONTINUOUS
 62
     5
 10
-197.51321532054769
 20
52.704818537999927
 30
0.0
 11
-194.62646397454861
 21
56.535040752999983
 31
0.0
  0
LINE
  8
DETAIL
  6
CONTINUOUS
 62
     5
 10
-206.1734693585486
 20
68.110756422999884
 30
0.0
 11
-203.2867180125495
 21
64.280534207999835
 31
0.0
  0
LINE
  8
DETAIL
  6
CONTINUOUS
 62
     5
 10
-203.2867180125495
 20
64.280534207999835
 30
0.0
 11
-197.51321532054769
 21
64.280534207999835
 31
0.0
  0
LINE
  8
DETAIL
  6
CONTINUOUS
 62
     5
 10
-197.51321532054769
 20
64.280534207999835
 30
0.0
 11
-194.62646397454861
 21
68.110756422999884
 31
0.0
  0
ARC
  8
DETAIL
  6
CONTINUOUS
 62
     5
 10
-166.91618932126309
 20
-144.8108644736146
 30
0.0
 40
46.028137966857138
 50
182.5157044890793
 51
238.7668730230848
  0
ARC
  8
DETAIL
  6
CONTINUOUS
 62
     5
 10
-145.96564645936809
 20
-109.2304752370857
 30
0.0
 40
87.316615656153331
 50
239.11801782120881
 51
270.62140158118473
  0
ARC
  8
DETAIL
  6
CONTINUOUS
 62
     5
 10
-166.03584159245381
 20
-142.2223653391562
 30
0.0
 40
47.090205585602753
 50
185.61665577091921
 51
239.4392300471784
  0
ARC
  8
DETAIL
  6
CONTINUOUS
 62
     5
 10
-145.90897476942791
 20
-106.7248711065222
 30
0.0
 40
87.893230915554923
 50
239.90710154007121
 51
270.5803796551258
  0
ARC
  8
DETAIL
  6
CONTINUOUS
 62
     5
 10
-166.61340673338509
 20
144.63626349558379
 30
0.0
 40
46.334738247475073
 50
121.44132036321039
 51
177.38695004819519
  0
ARC
  8
DETAIL
  6
CONTINUOUS
 62
     5
 10
-145.40139883091521
 20
107.1436675771681
 30
0.0
 40
89.399107309039749
 50
89.754710317851931
 51
120.505870277485
  0
ARC
  8
DETAIL
  6
CONTINUOUS
 62
     5
 10
-166.1759930991384
 20
142.49803519754369
 30
0.0
 40
46.78157267749738
 50
120.58463026602
 51
177.15650363008581
  0
ARC
  8
DETAIL
  6
CONTINUOUS
 62
     5
 10
-145.3265382285081
 20
104.513603348784
 30
0.0
 40
90.100515437021727
 50
89.804224767186156
 51
119.70829403538529
  0
ARC
  8
DETAIL
  6
CONTINUOUS
 62
     5
 10
-145.87574949986899
 20
131.33631186923279
 30
0.0
 40
44.134492722179942
 50
88.887265106567668
 51
162.2104899434886
  0
ARC
  8
DETAIL
  6
CONTINUOUS
 62
     5
 10
-145.8757494998699
 20
-131.41881135223801
 30
0.0
 40
44.134492722178699
 50
197.7895100565114
 51
271.11273489345842
  0
ARC
  8
DETAIL
  6
CONTINUOUS
 62
     5
 10
-209.91454553422139
 20
-51.732100642671178
 30
0.0
 40
3.0881806512569732
 50
89.729513657260199
 51
165.17792544846861
  0
ARC
  8
DETAIL
  6
CONTINUOUS
 62
     5
 10
-209.79446894368269
 20
-52.665739284263744
 30
0.0
 40
3.2466096083136091
 50
91.86213904848367
 51
163.04530005720031
  0
ARC
  8
DETAIL
  6
CONTINUOUS
 62
     5
 10
-209.91454553422139
 20
51.732100642670048
 30
0.0
 40
3.0881806512569732
 50
194.8220745515313
 51
270.27048634273979
  0
ARC
  8
DETAIL
  6
CONTINUOUS
 62
     5
 10
-209.9751328999173
 20
52.540405948720718
 30
0.0
 40
3.0379923023658701
 50
195.68719515055861
 51
271.41776115025061
  0
ARC
  8
DETAIL
  6
CONTINUOUS
 62
     5
 10
-190.61780302833091
 20
52.24218280162836
 30
0.0
 40
2.7533354483688122
 50
264.11796400412379
 51
350.78947510139739
  0
ARC
  8
DETAIL
  6
CONTINUOUS
 62
     5
 10
-190.7632928775902
 20
-52.329182211764419
 30
0.0
 40
2.9115476604787638
 50
10.442321028666081
 51
92.690565631466285
  0
ARC
  8
DETAIL
  6
CONTINUOUS
 62
     5
 10
-186.64688456665141
 20
74.258059528696322
 30
0.0
 40
5.4759774245160129
 50
16.630549625665889
 51
97.90463595671855
  0
ARC
  8
DETAIL
  6
CONTINUOUS
 62
     5
 10
-187.02342561673959
 20
75.041669971131569
 30
0.0
 40
2.7379887124529589
 50
16.630549629189709
 51
97.90463595319315
  0
ARC
  8
DETAIL
  6
CONTINUOUS
 62
     5
 10
-186.64688456665141
 20
-74.258059528695412
 30
0.0
 40
5.4759774245160129
 50
262.09536404328139
 51
343.36945037433412
  0
ARC
  8
DETAIL
  6
CONTINUOUS
 62
     5
 10
-187.02342561673959
 20
-75.041669971130659
 30
0.0
 40
2.7379887124529589
 50
262.09536404680682
 51
343.36945037081028
  0
ARC
  8
DETAIL
  6
CONTINUOUS
 62
     5
 10
-192.80897359870511
 20
-70.192335644837726
 30
0.0
 40
22.936803368208238
 50
183.7846650854635
 51
208.8449802284095
  0
ARC
  8
DETAIL
  6
CONTINUOUS
 62
     5
 10
-16.3102214017199
 20
182.5406348655583
 30
0.0
 40
7.0849480677583792
 50
272.50955424239709
 51
332.95526018873699
  0
LINE
  8
SIZE
  6
CONTINUOUS
 62
    30
 10
-0.0000000000000012
 20
-280.00000000000011
 30
0.0
 11
-0.0000000000000212
 21
-606.94327412072698
 31
0.0
  0
LINE
  8
SIZE
  6
CONTINUOUS
 62
    30
 10
-248.9999666665453
 20
-69.000000000000227
 30
0.0
 11
-248.99996666654539
 21
-606.94327412072698
 31
0.0
  0
LINE
  8
SIZE
  6
CONTINUOUS
 62
    30
 10
-12.00000000000002
 20
-586.94327412072698
 30
0.0
 11
-236.99996666654539
 21
-586.94327412072698
 31
0.0
  0
CIRCLE
  8
SIZE
  6
CONTINUOUS
 62
    30
 10
-0.00000000000002
 20
-586.94327412072698
 30
0.0
 40
6.0
  0
LINE
  8
SIZE
  6
CONTINUOUS
 62
    30
 10
-0.00000000000002
 20
-586.94327412072698
 30
0.0
 11
-12.00000000000002
 21
-586.94327412072698
 31
0.0
  0
CIRCLE
  8
SIZE
  6
CONTINUOUS
 62
    30
 10
-248.99996666654539
 20
-586.94327412072698
 30
0.0
 40
6.0
  0
LINE
  8
SIZE
  6
CONTINUOUS
 62
    30
 10
-248.99996666654539
 20
-586.94327412072698
 30
0.0
 11
-236.99996666654539
 21
-586.94327412072698
 31
0.0
  0
TEXT
  8
SIZE
  6
CONTINUOUS
 62
    30
 10
-205.42798333327269
 20
-561.94327412072698
 30
0.0
 40
64.0
  1
249
 50
0.0
 41
0.9
 51
0.0
  7
STANDARD
 71
     0
 72
     1
 11
-124.4999833332727
 21
-561.94327412072698
 31
0.0
210
0.0
220
0.0
230
1.0
  0
POINT
  8
DEFPOINTS
  6
CONTINUOUS
 62
    30
 10
0.0
 20
-260.00000000000011
 30
0.0
  0
POINT
  8
DEFPOINTS
  6
CONTINUOUS
 62
    30
 10
-248.9999666665453
 20
-49.000000000000227
 30
0.0
  0
POINT
  8
DEFPOINTS
  6
CONTINUOUS
 62
    30
 10
-248.99996666654539
 20
-586.94327412072698
 30
0.0
  0
LINE
  8
SIZE
  6
CONTINUOUS
 62
    30
 10
-0.0000000000000012
 20
-280.00000000000023
 30
0.0
 11
-0.0000000000000128
 21
-468.73662042430033
 31
0.0
  0
LINE
  8
SIZE
  6
CONTINUOUS
 62
    30
 10
-70.0
 20
-258.0000000035003
 30
0.0
 11
-70.000000000000014
 21
-468.73662042430033
 31
0.0
  0
LINE
  8
SIZE
  6
CONTINUOUS
 62
    30
 10
-82.000000000000014
 20
-448.73662042430033
 30
0.0
 11
-94.000000000000014
 21
-448.73662042430033
 31
0.0
  0
LINE
  8
SIZE
  6
CONTINUOUS
 62
    30
 10
11.999999999999989
 20
-448.73662042430033
 30
0.0
 11
167.2571428571429
 21
-448.73662042430033
 31
0.0
  0
LINE
  8
SIZE
  6
CONTINUOUS
 62
    30
 10
-70.000000000000014
 20
-448.73662042430033
 30
0.0
 11
-0.0000000000000116
 21
-448.73662042430033
 31
0.0
  0
CIRCLE
  8
SIZE
  6
CONTINUOUS
 62
    30
 10
-70.000000000000014
 20
-448.73662042430033
 30
0.0
 40
6.0
  0
LINE
  8
SIZE
  6
CONTINUOUS
 62
    30
 10
-70.000000000000014
 20
-448.73662042430033
 30
0.0
 11
-82.000000000000014
 21
-448.73662042430033
 31
0.0
  0
CIRCLE
  8
SIZE
  6
CONTINUOUS
 62
    30
 10
-0.0000000000000116
 20
-448.73662042430033
 30
0.0
 40
6.0
  0
LINE
  8
SIZE
  6
CONTINUOUS
 62
    30
 10
-0.0000000000000116
 20
-448.73662042430033
 30
0.0
 11
11.999999999999988
 21
-448.73662042430033
 31
0.0
  0
TEXT
  8
SIZE
  6
CONTINUOUS
 62
    30
 10
41.484571428571421
 20
-423.73662042430033
 30
0.0
 40
64.0
  1
70
 50
0.0
 41
0.9
 51
0.0
  7
STANDARD
 71
     0
 72
     1
 11
95.628571428571419
 21
-423.73662042430033
 31
0.0
210
0.0
220
0.0
230
1.0
  0
POINT
  8
DEFPOINTS
  6
CONTINUOUS
 62
    30
 10
0.0
 20
-260.00000000000023
 30
0.0
  0
POINT
  8
DEFPOINTS
  6
CONTINUOUS
 62
    30
 10
-70.0
 20
-238.0000000035003
 30
0.0
  0
POINT
  8
DEFPOINTS
  6
CONTINUOUS
 62
    30
 10
-70.000000000000014
 20
-448.73662042430033
 30
0.0
  0
CIRCLE
  8
FIX
  6
CONTINUOUS
 62
    11
 10
0.0
 20
230.0
 30
0.0
 40
7.5
  0
CIRCLE
  8
FIX
  6
CONTINUOUS
 62
    11
 10
0.0
 20
-230.00000000000011
 30
0.0
 40
7.5
  0
LINE
  8
BASIS
  6
DASHDOT
 62
     6
 10
0.0
 20
-250.00000000000011
 30
0.0
 11
0.0
 21
-210.00000000000011
 31
0.0
  0
LINE
  8
BASIS
  6
DASHDOT
 62
     6
 10
-20.0
 20
-230.00000000000011
 30
0.0
 11
20.0
 21
-230.00000000000011
 31
0.0
  0
LINE
  8
BASIS
  6
DASHDOT
 62
     6
 10
0.0
 20
210.0
 30
0.0
 11
0.0
 21
250.0
 31
0.0
  0
LINE
  8
BASIS
  6
DASHDOT
 62
     6
 10
-20.0
 20
230.0
 30
0.0
 11
20.0
 21
230.0
 31
0.0
  0
LINE
  8
SIZE
  6
CONTINUOUS
 62
    30
 10
20.0
 20
260.00000000000011
 30
0.0
 11
314.84702440830318
 21
260.00000000000023
 31
0.0
  0
LINE
  8
SIZE
  6
CONTINUOUS
 62
    30
 10
20.0
 20
-260.00000000000028
 30
0.0
 11
314.84702440830341
 21
-260.00000000000028
 31
0.0
  0
LINE
  8
SIZE
  6
CONTINUOUS
 62
    30
 10
294.84702440830318
 20
248.0000000000002
 30
0.0
 11
294.84702440830341
 21
-248.00000000000031
 31
0.0
  0
CIRCLE
  8
SIZE
  6
CONTINUOUS
 62
    30
 10
294.84702440830318
 20
260.00000000000023
 30
0.0
 40
6.0
  0
LINE
  8
SIZE
  6
CONTINUOUS
 62
    30
 10
294.84702440830318
 20
260.00000000000023
 30
0.0
 11
294.84702440830318
 21
248.00000000000023
 31
0.0
  0
CIRCLE
  8
SIZE
  6
CONTINUOUS
 62
    30
 10
294.84702440830341
 20
-260.00000000000028
 30
0.0
 40
6.0
  0
LINE
  8
SIZE
  6
CONTINUOUS
 62
    30
 10
294.84702440830341
 20
-260.00000000000028
 30
0.0
 11
294.84702440830341
 21
-248.00000000000028
 31
0.0
  0
TEXT
  8
SIZE
  6
CONTINUOUS
 62
    30
 10
269.84702440830318
 20
-80.928000000000125
 30
0.0
 40
64.0
  1
520
 50
90.0
 41
0.9
 51
0.0
  7
STANDARD
 71
     0
 72
     1
 11
269.84702440830324
 21
-0.0000000000001268
 31
0.0
210
0.0
220
0.0
230
1.0
  0
POINT
  8
DEFPOINTS
  6
CONTINUOUS
 62
    30
 10
0.0
 20
260.00000000000011
 30
0.0
  0
POINT
  8
DEFPOINTS
  6
CONTINUOUS
 62
    30
 10
0.0
 20
-260.00000000000028
 30
0.0
  0
POINT
  8
DEFPOINTS
  6
CONTINUOUS
 62
    30
 10
294.84702440830341
 20
-260.00000000000028
 30
0.0
  0
LINE
  8
SIZE
  6
CONTINUOUS
 62
    30
 10
40.000000000000007
 20
230.00000000000011
 30
0.0
 11
198.4215563650873
 21
230.0000000000002
 31
0.0
  0
LINE
  8
SIZE
  6
CONTINUOUS
 62
    30
 10
40.000000000000007
 20
-230.0000000000002
 30
0.0
 11
198.42155636508741
 21
-230.0000000000002
 31
0.0
  0
LINE
  8
SIZE
  6
CONTINUOUS
 62
    30
 10
178.4215563650873
 20
218.00000000000011
 30
0.0
 11
178.42155636508741
 21
-218.0000000000002
 31
0.0
  0
CIRCLE
  8
SIZE
  6
CONTINUOUS
 62
    30
 10
178.4215563650873
 20
230.00000000000011
 30
0.0
 40
6.0
  0
LINE
  8
SIZE
  6
CONTINUOUS
 62
    30
 10
178.4215563650873
 20
230.00000000000011
 30
0.0
 11
178.4215563650873
 21
218.00000000000011
 31
0.0
  0
CIRCLE
  8
SIZE
  6
CONTINUOUS
 62
    30
 10
178.42155636508741
 20
-230.0000000000002
 30
0.0
 40
6.0
  0
LINE
  8
SIZE
  6
CONTINUOUS
 62
    30
 10
178.42155636508741
 20
-230.0000000000002
 30
0.0
 11
178.42155636508741
 21
-218.0000000000002
 31
0.0
  0
TEXT
  8
SIZE
  6
CONTINUOUS
 62
    30
 10
153.4215563650873
 20
-81.504000000000062
 30
0.0
 40
64.0
  1
460
 50
90.0
 41
0.9
 51
0.0
  7
STANDARD
 71
     0
 72
     1
 11
153.4215563650873
 21
-0.0000000000000628
 31
0.0
210
0.0
220
0.0
230
1.0
  0
POINT
  8
DEFPOINTS
  6
CONTINUOUS
 62
    30
 10
20.000000000000011
 20
230.00000000000011
 30
0.0
  0
POINT
  8
DEFPOINTS
  6
CONTINUOUS
 62
    30
 10
20.000000000000011
 20
-230.0000000000002
 30
0.0
  0
POINT
  8
DEFPOINTS
  6
CONTINUOUS
 62
    30
 10
178.42155636508741
 20
-230.0000000000002
 30
0.0
  0
LINE
  8
SIZE
  6
CONTINUOUS
 62
    30
 10
-90.000000000000028
 20
-238.0000000000002
 30
0.0
 11
-449.72284543761401
 21
-238.00000000000031
 31
0.0
  0
LINE
  8
SIZE
  6
CONTINUOUS
 62
    30
 10
-90.000000000000028
 20
238.00000000000011
 30
0.0
 11
-449.72284543761413
 21
238.00000000000011
 31
0.0
  0
LINE
  8
SIZE
  6
CONTINUOUS
 62
    30
 10
-429.72284543761401
 20
-226.00000000000031
 30
0.0
 11
-429.72284543761413
 21
226.00000000000011
 31
0.0
  0
CIRCLE
  8
SIZE
  6
CONTINUOUS
 62
    30
 10
-429.72284543761401
 20
-238.00000000000031
 30
0.0
 40
6.0
  0
LINE
  8
SIZE
  6
CONTINUOUS
 62
    30
 10
-429.72284543761401
 20
-238.00000000000031
 30
0.0
 11
-429.72284543761401
 21
-226.00000000000031
 31
0.0
  0
CIRCLE
  8
SIZE
  6
CONTINUOUS
 62
    30
 10
-429.72284543761413
 20
238.00000000000011
 30
0.0
 40
6.0
  0
LINE
  8
SIZE
  6
CONTINUOUS
 62
    30
 10
-429.72284543761413
 20
238.00000000000011
 30
0.0
 11
-429.72284543761413
 21
226.00000000000011
 31
0.0
  0
TEXT
  8
SIZE
  6
CONTINUOUS
 62
    30
 10
-454.7228454376139
 20
-115.48799999999997
 30
0.0
 40
64.0
  1
φ476
 50
90.0
 41
0.9
 51
0.0
  7
STANDARD
 71
     0
 72
     1
 11
-454.7228454376139
 21
0.0000000000000313
 31
0.0
210
0.0
220
0.0
230
1.0
  0
POINT
  8
DEFPOINTS
  6
CONTINUOUS
 62
    30
 10
-70.000000000000028
 20
-238.0000000000002
 30
0.0
  0
POINT
  8
DEFPOINTS
  6
CONTINUOUS
 62
    30
 10
-70.000000000000028
 20
238.00000000000011
 30
0.0
  0
POINT
  8
DEFPOINTS
  6
CONTINUOUS
 62
    30
 10
-429.72284543761413
 20
238.00000000000011
 30
0.0
  0
POINT
  8
ARRANGE
  6
CONTINUOUS
 62
     1
 10
0.0
 20
0.0
 30
0.0
  0
CIRCLE
  8
ARRANGE
  6
CONTINUOUS
 62
     1
 10
0.0
 20
0.0
 30
0.0
 40
40.0
  0
LINE
  8
SIZE
  6
CONTINUOUS
 62
    30
 10
0.0000000000000012
 20
280.0
 30
0.0
 11
0.0000000000000049
 21
340.79316834125672
 31
0.0
  0
LINE
  8
SIZE
  6
CONTINUOUS
 62
    30
 10
-9.9999999999999982
 20
275.0
 30
0.0
 11
-9.9999999999999947
 21
340.79316834125672
 31
0.0
  0
LINE
  8
SIZE
  6
CONTINUOUS
 62
    30
 10
-22.0
 20
320.79316834125672
 30
0.0
 11
-34.0
 21
320.79316834125672
 31
0.0
  0
LINE
  8
SIZE
  6
CONTINUOUS
 62
    30
 10
12.0
 20
320.79316834125672
 30
0.0
 11
156.28571428571431
 21
320.79316834125672
 31
0.0
  0
LINE
  8
SIZE
  6
CONTINUOUS
 62
    30
 10
-9.9999999999999964
 20
320.79316834125672
 30
0.0
 11
0.0000000000000037
 21
320.79316834125672
 31
0.0
  0
CIRCLE
  8
SIZE
  6
CONTINUOUS
 62
    30
 10
-9.9999999999999964
 20
320.79316834125672
 30
0.0
 40
6.0
  0
LINE
  8
SIZE
  6
CONTINUOUS
 62
    30
 10
-9.9999999999999964
 20
320.79316834125672
 30
0.0
 11
-21.999999999999996
 21
320.79316834125672
 31
0.0
  0
CIRCLE
  8
SIZE
  6
CONTINUOUS
 62
    30
 10
0.0000000000000037
 20
320.79316834125672
 30
0.0
 40
6.0
  0
LINE
  8
SIZE
  6
CONTINUOUS
 62
    30
 10
0.0000000000000037
 20
320.79316834125672
 30
0.0
 11
12.000000000000004
 21
320.79316834125672
 31
0.0
  0
TEXT
  8
SIZE
  6
CONTINUOUS
 62
    30
 10
41.758857142857138
 20
345.79316834125672
 30
0.0
 40
64.0
  1
10
 50
0.0
 41
0.9
 51
0.0
  7
STANDARD
 71
     0
 72
     1
 11
90.142857142857139
 21
345.79316834125672
 31
0.0
210
0.0
220
0.0
230
1.0
  0
POINT
  8
DEFPOINTS
  6
CONTINUOUS
 62
    30
 10
0.0
 20
260.0
 30
0.0
  0
POINT
  8
DEFPOINTS
  6
CONTINUOUS
 62
    30
 10
-10.0
 20
255.0
 30
0.0
  0
POINT
  8
DEFPOINTS
  6
CONTINUOUS
 62
    30
 10
-9.9999999999999964
 20
320.79316834125672
 30
0.0
  0
LINE
  8
SIZE
  6
CONTINUOUS
 62
    30
 10
-261.49996666654539
 20
56.500000000000028
 30
0.0
 11
-331.56614675976749
 21
56.500000000000021
 31
0.0
  0
LINE
  8
SIZE
  6
CONTINUOUS
 62
    30
 10
-261.49996666654539
 20
-56.500000000000263
 30
0.0
 11
-331.56614675976749
 21
-56.500000000000263
 31
0.0
  0
LINE
  8
SIZE
  6
CONTINUOUS
 62
    30
 10
-311.56614675976749
 20
68.500000000000028
 30
0.0
 11
-311.56614675976749
 21
80.500000000000028
 31
0.0
  0
LINE
  8
SIZE
  6
CONTINUOUS
 62
    30
 10
-311.56614675976749
 20
-68.500000000000256
 30
0.0
 11
-311.56614675976749
 21
-80.500000000000256
 31
0.0
  0
LINE
  8
SIZE
  6
CONTINUOUS
 62
    30
 10
-311.56614675976749
 20
56.500000000000021
 30
0.0
 11
-311.56614675976749
 21
-56.500000000000263
 31
0.0
  0
CIRCLE
  8
SIZE
  6
CONTINUOUS
 62
    30
 10
-311.56614675976749
 20
56.500000000000021
 30
0.0
 40
6.0
  0
LINE
  8
SIZE
  6
CONTINUOUS
 62
    30
 10
-311.56614675976749
 20
56.500000000000021
 30
0.0
 11
-311.56614675976749
 21
68.500000000000028
 31
0.0
  0
CIRCLE
  8
SIZE
  6
CONTINUOUS
 62
    30
 10
-311.56614675976749
 20
-56.500000000000263
 30
0.0
 40
6.0
  0
LINE
  8
SIZE
  6
CONTINUOUS
 62
    30
 10
-311.56614675976749
 20
-56.500000000000263
 30
0.0
 11
-311.56614675976749
 21
-68.500000000000256
 31
0.0
  0
TEXT
  8
SIZE
  6
CONTINUOUS
 62
    30
 10
-336.56614675976749
 20
-103.39200000000002
 30
0.0
 40
64.0
  1
φ113
 50
90.0
 41
0.9
 51
0.0
  7
STANDARD
 71
     0
 72
     1
 11
-336.56614675976749
 21
-0.0000000000000257
 31
0.0
210
0.0
220
0.0
230
1.0
  0
POINT
  8
DEFPOINTS
  6
CONTINUOUS
 62
    30
 10
-241.49996666654539
 20
56.500000000000028
 30
0.0
  0
POINT
  8
DEFPOINTS
  6
CONTINUOUS
 62
    30
 10
-241.49996666654539
 20
-56.500000000000263
 30
0.0
  0
POINT
  8
DEFPOINTS
  6
CONTINUOUS
 62
    30
 10
-311.56614675976749
 20
-56.500000000000263
 30
0.0
  0
LINE
  8
DETAIL
  6
CONTINUOUS
 62
     5
 10
-70.0
 20
-238.0000000035003
 30
0.0
 11
-68.800000000001091
 21
-238.0000000035003
 31
0.0
  0
LINE
  8
DETAIL
  6
CONTINUOUS
 62
     5
 10
-70.0
 20
238.0
 30
0.0
 11
-70.0
 21
196.5419556373997
 31
0.0
  0
LINE
  8
DETAIL
  6
CONTINUOUS
 62
     5
 10
-68.800000000001091
 20
237.9000000017875
 30
0.0
 11
-68.800000000002001
 21
196.5419556373997
 31
0.0
  0
LINE
  8
DETAIL
  6
CONTINUOUS
 62
     5
 10
-68.800000000001091
 20
237.8999999997998
 30
0.0
 11
-68.800000000001091
 21
238.0
 31
0.0
  0
LINE
  8
DETAIL
  6
CONTINUOUS
 62
     5
 10
-34.600000000000357
 20
203.79999999639989
 30
0.0
 11
-25.0
 21
203.79999999639989
 31
0.0
  0
LINE
  8
DETAIL
  6
CONTINUOUS
 62
     5
 10
-70.0
 20
238.0
 30
0.0
 11
-68.800000000001091
 21
238.0
 31
0.0
  0
ARC
  8
DETAIL
  6
CONTINUOUS
 62
     5
 10
-34.685233698827687
 20
237.91466297294119
 30
0.0
 40
34.11476945234125
 50
180.0246264745553
 51
270.14315020661348
  0
ARC
  8
DETAIL
  6
CONTINUOUS
 62
     5
 10
-25.0
 20
218.79999999639989
 30
0.0
 40
15.0
 50
270.0
 51
323.13010235747538
  0
LINE
  8
DETAIL
  6
CONTINUOUS
 62
     5
 10
-15.50000000000728
 20
-194.6135928084
 30
0.0
 11
-145.01867235755159
 21
-194.6135928084
 31
0.0
  0
LINE
  8
DETAIL
  6
CONTINUOUS
 62
     5
 10
-15.50000000000728
 20
-196.54195563740001
 30
0.0
 11
-145.01867235755159
 21
-196.54195563740001
 31
0.0
  0
LINE
  8
DETAIL
  6
CONTINUOUS
 62
     5
 10
-34.600000000000357
 20
-203.79999999640009
 30
0.0
 11
-25.0
 21
-203.79999999640009
 31
0.0
  0
ARC
  8
DETAIL
  6
CONTINUOUS
 62
     5
 10
-34.685233698827687
 20
-237.91466297294139
 30
0.0
 40
34.11476945234125
 50
89.856849793386445
 51
179.9753735254447
  0
ARC
  8
DETAIL
  6
CONTINUOUS
 62
     5
 10
-25.0
 20
-218.79999999640009
 30
0.0
 40
15.0
 50
36.869897642524613
 51
90.0
  0
LINE
  8
DETAIL
  6
CONTINUOUS
 62
     5
 10
-68.800000000002001
 20
175.46248173039979
 30
0.0
 11
-68.800000000001091
 21
-175.46248173039999
 31
0.0
  0
LINE
  8
DETAIL
  6
CONTINUOUS
 62
     5
 10
-70.0
 20
175.46248173039979
 30
0.0
 11
-70.0
 21
-175.46248173039999
 31
0.0
  0
LINE
  8
DETAIL
  6
CONTINUOUS
 62
     5
 10
-68.800000000001091
 20
-196.54195563740001
 30
0.0
 11
-68.800000000001091
 21
-238.0000000035003
 31
0.0
  0
LINE
  8
DETAIL
  6
CONTINUOUS
 62
     5
 10
-70.0
 20
-196.54195563740001
 30
0.0
 11
-70.0
 21
-238.0000000035003
 31
0.0
  0
LINE
  8
OUTLINE
  6
CONTINUOUS
 62
     3
 10
0.0
 20
-260.00000000000023
 30
0.0
 11
-5.0
 21
-260.00000000000023
 31
0.0
  0
ARC
  8
OUTLINE
  6
CONTINUOUS
 62
     3
 10
-5.0000000000000018
 20
-255.00000000000023
 30
0.0
 40
4.9999999999999991
 50
180.0
 51
270.0
  0
LINE
  8
OUTLINE
  6
CONTINUOUS
 62
     3
 10
-10.0
 20
-255.0000000000002
 30
0.0
 11
-10.0
 21
-212.7532244234001
 31
0.0
  0
LINE
  8
OUTLINE
  6
CONTINUOUS
 62
     3
 10
-10.0
 20
-212.7532244234001
 30
0.0
 11
-13.00000000000364
 21
-212.7532244234001
 31
0.0
  0
LINE
  8
OUTLINE
  6
CONTINUOUS
 62
     3
 10
-13.00000000000364
 20
-212.7532244234001
 30
0.0
 11
-13.00000000000364
 21
-209.7999999963952
 31
0.0
  0
ARC
  8
OUTLINE
  6
CONTINUOUS
 62
     3
 10
-24.999999999999986
 20
-218.79999999640012
 30
0.0
 40
15.000000000000027
 50
36.869897645867411
 51
90.0
  0
LINE
  8
OUTLINE
  6
CONTINUOUS
 62
     3
 10
-25.0
 20
-203.79999999640009
 30
0.0
 11
-34.770467397519504
 21
-203.79999999640009
 31
0.0
  0
ARC
  8
OUTLINE
  6
CONTINUOUS
 62
     3
 10
-34.685233698827368
 20
-237.91466297294136
 30
0.0
 40
34.114769452341129
 50
90.14315020638935
 51
180.1433237528754
  0
LINE
  8
OUTLINE
  6
CONTINUOUS
 62
     3
 10
-68.799896417042874
 20
-238.0000000035003
 30
0.0
 11
-70.0
 21
-238.0000000035003
 31
0.0
  0
LINE
  8
OUTLINE
  6
CONTINUOUS
 62
     3
 10
-70.0
 20
-238.0000000035003
 30
0.0
 11
-70.0
 21
-196.54195563740001
 31
0.0
  0
LINE
  8
OUTLINE
  6
CONTINUOUS
 62
     3
 10
-70.0
 20
-196.54195563740001
 30
0.0
 11
-145.01867235737791
 21
-196.54195563740001
 31
0.0
  0
ARC
  8
OUTLINE
  6
CONTINUOUS
 62
     3
 10
-145.9656464593796
 20
-109.23047523712584
 30
0.0
 40
87.316615656112788
 50
239.11801782118698
 51
270.62140158129944
  0
ARC
  8
OUTLINE
  6
CONTINUOUS
 62
     3
 10
-166.91618932126298
 20
-144.81086447361452
 30
0.0
 40
46.028137966857365
 50
182.51570448905431
 51
238.76687302306732
  0
LINE
  8
OUTLINE
  6
CONTINUOUS
 62
     3
 10
-212.89996666655409
 20
-146.83118765438221
 30
0.0
 11
-212.89996666655131
 21
-81.258000843982927
 31
0.0
  0
ARC
  8
OUTLINE
  6
CONTINUOUS
 62
     3
 10
-192.80897359870568
 20
-70.192335644836305
 30
0.0
 40
22.936803368207745
 50
183.7846650854691
 51
208.84498022836362
  0
LINE
  8
OUTLINE
  6
CONTINUOUS
 62
     3
 10
-215.6957557075466
 20
-71.706321593999974
 30
0.0
 11
-215.6957557075466
 21
-68.700000000000045
 31
0.0
  0
LINE
  8
OUTLINE
  6
CONTINUOUS
 62
     3
 10
-215.6957557075466
 20
-68.700000000000045
 30
0.0
 11
-218.499966666549
 21
-68.700000000000045
 31
0.0
  0
LINE
  8
OUTLINE
  6
CONTINUOUS
 62
     3
 10
-218.499966666549
 20
-68.700000000000045
 30
0.0
 11
-218.499966666549
 21
-59.700000000000053
 31
0.0
  0
ARC
  8
OUTLINE
  6
CONTINUOUS
 62
     3
 10
-219.49996666654897
 20
-59.700000000000031
 30
0.0
 40
0.9999999999999804
 50
0.0
 51
90.0
  0
ARC
  8
OUTLINE
  6
CONTINUOUS
 62
     3
 10
-219.49996666654903
 20
-57.700000000000074
 30
0.0
 40
0.9999999999999804
 50
180.0
 51
270.0
  0
LINE
  8
OUTLINE
  6
CONTINUOUS
 62
     3
 10
-220.499966666549
 20
-57.700000000000053
 30
0.0
 11
-220.4999666665453
 21
-56.500000000000227
 31
0.0
  0
LINE
  8
OUTLINE
  6
CONTINUOUS
 62
     3
 10
-220.4999666665453
 20
-56.500000000000227
 30
0.0
 11
-241.4999666665453
 21
-56.500000000000227
 31
0.0
  0
ARC
  8
OUTLINE
  6
CONTINUOUS
 62
     3
 10
-241.49996666654536
 20
-49.000000000000277
 30
0.0
 40
7.4999999999999503
 50
180.0
 51
270.0
  0
LINE
  8
OUTLINE
  6
CONTINUOUS
 62
     3
 10
-248.9999666665453
 20
-49.000000000000227
 30
0.0
 11
-248.9999666665453
 21
49.0
 31
0.0
  0
ARC
  8
OUTLINE
  6
CONTINUOUS
 62
     3
 10
-241.49996666654536
 20
49.00000000000005
 30
0.0
 40
7.4999999999999503
 50
90.0
 51
180.0
  0
LINE
  8
OUTLINE
  6
CONTINUOUS
 62
     3
 10
-241.4999666665453
 20
56.5
 30
0.0
 11
-212.8999666665504
 21
56.5
 31
0.0
  0
LINE
  8
OUTLINE
  6
CONTINUOUS
 62
     3
 10
-212.8999666665504
 20
56.5
 30
0.0
 11
-212.899966666555
 21
146.74868817237979
 31
0.0
  0
ARC
  8
OUTLINE
  6
CONTINUOUS
 62
     3
 10
-166.61340673338509
 20
144.6362634955824
 30
0.0
 40
46.334738247475542
 50
121.44132036325277
 51
177.38695004821852
  0
ARC
  8
OUTLINE
  6
CONTINUOUS
 62
     3
 10
-145.40139883088486
 20
107.14366757706428
 30
0.0
 40
89.399107309143162
 50
89.75471031821121
 51
120.50587027750396
  0
LINE
  8
OUTLINE
  6
CONTINUOUS
 62
     3
 10
-145.01867235808089
 20
196.5419556373997
 30
0.0
 11
-70.0
 21
196.5419556373997
 31
0.0
  0
LINE
  8
OUTLINE
  6
CONTINUOUS
 62
     3
 10
-70.0
 20
196.5419556373997
 30
0.0
 11
-70.0
 21
237.9999999999998
 31
0.0
  0
LINE
  8
OUTLINE
  6
CONTINUOUS
 62
     3
 10
-70.0
 20
237.9999999999998
 30
0.0
 11
-68.799896417051968
 21
238.0
 31
0.0
  0
ARC
  8
OUTLINE
  6
CONTINUOUS
 62
     3
 10
-34.685233698827574
 20
237.91466297294122
 30
0.0
 40
34.114769452341264
 50
179.85667625300323
 51
270.14315020643744
  0
LINE
  8
OUTLINE
  6
CONTINUOUS
 62
     3
 10
-34.600000000106768
 20
203.79999999639989
 30
0.0
 11
-25.0
 21
203.79999999639989
 31
0.0
  0
ARC
  8
OUTLINE
  6
CONTINUOUS
 62
     3
 10
-25.000000000000036
 20
218.79999999639978
 30
0.0
 40
14.999999999999872
 50
270.0
 51
323.13010235748607
  0
LINE
  8
OUTLINE
  6
CONTINUOUS
 62
     3
 10
-12.999999999477041
 20
209.7999999970973
 30
0.0
 11
-12.999999999477041
 21
212.67072494139779
 31
0.0
  0
LINE
  8
OUTLINE
  6
CONTINUOUS
 62
     3
 10
-12.999999999477041
 20
212.67072494139779
 30
0.0
 11
-10.0
 21
212.67072494139779
 31
0.0
  0
LINE
  8
OUTLINE
  6
CONTINUOUS
 62
     3
 10
-10.0
 20
212.67072494139779
 30
0.0
 11
-10.0
 21
255.0
 31
0.0
  0
ARC
  8
OUTLINE
  6
CONTINUOUS
 62
     3
 10
-5.0000000000000009
 20
255.0
 30
0.0
 40
4.9999999999999991
 50
90.0
 51
180.0
  0
LINE
  8
OUTLINE
  6
CONTINUOUS
 62
     3
 10
-5.0
 20
260.0
 30
0.0
 11
0.0
 21
260.0
 31
0.0
  0
LINE
  8
OUTLINE
  6
CONTINUOUS
 62
     3
 10
0.0
 20
260.0
 30
0.0
 11
0.0
 21
-260.00000000000023
 31
0.0
  0
ARC
  8
DETAIL
  6
CONTINUOUS
 62
     5
 10
162.27202776032939
 20
4.6410651746555232
 30
0.0
 40
299.6164684813167
 50
181.22616388052069
 51
216.94969816362811
  0
ARC
  8
DETAIL
  6
CONTINUOUS
 62
     5
 10
-701.67741636505343
 20
-271.32879036373049
 30
0.0
 40
716.22996515236798
 50
28.121778923005859
 51
38.594883240796968
  0
ARC
  8
DETAIL
  6
CONTINUOUS
 62
     5
 10
-81.082619973168221
 20
7.3901500293113713
 30
0.0
 40
53.568282985432802
 50
189.02370690739059
 51
281.94002679549669
  0
ARC
  8
DETAIL
  6
CONTINUOUS
 62
     5
 10
-135.58877932445739
 20
-1.5777895938890649
 30
0.0
 40
1.698015435210952
 50
19.475436069496951
 51
186.51379751486061
  0
ARC
  8
DETAIL
  6
CONTINUOUS
 62
     5
 10
603.75756386550347
 20
-326.87950213905663
 30
0.0
 40
757.06450381647562
 50
154.95779048090739
 51
158.00704667000571
  0
ARC
  8
DETAIL
  6
CONTINUOUS
 62
     5
 10
299.55974750699352
 20
-264.86027240917491
 30
0.0
 40
445.15616989432573
 50
146.11723242236189
 51
150.5123600343872
  0
LINE
  8
DETAIL
  6
CONTINUOUS
 62
     5
 10
-82.139999999664724
 20
15.680833333346531
 30
0.0
 11
-80.116666666697711
 21
15.680833333346531
 31
0.0
  0
LINE
  8
DETAIL
  6
CONTINUOUS
 62
     5
 10
-80.116666666697711
 20
15.680833333346531
 30
0.0
 11
-80.116666666697711
 21
-16.186666666646492
 31
0.0
  0
LINE
  8
DETAIL
  6
CONTINUOUS
 62
     5
 10
-80.116666666697711
 20
-16.186666666646492
 30
0.0
 11
-82.139999999664724
 21
-16.186666666646492
 31
0.0
  0
LINE
  8
DETAIL
  6
CONTINUOUS
 62
     5
 10
-82.139999999664724
 20
-16.186666666646492
 30
0.0
 11
-82.139999999664724
 21
15.680833333346531
 31
0.0
  0
LINE
  8
DETAIL
  6
CONTINUOUS
 62
     5
 10
-80.116666666697711
 20
12.645833333343029
 30
0.0
 11
-79.104999999981374
 21
13.65750000001572
 31
0.0
  0
LINE
  8
DETAIL
  6
CONTINUOUS
 62
     5
 10
-79.104999999981374
 20
13.65750000001572
 30
0.0
 11
-70.0
 21
13.65750000001572
 31
0.0
  0
LINE
  8
DETAIL
  6
CONTINUOUS
 62
     5
 10
-79.104999999981374
 20
13.65750000001572
 30
0.0
 11
-79.104999999981374
 21
-14.163333333315681
 31
0.0
  0
LINE
  8
DETAIL
  6
CONTINUOUS
 62
     5
 10
-80.116666666697711
 20
-13.151666666643001
 30
0.0
 11
-79.104999999981374
 21
-14.163333333315681
 31
0.0
  0
LINE
  8
DETAIL
  6
CONTINUOUS
 62
     5
 10
-79.104999999981374
 20
-14.163333333315681
 30
0.0
 11
-70.0
 21
-14.163333333315681
 31
0.0
  0
ARC
  8
DETAIL
  6
CONTINUOUS
 62
     5
 10
299.55974750699352
 20
-264.86027240917491
 30
0.0
 40
445.15616989432573
 50
159.07136883552951
 51
168.41488466976901
  0
ARC
  8
DETAIL
  6
CONTINUOUS
 62
     5
 10
603.75756386550347
 20
-326.87950213905663
 30
0.0
 40
757.06450381647562
 50
162.55751244581299
 51
168.46272275690129
  0
TEXT
  8
ETC
  6
CONTINUOUS
 62
    61
 10
387.73921822224293
 20
368.27490011569762
 30
0.0
 40
64.0
  1
EG-40CSXC2_4
 41
0.9
  0
TEXT
  8
ETC
  6
CONTINUOUS
 62
    61
 10
383.55322422224339
 20
250.31959010086641
 30
0.0
 40
64.0
  1
有圧換気扇
 41
0.9
  0
TEXT
  8
ETC
  6
CONTINUOUS
 62
    61
 10
434.25462247079849
 20
142.17081721464109
 30
0.0
 40
40.0
  1
EG-40CSXC2
 50
0.0
 41
0.9
 51
0.0
  7
STANDARD
 71
     0
 11
0.0
 21
0.0
 31
0.0
210
0.0
220
0.0
230
1.0
  0
TEXT
  8
NOTE
  6
CONTINUOUS
 62
     4
 10
220.1241935220749
 20
-358.72191765549007
 30
0.0
 40
64.0
  1
4-15×15
 50
0.0
 41
0.9
 51
0.0
  7
STANDARD
 71
     0
 11
0.0
 21
0.0
 31
0.0
210
0.0
220
0.0
230
1.0
  0
LINE
  8
NOTE
  6
CONTINUOUS
 62
     4
 10
220.0341935220749
 20
-371.52191765549009
 30
0.0
 11
598.63847923636058
 21
-371.52191765549009
 31
0.0
  0
LINE
  8
NOTE
  6
CONTINUOUS
 62
     4
 10
19.847787700227524
 20
-253.88896828363886
 30
0.0
 11
0.0
 21
-230.00000000000011
 31
0.0
  0
LINE
  8
NOTE
  6
CONTINUOUS
 62
     4
 10
0.0
 20
-230.00000000000011
 30
0.0
 11
29.133188720689237
 21
-240.76451565165419
 31
0.0
  0
LINE
  8
NOTE
  6
CONTINUOUS
 62
     4
 10
0.0
 20
-230.00000000000011
 30
0.0
 11
48.980976420916761
 21
-264.65348393529291
 31
0.0
  0
LINE
  8
NOTE
  6
CONTINUOUS
 62
     4
 10
48.980976420916747
 20
-264.65348393529291
 30
0.0
 11
200.0341935220749
 21
-371.52191765549009
 31
0.0
  0
LINE
  8
NOTE
  6
CONTINUOUS
 62
     4
 10
200.0341935220749
 20
-371.52191765549009
 30
0.0
 11
220.0341935220749
 21
-371.52191765549009
 31
0.0
  0
TEXT
  8
NOTE
  6
CONTINUOUS
 62
     4
 10
-215.38272588214369
 20
-364.02726805604129
 30
0.0
 40
64.0
  1
EL
 50
0.0
 41
0.9
 51
0.0
  7
STANDARD
 71
     0
 72
     2
 11
-114.0067258821437
 21
-364.02726805604129
 31
0.0
210
0.0
220
0.0
230
1.0
  0
LINE
  8
NOTE
  6
CONTINUOUS
 62
     4
 10
-113.9167258821435
 20
-376.82726805604119
 30
0.0
 11
-199.03529731071501
 21
-376.82726805604119
 31
0.0
  0
LINE
  8
NOTE
  6
CONTINUOUS
 62
     4
 10
-47.761715955473733
 20
-229.13760529336702
 30
0.0
 11
-29.800000000000178
 21
-203.79999999640009
 31
0.0
  0
LINE
  8
NOTE
  6
CONTINUOUS
 62
     4
 10
-29.800000000000178
 20
-203.79999999640009
 30
0.0
 11
-32.686453063984878
 21
-234.72387218213086
 31
0.0
  0
LINE
  8
NOTE
  6
CONTINUOUS
 62
     4
 10
-29.800000000000178
 20
-203.79999999640009
 30
0.0
 11
-50.648169019458422
 21
-260.06147747909779
 31
0.0
  0
LINE
  8
NOTE
  6
CONTINUOUS
 62
     4
 10
-50.648169019458422
 20
-260.06147747909779
 30
0.0
 11
-93.91672588214351
 21
-376.82726805604119
 31
0.0
  0
LINE
  8
NOTE
  6
CONTINUOUS
 62
     4
 10
-93.91672588214351
 20
-376.82726805604119
 30
0.0
 11
-113.9167258821435
 21
-376.82726805604119
 31
0.0
  0
ENDSEC
  0
EOF
