  0
SECTION
  2
HEADER
  9
$ACADVER
  1
AC1009
  9
$DWGCODEPAGE
  3
dos932
  9
$INSBASE
 10
0.0
 20
0.0
 30
0.0
  9
$EXTMIN
 10
-540.65092328313222
 20
-437.07274219146171
 30
-0.0000000000000058
  9
$EXTMAX
 10
1115.744030226188
 20
544.4183429288878
 30
0.0000000000000104
  9
$LIMMIN
 10
-2970.0
 20
-2100.0
  9
$LIMMAX
 10
2970.0
 20
2100.0
  9
$ORTHOMODE
 70
     1
  9
$REGENMODE
 70
     1
  9
$FILLMODE
 70
     1
  9
$QTEXTMODE
 70
     0
  9
$MIRRTEXT
 70
     0
  9
$LTSCALE
 40
20.0
  9
$ATTMODE
 70
     1
  9
$TEXTSIZE
 40
64.0
  9
$TRACEWID
 40
0.05
  9
$TEXTSTYLE
  7
STANDARD
  9
$CLAYER
  8
SIZE
  9
$CELTYPE
  6
CONTINUOUS
  9
$CECOLOR
 62
     7
  9
$DIMSCALE
 40
1.0
  9
$DIMASZ
 40
12.0
  9
$DIMEXO
 40
20.0
  9
$DIMDLI
 40
200.0
  9
$DIMRND
 40
0.0
  9
$DIMDLE
 40
0.0
  9
$DIMEXE
 40
20.0
  9
$DIMTP
 40
0.0
  9
$DIMTM
 40
0.0
  9
$DIMTXT
 40
64.0
  9
$DIMCEN
 40
0.09
  9
$DIMTSZ
 40
0.0
  9
$DIMTOL
 70
     0
  9
$DIMLIM
 70
     0
  9
$DIMTIH
 70
     0
  9
$DIMTOH
 70
     0
  9
$DIMSE1
 70
     0
  9
$DIMSE2
 70
     0
  9
$DIMTAD
 70
     1
  9
$DIMZIN
 70
     8
  9
$DIMBLK
  1

  9
$DIMASO
 70
     1
  9
$DIMSHO
 70
     0
  9
$DIMPOST
  1

  9
$DIMAPOST
  1

  9
$DIMALT
 70
     0
  9
$DIMALTD
 70
     2
  9
$DIMALTF
 40
25.399999999999999
  9
$DIMLFAC
 40
1.0
  9
$DIMTOFL
 70
     1
  9
$DIMTVP
 40
0.0
  9
$DIMTIX
 70
     1
  9
$DIMSOXD
 70
     0
  9
$DIMSAH
 70
     0
  9
$DIMBLK1
  1

  9
$DIMBLK2
  1

  9
$DIMSTYLE
  2
STANDARD
  9
$DIMCLRD
 70
     7
  9
$DIMCLRE
 70
     7
  9
$DIMCLRT
 70
     7
  9
$DIMTFAC
 40
1.0
  9
$DIMGAP
 40
25.0
  9
$LUNITS
 70
     2
  9
$LUPREC
 70
     4
  9
$SKETCHINC
 40
0.1
  9
$FILLETRAD
 40
3.0
  9
$AUNITS
 70
     1
  9
$AUPREC
 70
     3
  9
$MENU
  1
ACAD
  9
$ELEVATION
 40
0.0
  9
$PELEVATION
 40
0.0
  9
$THICKNESS
 40
0.0
  9
$LIMCHECK
 70
     0
  9
$CHAMFERA
 40
0.0
  9
$CHAMFERB
 40
0.0
  9
$SKPOLY
 70
     0
  9
$TDCREATE
 40
2453019.62301037
  9
$TDUPDATE
 40
2459362.658713819
  9
$TDINDWG
 40
1.8481178356
  9
$TDUSRTIMER
 40
1.8481178356
  9
$USRTIMER
 70
     1
  9
$ANGBASE
 50
0.0
  9
$ANGDIR
 70
     0
  9
$PDMODE
 70
     3
  9
$PDSIZE
 40
-2.0
  9
$PLINEWID
 40
0.0
  9
$SPLFRAME
 70
     0
  9
$SPLINETYPE
 70
     6
  9
$SPLINESEGS
 70
     8
  9
$SURFTAB1
 70
     6
  9
$SURFTAB2
 70
     6
  9
$SURFTYPE
 70
     6
  9
$SURFU
 70
     6
  9
$SURFV
 70
     6
  9
$UCSNAME
  2

  9
$UCSORG
 10
0.0
 20
0.0
 30
0.0
  9
$UCSXDIR
 10
1.0
 20
0.0
 30
0.0
  9
$UCSYDIR
 10
0.0
 20
1.0
 30
0.0
  9
$PUCSNAME
  2

  9
$PUCSORG
 10
0.0
 20
0.0
 30
0.0
  9
$PUCSXDIR
 10
1.0
 20
0.0
 30
0.0
  9
$PUCSYDIR
 10
0.0
 20
1.0
 30
0.0
  9
$USERI1
 70
     0
  9
$USERI2
 70
     0
  9
$USERI3
 70
     0
  9
$USERI4
 70
     0
  9
$USERI5
 70
     0
  9
$USERR1
 40
20.0
  9
$USERR2
 40
0.0
  9
$USERR3
 40
0.0
  9
$USERR4
 40
0.0
  9
$USERR5
 40
0.0
  9
$WORLDVIEW
 70
     1
  9
$SHADEDGE
 70
     3
  9
$SHADEDIF
 70
    70
  9
$TILEMODE
 70
     1
  9
$MAXACTVP
 70
    48
  9
$PINSBASE
 10
0.0
 20
0.0
 30
0.0
  9
$PLIMCHECK
 70
     0
  9
$PEXTMIN
 10
-100000000000000000000.0
 20
-100000000000000000000.0
 30
-100000000000000000000.0
  9
$PEXTMAX
 10
100000000000000000000.0
 20
100000000000000000000.0
 30
100000000000000000000.0
  9
$PLIMMIN
 10
0.0
 20
0.0
  9
$PLIMMAX
 10
12.0
 20
9.0
  9
$UNITMODE
 70
     0
  9
$VISRETAIN
 70
     0
  9
$PLINEGEN
 70
     0
  9
$PSLTSCALE
 70
     0
  9
$TREEDEPTH
 70
  3020
  9
$ATTDIA
 70
     0
  9
$ATTREQ
 70
     1
  9
$BLIPMODE
 70
     1
  9
$COORDS
 70
     1
  9
$DRAGMODE
 70
     2
  9
$OSMODE
 70
     0
  9
$HANDLING
 70
     0
  9
$HANDSEED
  5
F7F4
  0
ENDSEC
  0
SECTION
  2
TABLES
  0
TABLE
  2
LTYPE
 70
     2
  0
LTYPE
  2
CONTINUOUS
 70
     0
  3
実線
 72
    65
 73
     0
 40
0.0
  0
LTYPE
  2
DASHDOT
 70
     0
  3
____ _ ____ _ ____ _ ____ _ ____ _ ____ _ ____
 72
    65
 73
     4
 40
5.5
 49
4.0
 49
-0.6
 49
0.3
 49
-0.6
  0
ENDTAB
  0
TABLE
  2
LAYER
 70
    12
  0
LAYER
  2
0
 70
     0
 62
     7
  6
CONTINUOUS
  0
LAYER
  2
BASIS
 70
     0
 62
     6
  6
DASHDOT
  0
LAYER
  2
OUTLINE
 70
     0
 62
     3
  6
CONTINUOUS
  0
LAYER
  2
DETAIL
 70
     0
 62
     5
  6
CONTINUOUS
  0
LAYER
  2
SIZE
 70
     0
 62
    30
  6
CONTINUOUS
  0
LAYER
  2
ARRANGE
 70
     0
 62
     1
  6
CONTINUOUS
  0
LAYER
  2
DEFPOINTS
 70
     0
 62
     7
  6
CONTINUOUS
  0
LAYER
  2
ETC
 70
     0
 62
    61
  6
CONTINUOUS
  0
LAYER
  2
FIX
 70
     0
 62
    11
  6
CONTINUOUS
  0
LAYER
  2
NOTE
 70
     0
 62
     4
  6
CONTINUOUS
  0
LAYER
  2
SERVICESPACE
 70
    64
 62
     2
  6
DASHDOT
  0
LAYER
  2
SYMBOLLINE
 70
    64
 62
    15
  6
CONTINUOUS
  0
ENDTAB
  0
TABLE
  2
STYLE
 70
     1
  0
STYLE
  2
STANDARD
 70
     0
 40
64.0
 41
0.9
 50
0.0
 71
     0
 42
64.0
  3
SIMPLEX.shx
  4
BIGFONT.shx
  0
ENDTAB
  0
TABLE
  2
APPID
 70
    20
  0
APPID
  2
ACAD
 70
     0
  0
APPID
  2
AUTOCAD_POSTSCRIPT_FIGURE
 70
     0
  0
APPID
  2
ACAD_EXEMPT_FROM_CAD_STANDARDS
 70
     0
  0
APPID
  2
ACAD_PSEXT
 70
     0
  0
APPID
  2
ACAUTHENVIRON
 70
     0
  0
APPID
  2
GENIUS_GENOENT_13
 70
     0
  0
APPID
  2
GENIUS_GENCFG_13
 70
     0
  0
APPID
  2
GENIUS_GENCFG0_13
 70
     0
  0
APPID
  2
GENIUS_GENCFG1_13
 70
     0
  0
APPID
  2
GENIUS_GENCFG2_13
 70
     0
  0
APPID
  2
GENIUS_GENCFG3_13
 70
     0
  0
APPID
  2
GENIUS_GENCFG4_13
 70
     0
  0
APPID
  2
GENIUS_GEVCFG0_13
 70
     0
  0
APPID
  2
CONTENTBLOCKICON
 70
     0
  0
APPID
  2
CONTENTBLOCKDESCRIPTION
 70
     0
  0
APPID
  2
ACAD_NAV_VCDISPLAY
 70
     0
  0
APPID
  2
ACAD_MLEADERVER
 70
     0
  0
APPID
  2
ACDBDYNAMICBLOCKTRUENAME
 70
     0
  0
APPID
  2
ACDBDYNAMICBLOCKGUID
 70
     0
  0
APPID
  2
ACAD_DSTYLE_DIMRADIAL_EXTENSION
 70
     0
  0
ENDTAB
  0
TABLE
  2
DIMSTYLE
 70
     1
  0
DIMSTYLE
  2
STANDARD
 70
     0
  3

  4

  5
_ORIGIN
  6

  7

 40
1.0
 41
12.0
 42
20.0
 43
200.0
 44
20.0
 45
0.0
 46
0.0
 47
0.0
 48
0.0
140
64.0
141
0.09
142
0.0
143
25.399999999999999
144
1.0
145
0.0
146
1.0
147
25.0
 71
     0
 72
     0
 73
     0
 74
     0
 75
     0
 76
     0
 77
     1
 78
     8
170
     0
171
     2
172
     1
173
     0
174
     1
175
     0
176
     7
177
     7
178
     7
  0
ENDTAB
  0
TABLE
  2
VIEW
 70
     1
  0
VIEW
  2
ALL
 70
     0
 40
4282.6198079999986
 10
0.0
 20
41.309904000000003
 41
5940.0
 11
0.0
 21
0.0
 31
1.0
 12
0.0
 22
0.0
 32
0.0
 42
50.0
 43
0.0
 44
0.0
 50
0.0
 71
     0
  0
ENDTAB
  0
TABLE
  2
UCS
 70
     0
  0
ENDTAB
  0
TABLE
  2
VPORT
 70
     1
  0
VPORT
  2
*ACTIVE
 70
     0
 10
0.0
 20
0.0
 11
1.0
 21
1.0
 12
287.54655347152777
 22
53.672800368713069
 13
0.0
 23
0.0
 14
1.0
 24
1.0
 15
0.0
 25
0.0
 16
0.0
 26
0.0
 36
1.0
 17
0.0
 27
0.0
 37
0.0
 40
655.7699694889676
 41
2.195615514333896
 42
50.0
 43
0.0
 44
0.0
 50
0.0
 51
0.0
 71
     0
 72
  1000
 73
     1
 74
     3
 75
     0
 76
     0
 77
     0
 78
     0
  0
ENDTAB
  0
ENDSEC
  0
SECTION
  2
BLOCKS
  0
BLOCK
  8
0
  2
_ORIGIN
 70
     0
 10
0.0
 20
0.0
 30
0.0
  3
_ORIGIN
  1
_ORIGIN
  0
CIRCLE
  8
SIZE
  6
CONTINUOUS
 62
    30
 10
0.0
 20
0.0
 30
0.0
 40
0.5
  0
LINE
  8
SIZE
  6
CONTINUOUS
 62
    30
 10
0.0
 20
0.0
 30
0.0
 11
-1.0
 21
0.0
 31
0.0
  0
ENDBLK
  8
0
  0
ENDSEC
  0
SECTION
  2
ENTITIES
  0
LINE
  8
DETAIL
  6
CONTINUOUS
 62
     5
 10
250.0
 20
-260.00000000000023
 30
0.0
 11
-250.0
 21
-260.00000000000023
 31
0.0
  0
LINE
  8
DETAIL
  6
CONTINUOUS
 62
     5
 10
260.0
 20
250.0
 30
0.0
 11
260.0
 21
-250.0000000000002
 31
0.0
  0
LINE
  8
BASIS
  6
DASHDOT
 62
     6
 10
0.0
 20
279.19834019000001
 30
0.0
 11
0.0
 21
-279.19834019000018
 31
0.0
  0
LINE
  8
DETAIL
  6
CONTINUOUS
 62
     5
 10
144.50290774134601
 20
-141.86317229745009
 30
0.0
 11
86.20166315437109
 21
-83.561927710297596
 31
0.0
  0
LINE
  8
DETAIL
  6
CONTINUOUS
 62
     5
 10
141.7440551282352
 20
-144.61975257828291
 30
0.0
 11
79.452181787134123
 21
-82.32787923684964
 31
0.0
  0
LINE
  8
DETAIL
  6
CONTINUOUS
 62
     5
 10
101.9721472279316
 20
104.6118826727502
 30
0.0
 11
57.036873098021722
 21
59.676608543048808
 31
0.0
  0
LINE
  8
DETAIL
  6
CONTINUOUS
 62
     5
 10
-260.0
 20
-250.0000000000002
 30
0.0
 11
-260.0
 21
250.0
 31
0.0
  0
LINE
  8
DETAIL
  6
CONTINUOUS
 62
     5
 10
-250.0
 20
260.0
 30
0.0
 11
250.0
 21
260.0
 31
0.0
  0
ARC
  8
DETAIL
  6
CONTINUOUS
 62
     5
 10
250.0
 20
-250.0000000000002
 30
0.0
 40
10.0
 50
270.0
 51
0.0
  0
ARC
  8
DETAIL
  6
CONTINUOUS
 62
     5
 10
250.0
 20
250.0
 30
0.0
 40
10.0
 50
0.0
 51
90.0
  0
ARC
  8
DETAIL
  6
CONTINUOUS
 62
     5
 10
-250.0
 20
-250.0000000000002
 30
0.0
 40
10.0
 50
180.0
 51
270.0
  0
ARC
  8
DETAIL
  6
CONTINUOUS
 62
     5
 10
-250.0
 20
250.0
 30
0.0
 40
10.0
 50
90.0
 51
180.0
  0
LINE
  8
BASIS
  6
DASHDOT
 62
     6
 10
279.19834019000342
 20
0.0
 30
0.0
 11
-279.19834018999973
 21
0.0
 31
0.0
  0
LINE
  8
DETAIL
  6
CONTINUOUS
 62
     5
 10
101.5545277552928
 20
98.678830307445196
 30
0.0
 11
59.791801812263202
 21
56.91610436460951
 31
0.0
  0
LINE
  8
SIZE
  6
CONTINUOUS
 62
    30
 10
-260.0
 20
270.0
 30
0.0
 11
-260.0
 21
475.1121363070456
 31
0.0
  0
LINE
  8
SIZE
  6
CONTINUOUS
 62
    30
 10
260.0
 20
270.0
 30
0.0
 11
260.0
 21
475.1121363070456
 31
0.0
  0
LINE
  8
SIZE
  6
CONTINUOUS
 62
    30
 10
-248.0
 20
455.1121363070456
 30
0.0
 11
248.0
 21
455.1121363070456
 31
0.0
  0
CIRCLE
  8
SIZE
  6
CONTINUOUS
 62
    30
 10
-260.0
 20
455.1121363070456
 30
0.0
 40
6.0
  0
LINE
  8
SIZE
  6
CONTINUOUS
 62
    30
 10
-260.0
 20
455.1121363070456
 30
0.0
 11
-248.0
 21
455.1121363070456
 31
0.0
  0
CIRCLE
  8
SIZE
  6
CONTINUOUS
 62
    30
 10
260.0
 20
455.1121363070456
 30
0.0
 40
6.0
  0
LINE
  8
SIZE
  6
CONTINUOUS
 62
    30
 10
260.0
 20
455.1121363070456
 30
0.0
 11
248.0
 21
455.1121363070456
 31
0.0
  0
TEXT
  8
SIZE
  6
CONTINUOUS
 62
    30
 10
-80.927999999999997
 20
480.1121363070456
 30
0.0
 40
64.0
  1
520
 50
0.0
 41
0.9
 51
0.0
  7
STANDARD
 71
     0
 72
     1
 11
0.0
 21
480.1121363070456
 31
0.0
210
0.0
220
0.0
230
1.0
  0
POINT
  8
DEFPOINTS
  6
CONTINUOUS
 62
    30
 10
-260.0
 20
250.0
 30
0.0
  0
POINT
  8
DEFPOINTS
  6
CONTINUOUS
 62
    30
 10
260.0
 20
250.0
 30
0.0
  0
POINT
  8
DEFPOINTS
  6
CONTINUOUS
 62
    30
 10
260.0
 20
455.1121363070456
 30
0.0
  0
ARC
  8
DETAIL
  6
CONTINUOUS
 62
     5
 10
108.8596226062518
 20
59.437853998256969
 30
0.0
 40
144.7837031409866
 50
243.32377900349459
 51
304.47480281614952
  0
ARC
  8
DETAIL
  6
CONTINUOUS
 62
     5
 10
-69.995325827466786
 20
113.7352147923648
 30
0.0
 40
172.20931153112491
 50
329.4383252227679
 51
16.701449156905699
  0
ARC
  8
DETAIL
  6
CONTINUOUS
 62
     5
 10
101.3220332763908
 20
165.0936154370236
 30
0.0
 40
6.6408181627871219
 50
163.83157922883771
 51
196.33789190331879
  0
ARC
  8
DETAIL
  6
CONTINUOUS
 62
     5
 10
-2.9551197942055301
 20
-123.99412562253001
 30
0.0
 40
144.7837031409866
 50
123.32377900348099
 51
184.4748028161309
  0
ARC
  8
DETAIL
  6
CONTINUOUS
 62
     5
 10
125.7378858455363
 20
-19.79889128036962
 30
0.0
 40
148.679501157125
 50
204.74159188156699
 51
258.8964564610863
  0
ARC
  8
DETAIL
  6
CONTINUOUS
 62
     5
 10
-105.90450281204809
 20
64.55627162427254
 30
0.0
 40
144.7837031409866
 50
3.323779003484173
 51
64.474802816106546
  0
ARC
  8
DETAIL
  6
CONTINUOUS
 62
     5
 10
-81.627803252337799
 20
-96.194803642037186
 30
0.0
 40
145.6287689242989
 50
84.10865255066129
 51
139.3088679151372
  0
ARC
  8
OUTLINE
  6
CONTINUOUS
 62
     3
 10
250.0
 20
250.0
 30
0.0
 40
9.9999999999999982
 50
0.0
 51
90.0
  0
LINE
  8
OUTLINE
  6
CONTINUOUS
 62
     3
 10
250.0
 20
260.0
 30
0.0
 11
-250.0
 21
260.0
 31
0.0
  0
ARC
  8
OUTLINE
  6
CONTINUOUS
 62
     3
 10
-250.0
 20
250.0
 30
0.0
 40
9.9999999999999982
 50
90.0
 51
180.0
  0
LINE
  8
OUTLINE
  6
CONTINUOUS
 62
     3
 10
-260.0
 20
250.0
 30
0.0
 11
-260.0
 21
-250.0000000000002
 31
0.0
  0
ARC
  8
OUTLINE
  6
CONTINUOUS
 62
     3
 10
-250.0
 20
-250.00000000000023
 30
0.0
 40
10.0
 50
180.0
 51
270.0
  0
LINE
  8
OUTLINE
  6
CONTINUOUS
 62
     3
 10
-250.0
 20
-260.00000000000023
 30
0.0
 11
250.0
 21
-260.00000000000023
 31
0.0
  0
ARC
  8
OUTLINE
  6
CONTINUOUS
 62
     3
 10
250.0
 20
-250.00000000000023
 30
0.0
 40
10.0
 50
270.0
 51
0.0
  0
LINE
  8
OUTLINE
  6
CONTINUOUS
 62
     3
 10
260.0
 20
-250.0000000000002
 30
0.0
 11
260.0
 21
250.0
 31
0.0
  0
LINE
  8
SIZE
  6
CONTINUOUS
 62
    30
 10
-269.99999999999829
 20
230.00000000000011
 30
0.0
 11
-348.57712768210348
 21
230.00000000000011
 31
0.0
  0
LINE
  8
SIZE
  6
CONTINUOUS
 62
    30
 10
-270.00000000000188
 20
-229.9999999999965
 30
0.0
 11
-348.57712768210342
 21
-229.9999999999965
 31
0.0
  0
LINE
  8
SIZE
  6
CONTINUOUS
 62
    30
 10
-328.57712768210348
 20
218.00000000000011
 30
0.0
 11
-328.57712768210342
 21
-217.9999999999965
 31
0.0
  0
CIRCLE
  8
SIZE
  6
CONTINUOUS
 62
    30
 10
-328.57712768210348
 20
230.00000000000011
 30
0.0
 40
6.0
  0
LINE
  8
SIZE
  6
CONTINUOUS
 62
    30
 10
-328.57712768210348
 20
230.00000000000011
 30
0.0
 11
-328.57712768210348
 21
218.00000000000011
 31
0.0
  0
CIRCLE
  8
SIZE
  6
CONTINUOUS
 62
    30
 10
-328.57712768210342
 20
-229.9999999999965
 30
0.0
 40
6.0
  0
LINE
  8
SIZE
  6
CONTINUOUS
 62
    30
 10
-328.57712768210342
 20
-229.9999999999965
 30
0.0
 11
-328.57712768210342
 21
-217.9999999999965
 31
0.0
  0
TEXT
  8
SIZE
  6
CONTINUOUS
 62
    30
 10
-353.57712768210342
 20
-81.503999999998115
 30
0.0
 40
64.0
  1
460
 50
90.0
 41
0.9
 51
0.0
  7
STANDARD
 71
     0
 72
     1
 11
-353.57712768210342
 21
0.0000000000019009
 31
0.0
210
0.0
220
0.0
230
1.0
  0
POINT
  8
DEFPOINTS
  6
CONTINUOUS
 62
    30
 10
-249.99999999999829
 20
230.00000000000011
 30
0.0
  0
POINT
  8
DEFPOINTS
  6
CONTINUOUS
 62
    30
 10
-250.0000000000019
 20
-229.9999999999965
 30
0.0
  0
POINT
  8
DEFPOINTS
  6
CONTINUOUS
 62
    30
 10
-328.57712768210342
 20
-229.9999999999965
 30
0.0
  0
LINE
  8
SIZE
  6
CONTINUOUS
 62
    30
 10
-270.00000000000011
 20
260.00000000000011
 30
0.0
 11
-471.31519754367628
 21
260.00000000000011
 31
0.0
  0
LINE
  8
SIZE
  6
CONTINUOUS
 62
    30
 10
-270.00000000000011
 20
-260.00000000000028
 30
0.0
 11
-471.31519754367622
 21
-260.0000000000004
 31
0.0
  0
LINE
  8
SIZE
  6
CONTINUOUS
 62
    30
 10
-451.31519754367628
 20
248.00000000000011
 30
0.0
 11
-451.31519754367622
 21
-248.0000000000004
 31
0.0
  0
CIRCLE
  8
SIZE
  6
CONTINUOUS
 62
    30
 10
-451.31519754367628
 20
260.00000000000011
 30
0.0
 40
6.0
  0
LINE
  8
SIZE
  6
CONTINUOUS
 62
    30
 10
-451.31519754367628
 20
260.00000000000011
 30
0.0
 11
-451.31519754367628
 21
248.00000000000011
 31
0.0
  0
CIRCLE
  8
SIZE
  6
CONTINUOUS
 62
    30
 10
-451.31519754367622
 20
-260.0000000000004
 30
0.0
 40
6.0
  0
LINE
  8
SIZE
  6
CONTINUOUS
 62
    30
 10
-451.31519754367622
 20
-260.0000000000004
 30
0.0
 11
-451.31519754367622
 21
-248.0000000000004
 31
0.0
  0
TEXT
  8
SIZE
  6
CONTINUOUS
 62
    30
 10
-476.31519754367611
 20
-80.928000000000083
 30
0.0
 40
64.0
  1
520
 50
90.0
 41
0.9
 51
0.0
  7
STANDARD
 71
     0
 72
     1
 11
-476.31519754367611
 21
-0.000000000000081
 31
0.0
210
0.0
220
0.0
230
1.0
  0
POINT
  8
DEFPOINTS
  6
CONTINUOUS
 62
    30
 10
-250.00000000000011
 20
260.00000000000011
 30
0.0
  0
POINT
  8
DEFPOINTS
  6
CONTINUOUS
 62
    30
 10
-250.00000000000011
 20
-260.00000000000028
 30
0.0
  0
POINT
  8
DEFPOINTS
  6
CONTINUOUS
 62
    30
 10
-451.31519754367622
 20
-260.0000000000004
 30
0.0
  0
LINE
  8
SIZE
  6
CONTINUOUS
 62
    30
 10
-229.99999999999821
 20
270.0
 30
0.0
 11
-229.99999999999821
 21
367.25055983713401
 31
0.0
  0
LINE
  8
SIZE
  6
CONTINUOUS
 62
    30
 10
229.99999999999821
 20
269.99999999999608
 30
0.0
 11
229.99999999999821
 21
367.25055983713401
 31
0.0
  0
LINE
  8
SIZE
  6
CONTINUOUS
 62
    30
 10
-217.99999999999821
 20
347.25055983713401
 30
0.0
 11
217.99999999999821
 21
347.25055983713401
 31
0.0
  0
CIRCLE
  8
SIZE
  6
CONTINUOUS
 62
    30
 10
-229.99999999999821
 20
347.25055983713401
 30
0.0
 40
6.0
  0
LINE
  8
SIZE
  6
CONTINUOUS
 62
    30
 10
-229.99999999999821
 20
347.25055983713401
 30
0.0
 11
-217.99999999999821
 21
347.25055983713401
 31
0.0
  0
CIRCLE
  8
SIZE
  6
CONTINUOUS
 62
    30
 10
229.99999999999821
 20
347.25055983713401
 30
0.0
 40
6.0
  0
LINE
  8
SIZE
  6
CONTINUOUS
 62
    30
 10
229.99999999999821
 20
347.25055983713401
 30
0.0
 11
217.99999999999821
 21
347.25055983713401
 31
0.0
  0
TEXT
  8
SIZE
  6
CONTINUOUS
 62
    30
 10
-81.504000000000005
 20
372.25055983713401
 30
0.0
 40
64.0
  1
460
 50
0.0
 41
0.9
 51
0.0
  7
STANDARD
 71
     0
 72
     1
 11
0.0
 21
372.25055983713401
 31
0.0
210
0.0
220
0.0
230
1.0
  0
POINT
  8
DEFPOINTS
  6
CONTINUOUS
 62
    30
 10
-229.99999999999821
 20
250.0
 30
0.0
  0
POINT
  8
DEFPOINTS
  6
CONTINUOUS
 62
    30
 10
229.99999999999821
 20
249.99999999999611
 30
0.0
  0
POINT
  8
DEFPOINTS
  6
CONTINUOUS
 62
    30
 10
229.99999999999821
 20
347.25055983713401
 30
0.0
  0
POINT
  8
ARRANGE
  6
CONTINUOUS
 62
     1
 10
0.0
 20
0.0
 30
0.0
 50
180.0
  0
CIRCLE
  8
ARRANGE
  6
CONTINUOUS
 62
     1
 10
0.0
 20
0.0
 30
0.0
 40
40.0
  0
ARC
  8
DETAIL
  6
CONTINUOUS
 62
     5
 10
101.1267686835422
 20
164.9964142578774
 30
0.0
 40
6.4820272861876127
 50
56.668550839134383
 51
162.52565170856931
  0
ARC
  8
DETAIL
  6
CONTINUOUS
 62
     5
 10
92.327701938894734
 20
-170.0765578115174
 30
0.0
 40
6.4820272861876136
 50
296.66855083911167
 51
42.525651708580689
  0
ARC
  8
DETAIL
  6
CONTINUOUS
 62
     5
 10
-193.4544706224315
 20
5.0801435536395729
 30
0.0
 40
6.4820272861876136
 50
176.66855083913751
 51
282.52565170857758
  0
LINE
  8
DETAIL
  6
CONTINUOUS
 62
     5
 10
213.44974746799741
 20
228.5502525319998
 30
0.0
 11
228.55025253099851
 21
213.4497474689999
 31
0.0
  0
LINE
  8
DETAIL
  6
CONTINUOUS
 62
     5
 10
240.49999999999821
 20
218.3994949369999
 30
0.0
 11
240.49999999999821
 21
232.5
 31
0.0
  0
LINE
  8
DETAIL
  6
CONTINUOUS
 62
     5
 10
232.49999999999821
 20
240.5
 30
0.0
 11
218.3994949359967
 21
240.5
 31
0.0
  0
ARC
  8
DETAIL
  6
CONTINUOUS
 62
     5
 10
232.49999999999821
 20
232.5
 30
0.0
 40
8.0000000000000018
 50
0.0
 51
90.0
  0
ARC
  8
DETAIL
  6
CONTINUOUS
 62
     5
 10
218.3994949359967
 20
233.5
 30
0.0
 40
7.0000000000000018
 50
90.0
 51
224.99999999999079
  0
ARC
  8
DETAIL
  6
CONTINUOUS
 62
     5
 10
233.49999999999821
 20
218.3994949369999
 30
0.0
 40
7.0000000000000018
 50
224.99999999999079
 51
0.0
  0
CIRCLE
  8
DETAIL
  6
CONTINUOUS
 62
     5
 10
229.99999999999821
 20
230.0
 30
0.0
 40
7.5000000000000018
  0
CIRCLE
  8
FIX
  6
CONTINUOUS
 62
    11
 10
229.99999999999821
 20
230.0
 30
0.0
 40
7.5000000000000018
  0
LINE
  8
BASIS
  6
DASHDOT
 62
     6
 10
229.99999999999821
 20
210.0
 30
0.0
 11
229.99999999999821
 21
250.0
 31
0.0
  0
LINE
  8
BASIS
  6
DASHDOT
 62
     6
 10
249.99999999999821
 20
230.0
 30
0.0
 11
209.99999999999821
 21
230.0
 31
0.0
  0
LINE
  8
DETAIL
  6
CONTINUOUS
 62
     5
 10
228.55025253200171
 20
-213.44974746799559
 30
0.0
 11
213.44974746900149
 21
-228.55025253099669
 31
0.0
  0
LINE
  8
DETAIL
  6
CONTINUOUS
 62
     5
 10
218.39949493700169
 20
-240.49999999999639
 30
0.0
 11
232.50000000000179
 21
-240.49999999999639
 31
0.0
  0
LINE
  8
DETAIL
  6
CONTINUOUS
 62
     5
 10
240.50000000000179
 20
-232.49999999999639
 30
0.0
 11
240.50000000000179
 21
-218.39949493599491
 31
0.0
  0
ARC
  8
DETAIL
  6
CONTINUOUS
 62
     5
 10
232.50000000000179
 20
-232.49999999999639
 30
0.0
 40
8.0000000000000053
 50
270.0
 51
0.0
  0
ARC
  8
DETAIL
  6
CONTINUOUS
 62
     5
 10
233.50000000000179
 20
-218.39949493599491
 30
0.0
 40
7.0000000000000053
 50
0.0
 51
135.0
  0
ARC
  8
DETAIL
  6
CONTINUOUS
 62
     5
 10
218.39949493700169
 20
-233.49999999999639
 30
0.0
 40
7.0000000000000053
 50
135.0
 51
270.0
  0
CIRCLE
  8
DETAIL
  6
CONTINUOUS
 62
     5
 10
230.00000000000179
 20
-229.99999999999639
 30
0.0
 40
7.5000000000000053
  0
CIRCLE
  8
FIX
  6
CONTINUOUS
 62
    11
 10
230.00000000000179
 20
-229.99999999999639
 30
0.0
 40
7.5000000000000053
  0
LINE
  8
BASIS
  6
DASHDOT
 62
     6
 10
210.00000000000179
 20
-229.99999999999639
 30
0.0
 11
250.00000000000179
 21
-229.99999999999639
 31
0.0
  0
LINE
  8
BASIS
  6
DASHDOT
 62
     6
 10
230.00000000000179
 20
-249.99999999999639
 30
0.0
 11
230.00000000000179
 21
-209.99999999999639
 31
0.0
  0
LINE
  8
DETAIL
  6
CONTINUOUS
 62
     5
 10
-213.4497474679938
 20
-228.55025253200029
 30
0.0
 11
-228.55025253099481
 21
-213.44974746900019
 31
0.0
  0
LINE
  8
DETAIL
  6
CONTINUOUS
 62
     5
 10
-240.49999999999449
 20
-218.3994949370003
 30
0.0
 11
-240.49999999999449
 21
-232.50000000000051
 31
0.0
  0
LINE
  8
DETAIL
  6
CONTINUOUS
 62
     5
 10
-232.49999999999449
 20
-240.50000000000051
 30
0.0
 11
-218.39949493599309
 21
-240.50000000000051
 31
0.0
  0
ARC
  8
DETAIL
  6
CONTINUOUS
 62
     5
 10
-232.49999999999449
 20
-232.50000000000051
 30
0.0
 40
8.0000000000000036
 50
180.0
 51
270.0
  0
ARC
  8
DETAIL
  6
CONTINUOUS
 62
     5
 10
-218.39949493599309
 20
-233.5000000000002
 30
0.0
 40
7.0000000000000044
 50
270.0
 51
44.999999999990777
  0
ARC
  8
DETAIL
  6
CONTINUOUS
 62
     5
 10
-233.49999999999449
 20
-218.3994949370003
 30
0.0
 40
7.0000000000000044
 50
44.999999999990777
 51
180.0
  0
CIRCLE
  8
DETAIL
  6
CONTINUOUS
 62
     5
 10
-229.99999999999449
 20
-230.00000000000051
 30
0.0
 40
7.5000000000000044
  0
CIRCLE
  8
FIX
  6
CONTINUOUS
 62
    11
 10
-229.99999999999449
 20
-230.00000000000051
 30
0.0
 40
7.5000000000000044
  0
LINE
  8
BASIS
  6
DASHDOT
 62
     6
 10
-229.99999999999449
 20
-210.00000000000051
 30
0.0
 11
-229.99999999999449
 21
-250.00000000000051
 31
0.0
  0
LINE
  8
BASIS
  6
DASHDOT
 62
     6
 10
-249.99999999999449
 20
-230.00000000000051
 30
0.0
 11
-209.99999999999449
 21
-230.00000000000051
 31
0.0
  0
LINE
  8
DETAIL
  6
CONTINUOUS
 62
     5
 10
-228.55025253199801
 20
213.44974746799539
 30
0.0
 11
-213.44974746899831
 21
228.5502525309964
 31
0.0
  0
LINE
  8
DETAIL
  6
CONTINUOUS
 62
     5
 10
-218.39949493699811
 20
240.49999999999611
 30
0.0
 11
-232.49999999999821
 21
240.49999999999611
 31
0.0
  0
LINE
  8
DETAIL
  6
CONTINUOUS
 62
     5
 10
-240.49999999999821
 20
232.49999999999611
 30
0.0
 11
-240.49999999999821
 21
218.39949493599471
 31
0.0
  0
ARC
  8
DETAIL
  6
CONTINUOUS
 62
     5
 10
-232.49999999999821
 20
232.49999999999611
 30
0.0
 40
8.0000000000000053
 50
90.0
 51
180.0
  0
ARC
  8
DETAIL
  6
CONTINUOUS
 62
     5
 10
-233.49999999999821
 20
218.39949493599471
 30
0.0
 40
7.0000000000000053
 50
180.0
 51
315.0
  0
ARC
  8
DETAIL
  6
CONTINUOUS
 62
     5
 10
-218.39949493699811
 20
233.49999999999611
 30
0.0
 40
7.0000000000000053
 50
315.0
 51
90.0
  0
CIRCLE
  8
DETAIL
  6
CONTINUOUS
 62
     5
 10
-229.99999999999821
 20
229.99999999999611
 30
0.0
 40
7.5000000000000053
  0
CIRCLE
  8
FIX
  6
CONTINUOUS
 62
    11
 10
-229.99999999999821
 20
229.99999999999611
 30
0.0
 40
7.5000000000000053
  0
LINE
  8
BASIS
  6
DASHDOT
 62
     6
 10
-209.99999999999821
 20
229.99999999999611
 30
0.0
 11
-249.99999999999821
 21
229.99999999999611
 31
0.0
  0
LINE
  8
BASIS
  6
DASHDOT
 62
     6
 10
-229.99999999999821
 20
249.99999999999611
 30
0.0
 11
-229.99999999999821
 21
209.99999999999611
 31
0.0
  0
LINE
  8
SIZE
  6
CONTINUOUS
 62
    30
 10
498.54114428627412
 20
-133.06484458700399
 30
0.0
 11
207.24491410060031
 21
-55.315419002624779
 31
0.0
  0
LINE
  8
SIZE
  6
CONTINUOUS
 62
    30
 10
-207.24491410059571
 20
55.315419002624111
 30
0.0
 11
-218.83903516916061
 21
58.40998789787583
 31
0.0
  0
TEXT
  8
SIZE
  6
CONTINUOUS
 62
    30
 10
271.96730917801807
 20
-46.715190595697095
 30
0.0
 40
64.0
  1
φ405
 50
345.05565009407138
 41
0.9
 51
0.0
  7
STANDARD
 71
     0
 72
     1
 11
384.10564815317775
 21
-76.645860950571731
 31
0.0
210
0.0
220
0.0
230
1.0
  0
LINE
  8
SIZE
  6
CONTINUOUS
 62
    30
 10
-195.6507930320308
 20
52.220850107372399
 30
0.0
 11
195.65079303203541
 21
-52.22085010737306
 31
0.0
  0
CIRCLE
  8
SIZE
  6
CONTINUOUS
 62
    30
 10
-195.6507930320308
 20
52.220850107372399
 30
0.0
 40
6.0
  0
LINE
  8
SIZE
  6
CONTINUOUS
 62
    30
 10
-195.6507930320308
 20
52.220850107372399
 30
0.0
 11
-207.24491410059571
 21
55.315419002624118
 31
0.0
  0
CIRCLE
  8
SIZE
  6
CONTINUOUS
 62
    30
 10
195.65079303203541
 20
-52.22085010737306
 30
0.0
 40
6.0
  0
LINE
  8
SIZE
  6
CONTINUOUS
 62
    30
 10
195.65079303203541
 20
-52.22085010737306
 30
0.0
 11
207.24491410060031
 21
-55.315419002624779
 31
0.0
  0
POINT
  8
DEFPOINTS
  6
CONTINUOUS
 62
    30
 10
195.65079303203541
 20
-52.22085010737306
 30
0.0
  0
POINT
  8
DEFPOINTS
  6
CONTINUOUS
 62
    30
 10
-195.6507930320308
 20
52.220850107372399
 30
0.0
  0
LINE
  8
SIZE
  6
CONTINUOUS
 62
    30
 10
449.01129522629009
 20
-308.85013368601369
 30
0.0
 11
174.66875820167419
 21
-120.14501616082779
 31
0.0
  0
LINE
  8
SIZE
  6
CONTINUOUS
 62
    30
 10
-174.66875820167141
 20
120.14501616082779
 30
0.0
 11
-184.55566904327549
 21
126.94567745295021
 31
0.0
  0
TEXT
  8
SIZE
  6
CONTINUOUS
 62
    30
 10
263.99575054880893
 20
-151.2449850108531
 30
0.0
 40
64.0
  1
φ400
 50
325.47805998357819
 41
0.9
 51
0.0
  7
STANDARD
 71
     0
 72
     1
 11
360.09652392920094
 21
-217.34741277028209
 31
0.0
210
0.0
220
0.0
230
1.0
  0
LINE
  8
SIZE
  6
CONTINUOUS
 62
    30
 10
-164.7818473600673
 20
113.34435486870549
 30
0.0
 11
164.78184736007
 21
-113.34435486870549
 31
0.0
  0
CIRCLE
  8
SIZE
  6
CONTINUOUS
 62
    30
 10
-164.7818473600673
 20
113.34435486870549
 30
0.0
 40
6.0
  0
LINE
  8
SIZE
  6
CONTINUOUS
 62
    30
 10
-164.7818473600673
 20
113.34435486870549
 30
0.0
 11
-174.66875820167141
 21
120.14501616082782
 31
0.0
  0
CIRCLE
  8
SIZE
  6
CONTINUOUS
 62
    30
 10
164.78184736007
 20
-113.34435486870549
 30
0.0
 40
6.0
  0
LINE
  8
SIZE
  6
CONTINUOUS
 62
    30
 10
164.78184736007
 20
-113.34435486870549
 30
0.0
 11
174.66875820167411
 21
-120.14501616082782
 31
0.0
  0
ARC
  8
SIZE
  6
CONTINUOUS
 62
    30
 10
0.0000000000013602
 20
0.0000000000000216
 30
0.0
 40
200.00000000000011
 50
323.16262931296171
 51
331.20763793488652
  0
POINT
  8
DEFPOINTS
  6
CONTINUOUS
 62
    30
 10
164.78184736007
 20
-113.34435486870549
 30
0.0
  0
POINT
  8
DEFPOINTS
  6
CONTINUOUS
 62
    30
 10
-164.7818473600673
 20
113.34435486870549
 30
0.0
  0
CIRCLE
  8
DETAIL
  6
CONTINUOUS
 62
     5
 10
0.0
 20
0.0
 30
0.0
 40
202.49999999999989
  0
ARC
  8
DETAIL
  6
CONTINUOUS
 62
     5
 10
0.0
 20
0.0
 30
0.0
 40
200.0000000000006
 50
222.56694863835
 51
298.55495965041291
  0
ARC
  8
DETAIL
  6
CONTINUOUS
 62
     5
 10
0.0
 20
0.0
 30
0.0
 40
200.0000000000006
 50
342.56694863835168
 51
58.554959650419377
  0
ARC
  8
DETAIL
  6
CONTINUOUS
 62
     5
 10
0.0
 20
0.0
 30
0.0
 40
200.0000000000006
 50
102.5669486383516
 51
178.55495965039611
  0
CIRCLE
  8
DETAIL
  6
CONTINUOUS
 62
     5
 10
0.0
 20
0.0
 30
0.0
 40
82.55000000000058
  0
TEXT
  8
ETC
  6
CONTINUOUS
 62
    61
 10
369.55838677524838
 20
465.66732822650971
 30
0.0
 40
64.0
  1
EG-40CTXC2-Q_3
 41
0.9
  0
TEXT
  8
ETC
  6
CONTINUOUS
 62
    61
 10
365.37239277524901
 20
347.71201821167853
 30
0.0
 40
64.0
  1
有圧換気扇
 41
0.9
  0
TEXT
  8
ETC
  6
CONTINUOUS
 62
    61
 10
416.07379102380401
 20
239.56324532545318
 30
0.0
 40
40.0
  1
EG-40CTXC2-Q
 50
0.0
 41
0.9
 51
0.0
  7
STANDARD
 71
     0
 11
0.0
 21
0.0
 31
0.0
210
0.0
220
0.0
230
1.0
  0
LINE
  8
DETAIL
  6
CONTINUOUS
 62
     5
 10
-156.54500283719611
 20
-260.00000000000023
 30
0.0
 11
-156.54500283719611
 21
-308.17191827245841
 31
0.0
  0
LINE
  8
DETAIL
  6
CONTINUOUS
 62
     5
 10
-166.54500283719611
 20
-260.00000000000023
 30
0.0
 11
-166.54500283719611
 21
-308.17191827245841
 31
0.0
  0
LINE
  8
DETAIL
  6
CONTINUOUS
 62
     5
 10
-156.54500283719611
 20
-308.17191827245841
 30
0.0
 11
-166.54500283719611
 21
-308.17191827245841
 31
0.0
  0
TEXT
  8
NOTE
  6
CONTINUOUS
 62
     4
 10
301.38635559004661
 20
-378.19421081440942
 30
0.0
 40
64.0
  1
4-φ15
 50
0.0
 41
0.9
 51
0.0
  7
STANDARD
 71
     0
 11
0.0
 21
0.0
 31
0.0
210
0.0
220
0.0
230
1.0
  0
LINE
  8
NOTE
  6
CONTINUOUS
 62
     4
 10
301.29635559004652
 20
-390.99421081440943
 30
0.0
 11
570.18635559004633
 21
-390.99421081440943
 31
0.0
  0
LINE
  8
NOTE
  6
CONTINUOUS
 62
     4
 10
231.44842549911516
 20
-261.02449912284311
 30
0.0
 11
230.00000000000179
 21
-229.99999999999639
 31
0.0
  0
LINE
  8
NOTE
  6
CONTINUOUS
 62
     4
 10
230.00000000000179
 20
-229.99999999999639
 30
0.0
 11
246.7666622363505
 21
-256.14376636412607
 31
0.0
  0
LINE
  8
NOTE
  6
CONTINUOUS
 62
     4
 10
230.00000000000179
 20
-229.99999999999639
 30
0.0
 11
248.21508773546387
 21
-287.16826548697281
 31
0.0
  0
LINE
  8
NOTE
  6
CONTINUOUS
 62
     4
 10
248.21508773546401
 20
-287.16826548697281
 30
0.0
 11
281.29635559004652
 21
-390.99421081440943
 31
0.0
  0
LINE
  8
NOTE
  6
CONTINUOUS
 62
     4
 10
281.29635559004652
 20
-390.99421081440943
 30
0.0
 11
301.29635559004652
 21
-390.99421081440943
 31
0.0
  0
TEXT
  8
NOTE
  6
CONTINUOUS
 62
     4
 10
-374.72500021840989
 20
-424.18646194081492
 30
0.0
 40
64.0
  1
EL
 50
0.0
 41
0.9
 51
0.0
  7
STANDARD
 71
     0
 72
     2
 11
-273.34900021840991
 21
-424.18646194081492
 31
0.0
210
0.0
220
0.0
230
1.0
  0
LINE
  8
NOTE
  6
CONTINUOUS
 62
     4
 10
-273.25900021840971
 20
-436.98646194081482
 30
0.0
 11
-358.37757164698121
 21
-436.98646194081482
 31
0.0
  0
LINE
  8
NOTE
  6
CONTINUOUS
 62
     4
 10
-183.96763254837759
 20
-314.0910361809353
 30
0.0
 11
-161.00263716375591
 21
-293.18107517584718
 31
0.0
  0
LINE
  8
NOTE
  6
CONTINUOUS
 62
     4
 10
-161.00263716375591
 20
-293.18107517584718
 30
0.0
 11
-170.43588147002077
 21
-322.7721445061083
 31
0.0
  0
LINE
  8
NOTE
  6
CONTINUOUS
 62
     4
 10
-161.00263716375591
 20
-293.18107517584718
 30
0.0
 11
-193.40087685464246
 21
-343.68210551119643
 31
0.0
  0
LINE
  8
NOTE
  6
CONTINUOUS
 62
     4
 10
-193.40087685464249
 20
-343.68210551119648
 30
0.0
 11
-253.25900021840971
 21
-436.98646194081482
 31
0.0
  0
LINE
  8
NOTE
  6
CONTINUOUS
 62
     4
 10
-253.25900021840971
 20
-436.98646194081482
 30
0.0
 11
-273.25900021840971
 21
-436.98646194081482
 31
0.0
  0
ENDSEC
  0
EOF
