  0
SECTION
  2
HEADER
  9
$ACADVER
  1
AC1009
  9
$DWGCODEPAGE
  3
dos932
  9
$INSBASE
 10
0.0
 20
0.0
 30
0.0
  9
$EXTMIN
 10
-677.96629209533239
 20
-419.12840623307062
 30
-0.0015258207003583
  9
$EXTMAX
 10
1192.332470256755
 20
570.37354315441735
 30
0.0000000349246037
  9
$LIMMIN
 10
-2970.0
 20
-2100.0
  9
$LIMMAX
 10
2970.0
 20
2100.0
  9
$ORTHOMODE
 70
     1
  9
$REGENMODE
 70
     1
  9
$FILLMODE
 70
     1
  9
$QTEXTMODE
 70
     0
  9
$MIRRTEXT
 70
     0
  9
$LTSCALE
 40
20.0
  9
$ATTMODE
 70
     1
  9
$TEXTSIZE
 40
64.0
  9
$TRACEWID
 40
0.05
  9
$TEXTSTYLE
  7
STANDARD
  9
$CLAYER
  8
SIZE
  9
$CELTYPE
  6
CONTINUOUS
  9
$CECOLOR
 62
     7
  9
$DIMSCALE
 40
1.0
  9
$DIMASZ
 40
12.0
  9
$DIMEXO
 40
20.0
  9
$DIMDLI
 40
200.0
  9
$DIMRND
 40
0.0
  9
$DIMDLE
 40
0.0
  9
$DIMEXE
 40
20.0
  9
$DIMTP
 40
0.0
  9
$DIMTM
 40
0.0
  9
$DIMTXT
 40
64.0
  9
$DIMCEN
 40
0.09
  9
$DIMTSZ
 40
0.0
  9
$DIMTOL
 70
     0
  9
$DIMLIM
 70
     0
  9
$DIMTIH
 70
     0
  9
$DIMTOH
 70
     0
  9
$DIMSE1
 70
     0
  9
$DIMSE2
 70
     0
  9
$DIMTAD
 70
     1
  9
$DIMZIN
 70
     8
  9
$DIMBLK
  1

  9
$DIMASO
 70
     1
  9
$DIMSHO
 70
     0
  9
$DIMPOST
  1

  9
$DIMAPOST
  1

  9
$DIMALT
 70
     0
  9
$DIMALTD
 70
     2
  9
$DIMALTF
 40
25.399999999999999
  9
$DIMLFAC
 40
1.0
  9
$DIMTOFL
 70
     1
  9
$DIMTVP
 40
0.0
  9
$DIMTIX
 70
     1
  9
$DIMSOXD
 70
     0
  9
$DIMSAH
 70
     0
  9
$DIMBLK1
  1

  9
$DIMBLK2
  1

  9
$DIMSTYLE
  2
STANDARD
  9
$DIMCLRD
 70
     7
  9
$DIMCLRE
 70
     7
  9
$DIMCLRT
 70
     7
  9
$DIMTFAC
 40
1.0
  9
$DIMGAP
 40
25.0
  9
$LUNITS
 70
     2
  9
$LUPREC
 70
     4
  9
$SKETCHINC
 40
0.1
  9
$FILLETRAD
 40
3.0
  9
$AUNITS
 70
     1
  9
$AUPREC
 70
     3
  9
$MENU
  1
ACAD
  9
$ELEVATION
 40
0.0
  9
$PELEVATION
 40
0.0
  9
$THICKNESS
 40
0.0
  9
$LIMCHECK
 70
     0
  9
$CHAMFERA
 40
0.0
  9
$CHAMFERB
 40
0.0
  9
$SKPOLY
 70
     0
  9
$TDCREATE
 40
2453019.62301037
  9
$TDUPDATE
 40
2459362.658277245
  9
$TDINDWG
 40
1.7151780208
  9
$TDUSRTIMER
 40
1.7151780208
  9
$USRTIMER
 70
     1
  9
$ANGBASE
 50
0.0
  9
$ANGDIR
 70
     0
  9
$PDMODE
 70
     3
  9
$PDSIZE
 40
-2.0
  9
$PLINEWID
 40
0.0
  9
$SPLFRAME
 70
     0
  9
$SPLINETYPE
 70
     6
  9
$SPLINESEGS
 70
     8
  9
$SURFTAB1
 70
     6
  9
$SURFTAB2
 70
     6
  9
$SURFTYPE
 70
     6
  9
$SURFU
 70
     6
  9
$SURFV
 70
     6
  9
$UCSNAME
  2

  9
$UCSORG
 10
0.0
 20
0.0
 30
0.0
  9
$UCSXDIR
 10
1.0
 20
0.0
 30
0.0
  9
$UCSYDIR
 10
0.0
 20
1.0
 30
0.0
  9
$PUCSNAME
  2

  9
$PUCSORG
 10
0.0
 20
0.0
 30
0.0
  9
$PUCSXDIR
 10
1.0
 20
0.0
 30
0.0
  9
$PUCSYDIR
 10
0.0
 20
1.0
 30
0.0
  9
$USERI1
 70
     0
  9
$USERI2
 70
     0
  9
$USERI3
 70
     0
  9
$USERI4
 70
     0
  9
$USERI5
 70
     0
  9
$USERR1
 40
20.0
  9
$USERR2
 40
0.0
  9
$USERR3
 40
0.0
  9
$USERR4
 40
0.0
  9
$USERR5
 40
0.0
  9
$WORLDVIEW
 70
     1
  9
$SHADEDGE
 70
     3
  9
$SHADEDIF
 70
    70
  9
$TILEMODE
 70
     1
  9
$MAXACTVP
 70
    48
  9
$PINSBASE
 10
0.0
 20
0.0
 30
0.0
  9
$PLIMCHECK
 70
     0
  9
$PEXTMIN
 10
-100000000000000000000.0
 20
-100000000000000000000.0
 30
-100000000000000000000.0
  9
$PEXTMAX
 10
100000000000000000000.0
 20
100000000000000000000.0
 30
100000000000000000000.0
  9
$PLIMMIN
 10
0.0
 20
0.0
  9
$PLIMMAX
 10
12.0
 20
9.0
  9
$UNITMODE
 70
     0
  9
$VISRETAIN
 70
     0
  9
$PLINEGEN
 70
     0
  9
$PSLTSCALE
 70
     0
  9
$TREEDEPTH
 70
  3020
  9
$ATTDIA
 70
     0
  9
$ATTREQ
 70
     1
  9
$BLIPMODE
 70
     1
  9
$COORDS
 70
     1
  9
$DRAGMODE
 70
     2
  9
$OSMODE
 70
     0
  9
$HANDLING
 70
     0
  9
$HANDSEED
  5
F49E
  0
ENDSEC
  0
SECTION
  2
TABLES
  0
TABLE
  2
LTYPE
 70
     2
  0
LTYPE
  2
CONTINUOUS
 70
     0
  3
実線
 72
    65
 73
     0
 40
0.0
  0
LTYPE
  2
DASHDOT
 70
     0
  3
____ _ ____ _ ____ _ ____ _ ____ _ ____ _ ____
 72
    65
 73
     4
 40
5.5
 49
4.0
 49
-0.6
 49
0.3
 49
-0.6
  0
ENDTAB
  0
TABLE
  2
LAYER
 70
    12
  0
LAYER
  2
0
 70
     0
 62
     7
  6
CONTINUOUS
  0
LAYER
  2
BASIS
 70
     0
 62
     6
  6
DASHDOT
  0
LAYER
  2
OUTLINE
 70
     0
 62
     3
  6
CONTINUOUS
  0
LAYER
  2
DETAIL
 70
     0
 62
     5
  6
CONTINUOUS
  0
LAYER
  2
SIZE
 70
     0
 62
    30
  6
CONTINUOUS
  0
LAYER
  2
ARRANGE
 70
     0
 62
     1
  6
CONTINUOUS
  0
LAYER
  2
DEFPOINTS
 70
     0
 62
     7
  6
CONTINUOUS
  0
LAYER
  2
ETC
 70
     0
 62
    61
  6
CONTINUOUS
  0
LAYER
  2
FIX
 70
     0
 62
    11
  6
CONTINUOUS
  0
LAYER
  2
NOTE
 70
     0
 62
     4
  6
CONTINUOUS
  0
LAYER
  2
SERVICESPACE
 70
    64
 62
     2
  6
DASHDOT
  0
LAYER
  2
SYMBOLLINE
 70
    64
 62
    15
  6
CONTINUOUS
  0
ENDTAB
  0
TABLE
  2
STYLE
 70
     1
  0
STYLE
  2
STANDARD
 70
     0
 40
64.0
 41
0.9
 50
0.0
 71
     0
 42
64.0
  3
SIMPLEX.shx
  4
BIGFONT.shx
  0
ENDTAB
  0
TABLE
  2
APPID
 70
    20
  0
APPID
  2
ACAD
 70
     0
  0
APPID
  2
AUTOCAD_POSTSCRIPT_FIGURE
 70
     0
  0
APPID
  2
ACAD_EXEMPT_FROM_CAD_STANDARDS
 70
     0
  0
APPID
  2
ACAD_PSEXT
 70
     0
  0
APPID
  2
ACAUTHENVIRON
 70
     0
  0
APPID
  2
GENIUS_GENOENT_13
 70
     0
  0
APPID
  2
GENIUS_GENCFG_13
 70
     0
  0
APPID
  2
GENIUS_GENCFG0_13
 70
     0
  0
APPID
  2
GENIUS_GENCFG1_13
 70
     0
  0
APPID
  2
GENIUS_GENCFG2_13
 70
     0
  0
APPID
  2
GENIUS_GENCFG3_13
 70
     0
  0
APPID
  2
GENIUS_GENCFG4_13
 70
     0
  0
APPID
  2
GENIUS_GEVCFG0_13
 70
     0
  0
APPID
  2
CONTENTBLOCKICON
 70
     0
  0
APPID
  2
CONTENTBLOCKDESCRIPTION
 70
     0
  0
APPID
  2
ACAD_NAV_VCDISPLAY
 70
     0
  0
APPID
  2
ACAD_MLEADERVER
 70
     0
  0
APPID
  2
ACDBDYNAMICBLOCKTRUENAME
 70
     0
  0
APPID
  2
ACDBDYNAMICBLOCKGUID
 70
     0
  0
APPID
  2
ACAD_DSTYLE_DIMRADIAL_EXTENSION
 70
     0
  0
ENDTAB
  0
TABLE
  2
DIMSTYLE
 70
     1
  0
DIMSTYLE
  2
STANDARD
 70
     0
  3

  4

  5
_ORIGIN
  6

  7

 40
1.0
 41
12.0
 42
20.0
 43
200.0
 44
20.0
 45
0.0
 46
0.0
 47
0.0
 48
0.0
140
64.0
141
0.09
142
0.0
143
25.399999999999999
144
1.0
145
0.0
146
1.0
147
25.0
 71
     0
 72
     0
 73
     0
 74
     0
 75
     0
 76
     0
 77
     1
 78
     8
170
     0
171
     2
172
     1
173
     0
174
     1
175
     0
176
     7
177
     7
178
     7
  0
ENDTAB
  0
TABLE
  2
VIEW
 70
     1
  0
VIEW
  2
ALL
 70
     0
 40
4282.6198079999986
 10
0.0
 20
41.309904000000003
 41
5940.0
 11
0.0
 21
0.0
 31
1.0
 12
0.0
 22
0.0
 32
0.0
 42
50.0
 43
0.0
 44
0.0
 50
0.0
 71
     0
  0
ENDTAB
  0
TABLE
  2
UCS
 70
     0
  0
ENDTAB
  0
TABLE
  2
VPORT
 70
     1
  0
VPORT
  2
*ACTIVE
 70
     0
 10
0.0
 20
0.0
 11
1.0
 21
1.0
 12
257.18308908071128
 22
75.622568460673392
 13
0.0
 23
0.0
 14
1.0
 24
1.0
 15
0.0
 25
0.0
 16
0.0
 26
0.0
 36
1.0
 17
0.0
 27
0.0
 37
0.0
 40
1062.271863925881
 41
1.767337807606264
 42
50.0
 43
0.0
 44
0.0
 50
0.0
 51
0.0
 71
     0
 72
  1000
 73
     1
 74
     3
 75
     0
 76
     0
 77
     0
 78
     0
  0
ENDTAB
  0
ENDSEC
  0
SECTION
  2
BLOCKS
  0
BLOCK
  8
0
  2
_ORIGIN
 70
     0
 10
0.0
 20
0.0
 30
0.0
  3
_ORIGIN
  1
_ORIGIN
  0
CIRCLE
  8
SIZE
  6
CONTINUOUS
 62
    30
 10
0.0
 20
0.0
 30
0.0
 40
0.5
  0
LINE
  8
SIZE
  6
CONTINUOUS
 62
    30
 10
0.0
 20
0.0
 30
0.0
 11
-1.0
 21
0.0
 31
0.0
  0
ENDBLK
  8
0
  0
ENDSEC
  0
SECTION
  2
ENTITIES
  0
LINE
  8
DETAIL
  6
CONTINUOUS
 62
     5
 10
157.48205419200261
 20
-208.24097151329761
 30
0.0
 11
157.48205419200261
 21
-353.34805950266849
 31
0.0
  0
LINE
  8
DETAIL
  6
CONTINUOUS
 62
     5
 10
85.040743442667008
 20
-124.7239762440008
 30
0.0
 11
88.040418954665256
 21
-128.29885031200089
 31
0.0
  0
LINE
  8
DETAIL
  6
CONTINUOUS
 62
     5
 10
125.7605799253333
 20
-170.43679059333451
 30
0.0
 11
89.46717979866844
 21
-127.0997605906678
 31
0.0
  0
LINE
  8
DETAIL
  6
CONTINUOUS
 62
     5
 10
86.472312534666344
 20
-123.5236654320011
 30
0.0
 11
83.14077897333209
 21
-119.5455655733344
 31
0.0
  0
LINE
  8
DETAIL
  6
CONTINUOUS
 62
     5
 10
170.81538752533649
 20
-224.13101941466809
 30
0.0
 11
170.81538752533649
 21
-353.34805950266849
 31
0.0
  0
LINE
  8
DETAIL
  6
CONTINUOUS
 62
     5
 10
157.48205419200261
 20
-353.34805950266849
 30
0.0
 11
170.81538752533649
 21
-353.34805950266849
 31
0.0
  0
LINE
  8
DETAIL
  6
CONTINUOUS
 62
     5
 10
95.087424902669227
 20
-116.29911351066769
 30
0.0
 11
47.118752650666472
 21
-59.132276024000483
 31
0.0
  0
LINE
  8
DETAIL
  6
CONTINUOUS
 62
     5
 10
50.182930423996368
 20
-56.561125585334139
 30
0.0
 11
98.14986324399797
 21
-113.7258901000009
 31
0.0
  0
LINE
  8
DETAIL
  6
CONTINUOUS
 62
     5
 10
99.511946105332754
 20
-112.5811954280011
 30
0.0
 11
102.51162161733551
 21
-116.15606949600119
 31
0.0
  0
LINE
  8
DETAIL
  6
CONTINUOUS
 62
     5
 10
133.93172065199909
 20
-163.5803894240012
 30
0.0
 11
97.639430022664783
 21
-120.2446842426675
 31
0.0
  0
LINE
  8
DETAIL
  6
CONTINUOUS
 62
     5
 10
94.641625750666208
 20
-116.6650820786676
 30
0.0
 11
91.758124577329909
 21
-113.2219663480009
 31
0.0
  0
LINE
  8
DETAIL
  6
CONTINUOUS
 62
     5
 10
-249.99999999999861
 20
-260.00000000000051
 30
0.0
 11
157.48205419200261
 21
-260.00000000000051
 31
0.0
  0
LINE
  8
DETAIL
  6
CONTINUOUS
 62
     5
 10
170.81538752533649
 20
-260.00000000000051
 30
0.0
 11
250.00000000000139
 21
-260.00000000000051
 31
0.0
  0
LINE
  8
DETAIL
  6
CONTINUOUS
 62
     5
 10
85.040743442667008
 20
-124.7239762440008
 30
0.0
 11
99.511946105332754
 21
-112.5811954280011
 31
0.0
  0
LINE
  8
DETAIL
  6
CONTINUOUS
 62
     5
 10
88.040418954665256
 20
-128.29885031200089
 30
0.0
 11
102.51162161733551
 21
-116.15606949600119
 31
0.0
  0
LINE
  8
DETAIL
  6
CONTINUOUS
 62
     5
 10
-240.606601718006
 20
229.99999999999949
 30
0.0
 11
-229.99999999999861
 21
240.60660171799961
 31
0.0
  0
LINE
  8
DETAIL
  6
CONTINUOUS
 62
     5
 10
-228.40900974200531
 20
220.9843885399996
 30
0.0
 11
-220.98438853999551
 21
228.40900974349961
 31
0.0
  0
LINE
  8
DETAIL
  6
CONTINUOUS
 62
     5
 10
-229.99999999999861
 20
-240.60660171650079
 30
0.0
 11
-240.606601718006
 21
-230.00000000000051
 31
0.0
  0
LINE
  8
DETAIL
  6
CONTINUOUS
 62
     5
 10
-220.98438853999551
 20
-228.40900974200079
 30
0.0
 11
-228.40900974200531
 21
-220.98438854000051
 31
0.0
  0
LINE
  8
DETAIL
  6
CONTINUOUS
 62
     5
 10
-218.6812008200059
 20
207.58638221866701
 30
0.0
 11
-191.10360086800389
 21
230.7267361666668
 31
0.0
  0
LINE
  8
DETAIL
  6
CONTINUOUS
 62
     5
 10
-166.4590866146691
 20
-251.40593898666839
 30
0.0
 11
-194.03668656800619
 21
-228.26558503866821
 31
0.0
  0
LINE
  8
DETAIL
  6
CONTINUOUS
 62
     5
 10
-259.99999999999858
 20
249.99999999999949
 30
0.0
 11
-259.99999999999858
 21
-250.00000000000051
 31
0.0
  0
LINE
  8
DETAIL
  6
CONTINUOUS
 62
     5
 10
-204.66107254400589
 20
207.48499252400009
 30
0.0
 11
-208.48499252266811
 21
200.81832585733349
 31
0.0
  0
LINE
  8
DETAIL
  6
CONTINUOUS
 62
     5
 10
-196.9755791679963
 20
194.15165919066661
 30
0.0
 11
-193.1516591893342
 21
200.81832585733349
 31
0.0
  0
LINE
  8
DETAIL
  6
CONTINUOUS
 62
     5
 10
-172.74152498400139
 20
202.62077095733369
 30
0.0
 11
-197.2549471640032
 21
182.05156744800021
 31
0.0
  0
LINE
  8
DETAIL
  6
CONTINUOUS
 62
     5
 10
-169.54625513866719
 20
-205.30192070666769
 30
0.0
 11
-145.0328329586664
 21
-225.87112421600111
 31
0.0
  0
LINE
  8
DETAIL
  6
CONTINUOUS
 62
     5
 10
-170.56237458933259
 20
-232.63918057733511
 30
0.0
 11
-166.7384546120002
 21
-239.3058472440016
 31
0.0
  0
LINE
  8
BASIS
  6
DASHDOT
 62
     6
 10
-229.99999999999861
 20
261.81119100499973
 30
0.0
 11
-229.99999999999861
 21
198.1888089964996
 31
0.0
  0
LINE
  8
BASIS
  6
DASHDOT
 62
     6
 10
-229.99999999999861
 20
-202.98363383750029
 30
0.0
 11
-229.99999999999861
 21
-257.01636616100041
 31
0.0
  0
LINE
  8
BASIS
  6
DASHDOT
 62
     6
 10
-202.98363383750481
 20
-230.00000000000051
 30
0.0
 11
-257.01636616100268
 21
-230.00000000000051
 31
0.0
  0
LINE
  8
DETAIL
  6
CONTINUOUS
 62
     5
 10
-166.7384546120002
 20
-239.3058472440016
 30
0.0
 11
-159.0529612346663
 21
-239.3058472440016
 31
0.0
  0
LINE
  8
DETAIL
  6
CONTINUOUS
 62
     5
 10
-155.22904125599959
 20
-232.63918057733511
 30
0.0
 11
-159.0529612346663
 21
-225.97251391066811
 31
0.0
  0
LINE
  8
DETAIL
  6
CONTINUOUS
 62
     5
 10
-159.0529612346663
 20
-225.97251391066811
 30
0.0
 11
-166.7384546120002
 21
-225.97251391066811
 31
0.0
  0
LINE
  8
DETAIL
  6
CONTINUOUS
 62
     5
 10
196.975579168
 20
-207.48499252266811
 30
0.0
 11
204.6610725453329
 21
-207.48499252266811
 31
0.0
  0
LINE
  8
DETAIL
  6
CONTINUOUS
 62
     5
 10
204.6610725453329
 20
-194.15165918933459
 30
0.0
 11
196.975579168
 21
-194.15165918933459
 31
0.0
  0
LINE
  8
DETAIL
  6
CONTINUOUS
 62
     5
 10
226.36640651828341
 20
-73.500000000000455
 30
0.0
 11
258.26666666667637
 21
-73.500000000000455
 31
0.0
  0
LINE
  8
DETAIL
  6
CONTINUOUS
 62
     5
 10
257.20000000001619
 20
-72.433333333333849
 30
0.0
 11
258.26666666667637
 21
-72.433333333333849
 31
0.0
  0
LINE
  8
DETAIL
  6
CONTINUOUS
 62
     5
 10
257.20000000001619
 20
-71.766666666666879
 30
0.0
 11
258.93333333334789
 21
-71.766666666666879
 31
0.0
  0
LINE
  8
DETAIL
  6
CONTINUOUS
 62
     5
 10
-76.548326686668588
 20
94.338190990666135
 30
0.0
 11
-76.61387272400134
 21
94.283191336000073
 31
0.0
  0
LINE
  8
DETAIL
  6
CONTINUOUS
 62
     5
 10
-79.67805049600247
 20
91.712040897332827
 30
0.0
 11
-82.696568118668438
 21
89.179203873333336
 31
0.0
  0
LINE
  8
DETAIL
  6
CONTINUOUS
 62
     5
 10
-76.613872723189161
 20
94.283191335588981
 30
0.0
 11
-73.484148914667458
 21
96.909341429333381
 31
0.0
  0
LINE
  8
DETAIL
  6
CONTINUOUS
 62
     5
 10
-68.485544629334981
 20
98.834570870666539
 30
0.0
 11
-72.162557955999546
 21
95.749190343999999
 31
0.0
  0
LINE
  8
DETAIL
  6
CONTINUOUS
 62
     5
 10
-78.560738054669855
 20
90.380479782666498
 30
0.0
 11
-83.667701009329903
 21
86.095229050666148
 31
0.0
  0
LINE
  8
DETAIL
  6
CONTINUOUS
 62
     5
 10
-73.71691395333437
 20
90.963844694666477
 30
0.0
 11
-73.782459990672578
 21
90.90884503999996
 31
0.0
  0
LINE
  8
DETAIL
  6
CONTINUOUS
 62
     5
 10
-81.953600717333757
 20
84.052443869333274
 30
0.0
 11
-84.952232453335455
 21
81.536293085333
 31
0.0
  0
LINE
  8
DETAIL
  6
CONTINUOUS
 62
     5
 10
-74.275487323998277
 20
85.273516827999629
 30
0.0
 11
-79.382450278410033
 21
80.988266097157066
 31
0.0
  0
LINE
  8
DETAIL
  6
CONTINUOUS
 62
     5
 10
-68.081585742667812
 20
90.470817359999728
 30
0.0
 11
-63.996015380003882
 21
93.899017945333071
 31
0.0
  0
LINE
  8
DETAIL
  6
CONTINUOUS
 62
     5
 10
-76.811299840006541
 20
77.924088323999513
 30
0.0
 11
-79.809931575998235
 21
75.407937539999693
 31
0.0
  0
LINE
  8
DETAIL
  6
CONTINUOUS
 62
     5
 10
-59.915043166667601
 20
88.620644962666574
 30
0.0
 11
-63.592056493331263
 21
85.535264435999579
 31
0.0
  0
LINE
  8
DETAIL
  6
CONTINUOUS
 62
     5
 10
-75.097199546666161
 20
75.881303142666184
 30
0.0
 11
-69.990236593335794
 21
80.166553874666079
 31
0.0
  0
LINE
  8
DETAIL
  6
CONTINUOUS
 62
     5
 10
258.93333333334789
 20
-64.166666666667425
 30
0.0
 11
260.00000000001359
 21
-64.166666666667425
 31
0.0
  0
LINE
  8
DETAIL
  6
CONTINUOUS
 62
     5
 10
-76.482780650669156
 20
-94.393190645334016
 30
0.0
 11
-73.484148914667458
 21
-96.90934142933429
 31
0.0
  0
LINE
  8
DETAIL
  6
CONTINUOUS
 62
     5
 10
-79.546958422670286
 20
-91.82204020666768
 30
0.0
 11
-82.696568118668438
 21
-89.179203872000926
 31
0.0
  0
LINE
  8
DETAIL
  6
CONTINUOUS
 62
     5
 10
-68.485544629334981
 20
-98.834570869334584
 30
0.0
 11
-72.162557955999546
 21
-95.749190342667589
 31
0.0
  0
LINE
  8
DETAIL
  6
CONTINUOUS
 62
     5
 10
-78.429645982666443
 20
-90.490479092000896
 30
0.0
 11
-83.536608936001358
 21
-86.205228360001001
 31
0.0
  0
LINE
  8
DETAIL
  6
CONTINUOUS
 62
     5
 10
-81.822508644000663
 20
-84.162443178667218
 30
0.0
 11
-84.952232453335455
 21
-81.53629308400059
 31
0.0
  0
LINE
  8
DETAIL
  6
CONTINUOUS
 62
     5
 10
-63.996015380003882
 20
-93.899017944001116
 30
0.0
 11
-68.081585742667812
 21
-90.470817360000638
 31
0.0
  0
LINE
  8
DETAIL
  6
CONTINUOUS
 62
     5
 10
-74.144395250665184
 20
-85.383516137334027
 30
0.0
 11
-79.25135820507785
 21
-81.098265406486917
 31
0.0
  0
LINE
  8
DETAIL
  6
CONTINUOUS
 62
     5
 10
-76.6802077666689
 20
-78.034087633334366
 30
0.0
 11
-79.809931575998235
 21
-75.407937540001058
 31
0.0
  0
LINE
  8
DETAIL
  6
CONTINUOUS
 62
     5
 10
-59.915043166667601
 20
-88.620644961334165
 30
0.0
 11
-63.592056493331263
 21
-85.535264434667624
 31
0.0
  0
LINE
  8
DETAIL
  6
CONTINUOUS
 62
     5
 10
-69.859144520003611
 20
-80.276553182667612
 30
0.0
 11
-74.966107473338525
 21
-75.991302452000582
 31
0.0
  0
LINE
  8
DETAIL
  6
CONTINUOUS
 62
     5
 10
-55.629792434666342
 20
83.513682007999705
 30
0.0
 11
-59.306805762669683
 21
80.428301481333165
 31
0.0
  0
LINE
  8
DETAIL
  6
CONTINUOUS
 62
     5
 10
-65.704985861335444
 20
75.059590919999664
 30
0.0
 11
-70.811948815999131
 21
70.774340189333088
 31
0.0
  0
LINE
  8
DETAIL
  6
CONTINUOUS
 62
     5
 10
-69.097848522669665
 20
68.73155500666644
 30
0.0
 11
-72.096480258665906
 21
66.215404222666166
 31
0.0
  0
LINE
  8
DETAIL
  6
CONTINUOUS
 62
     5
 10
-61.419735130668407
 20
69.952627965333249
 30
0.0
 11
-66.526698084142481
 21
65.667377234039577
 31
0.0
  0
LINE
  8
DETAIL
  6
CONTINUOUS
 62
     5
 10
-55.225833549332492
 20
75.149928498666213
 30
0.0
 11
-51.140263185335243
 21
78.578129082666692
 31
0.0
  0
LINE
  8
DETAIL
  6
CONTINUOUS
 62
     5
 10
-63.955547645332437
 20
62.603199462665998
 30
0.0
 11
-66.95417938133869
 21
60.087048678666633
 31
0.0
  0
LINE
  8
DETAIL
  6
CONTINUOUS
 62
     5
 10
-47.059290971998053
 20
73.29975609999974
 30
0.0
 11
-50.736304300001393
 21
70.2143755733332
 31
0.0
  0
LINE
  8
DETAIL
  6
CONTINUOUS
 62
     5
 10
-62.241447353336298
 20
60.560414279999797
 30
0.0
 11
-57.134484398667148
 21
64.845665011999699
 31
0.0
  0
LINE
  8
DETAIL
  6
CONTINUOUS
 62
     5
 10
23.687553058736281
 20
-99.651830519908401
 30
0.0
 11
71.911903211999743
 21
-111.8884196266677
 31
0.0
  0
LINE
  8
DETAIL
  6
CONTINUOUS
 62
     5
 10
25.220604563092369
 20
-86.022957232629096
 30
0.0
 11
73.877320864002286
 21
-101.4043883773343
 31
0.0
  0
LINE
  8
DETAIL
  6
CONTINUOUS
 62
     5
 10
-55.629792434666342
 20
-83.51368200666775
 30
0.0
 11
-59.306805762669683
 21
-80.428301480000755
 31
0.0
  0
LINE
  8
DETAIL
  6
CONTINUOUS
 62
     5
 10
-65.47874098266584
 20
-75.056191530667547
 30
0.0
 11
-70.585703936001664
 21
-70.770940800000972
 31
0.0
  0
LINE
  8
DETAIL
  6
CONTINUOUS
 62
     5
 10
-68.9667564506708
 20
-68.841554316000838
 30
0.0
 11
-72.096480258665906
 21
-66.21540422266753
 31
0.0
  0
LINE
  8
DETAIL
  6
CONTINUOUS
 62
     5
 10
-51.140263185335243
 20
-78.578129082667601
 30
0.0
 11
-55.225833549332492
 21
-75.149928497334258
 31
0.0
  0
LINE
  8
DETAIL
  6
CONTINUOUS
 62
     5
 10
-61.193490250665491
 20
-69.949228576001133
 30
0.0
 11
-66.300453205137273
 21
-65.663977845099453
 31
0.0
  0
LINE
  8
DETAIL
  6
CONTINUOUS
 62
     5
 10
-63.82445557333358
 20
-62.713198770667532
 30
0.0
 11
-66.95417938133869
 21
-60.087048677334217
 31
0.0
  0
LINE
  8
DETAIL
  6
CONTINUOUS
 62
     5
 10
-47.059290971998053
 20
-73.299756098667331
 30
0.0
 11
-50.736304300001393
 21
-70.21437557200079
 31
0.0
  0
LINE
  8
DETAIL
  6
CONTINUOUS
 62
     5
 10
-56.90823951999846
 20
-64.842265622667583
 30
0.0
 11
-62.015202474667603
 21
-60.557014890667688
 31
0.0
  0
LINE
  8
DETAIL
  6
CONTINUOUS
 62
     5
 10
-208.48499252266811
 20
200.81832585733349
 30
0.0
 11
-204.66107254400589
 21
194.15165919066661
 31
0.0
  0
LINE
  8
DETAIL
  6
CONTINUOUS
 62
     5
 10
-73.801852174668966
 20
-51.465755465334041
 30
0.0
 11
-81.766222826669036
 21
-77.739354666667623
 31
0.0
  0
LINE
  8
DETAIL
  6
CONTINUOUS
 62
     5
 10
-83.329860065334287
 20
-82.897625156001141
 30
0.0
 11
-83.953407154669549
 21
-84.954639705334102
 31
0.0
  0
LINE
  8
DETAIL
  6
CONTINUOUS
 62
     5
 10
-50.182930422668512
 20
56.561125586666549
 30
0.0
 11
-47.118752650672832
 21
59.132276025332892
 31
0.0
  0
LINE
  8
DETAIL
  6
CONTINUOUS
 62
     5
 10
24.295322793072049
 20
-64.718459959182724
 30
0.0
 11
4.7420223466670004
 21
-68.921844506499838
 31
0.0
  0
LINE
  8
DETAIL
  6
CONTINUOUS
 62
     5
 10
-46.987660577397037
 20
-59.242275334343958
 30
0.0
 11
-50.051838350669641
 21
-56.671124896000492
 31
0.0
  0
LINE
  8
DETAIL
  6
CONTINUOUS
 62
     5
 10
-193.1516591893342
 20
200.81832585733349
 30
0.0
 11
-196.9755791679963
 21
207.48499252400009
 31
0.0
  0
LINE
  8
DETAIL
  6
CONTINUOUS
 62
     5
 10
-83.953407154669549
 20
84.954639706666512
 30
0.0
 11
-83.329860065334287
 21
82.897625157333096
 31
0.0
  0
LINE
  8
DETAIL
  6
CONTINUOUS
 62
     5
 10
-81.766222826669036
 20
77.739354667999578
 30
0.0
 11
-73.801852174668966
 21
51.465755466666003
 31
0.0
  0
LINE
  8
DETAIL
  6
CONTINUOUS
 62
     5
 10
-166.7384546120002
 20
-225.97251391066811
 30
0.0
 11
-170.56237458933259
 21
-232.63918057733511
 31
0.0
  0
LINE
  8
DETAIL
  6
CONTINUOUS
 62
     5
 10
144.53980562666399
 20
231.5064524280001
 30
0.0
 11
160.82375840533501
 21
250.91291165466691
 31
0.0
  0
LINE
  8
DETAIL
  6
CONTINUOUS
 62
     5
 10
-202.89027537466521
 20
182.5445947813337
 30
0.0
 11
-219.17422815333609
 21
201.95105400666719
 31
0.0
  0
LINE
  8
DETAIL
  6
CONTINUOUS
 62
     5
 10
3.158243347086227
 20
-67.898516779893839
 30
0.0
 11
2.7379048923548912
 21
-65.943186735253335
 31
0.0
  0
LINE
  8
DETAIL
  6
CONTINUOUS
 62
     5
 10
9.0557899173900296
 20
-67.994511343630734
 30
0.0
 11
13.27706643685133
 21
-88.348837383984915
 31
0.0
  0
LINE
  8
BASIS
  6
DASHDOT
 62
     6
 10
0.0000000000013642
 20
281.10204625299963
 30
0.0
 11
0.0000000000013642
 21
-277.29463412700062
 31
0.0
  0
LINE
  8
DETAIL
  6
CONTINUOUS
 62
     5
 10
-159.0529612346663
 20
-239.3058472440016
 30
0.0
 11
-155.22904125599959
 21
-232.63918057733511
 31
0.0
  0
LINE
  8
DETAIL
  6
CONTINUOUS
 62
     5
 10
-84.952232453335455
 20
-81.53629308400059
 30
0.0
 11
-79.809931575998235
 21
-75.407937540001058
 31
0.0
  0
LINE
  8
DETAIL
  6
CONTINUOUS
 62
     5
 10
-72.096480258665906
 20
-66.21540422266753
 30
0.0
 11
-66.95417938133869
 21
-60.087048677334217
 31
0.0
  0
LINE
  8
DETAIL
  6
CONTINUOUS
 62
     5
 10
47.026422483993883
 20
73.675444646666165
 30
0.0
 11
55.254103888002653
 21
83.480813518666309
 31
0.0
  0
LINE
  8
DETAIL
  6
CONTINUOUS
 62
     5
 10
59.88217467866798
 20
88.996333509332999
 30
0.0
 11
68.109856082666738
 21
98.801702381333143
 31
0.0
  0
LINE
  8
DETAIL
  6
CONTINUOUS
 62
     5
 10
-83.536608936001358
 20
-86.205228360001001
 30
0.0
 11
-74.966107473338525
 21
-75.991302452000582
 31
0.0
  0
LINE
  8
DETAIL
  6
CONTINUOUS
 62
     5
 10
-70.585703936001664
 20
-70.770940800000972
 30
0.0
 11
-62.015202474667603
 21
-60.557014890667688
 31
0.0
  0
LINE
  8
DETAIL
  6
CONTINUOUS
 62
     5
 10
41.093429520040438
 20
58.307585224617917
 30
0.0
 11
73.484148916004415
 21
96.909341429333381
 31
0.0
  0
LINE
  8
DETAIL
  6
CONTINUOUS
 62
     5
 10
44.234946596877307
 20
55.96171855845796
 30
0.0
 11
190.97250879599869
 21
230.8367354773336
 31
0.0
  0
LINE
  8
DETAIL
  6
CONTINUOUS
 62
     5
 10
-194.03668656800619
 20
-228.26558503866821
 30
0.0
 11
-50.051838350669641
 21
-56.671124896000492
 31
0.0
  0
LINE
  8
DETAIL
  6
CONTINUOUS
 62
     5
 10
194.03668656799979
 20
228.26558503866681
 30
0.0
 11
50.051838350663267
 21
56.671124897332902
 31
0.0
  0
LINE
  8
DETAIL
  6
CONTINUOUS
 62
     5
 10
-190.9725087946708
 20
-230.836735477335
 30
0.0
 11
-44.234946596775437
 21
-55.961718558536177
 31
0.0
  0
LINE
  8
DETAIL
  6
CONTINUOUS
 62
     5
 10
-240.606601718006
 20
-230.00000000000051
 30
0.0
 11
-226.8180194840011
 21
-216.21141776600049
 31
0.0
  0
LINE
  8
DETAIL
  6
CONTINUOUS
 62
     5
 10
-228.40900974200531
 20
-220.98438854000051
 30
0.0
 11
-225.22702922600229
 21
-217.8024080240007
 31
0.0
  0
LINE
  8
BASIS
  6
DASHDOT
 62
     6
 10
292.85735538033259
 20
0.0
 30
0.0
 11
-294.99068871366399
 21
0.0
 31
0.0
  0
LINE
  8
DETAIL
  6
CONTINUOUS
 62
     5
 10
-226.8180194840011
 20
216.2114177674994
 30
0.0
 11
-240.606601718006
 21
229.99999999999949
 31
0.0
  0
LINE
  8
DETAIL
  6
CONTINUOUS
 62
     5
 10
-228.40900974200531
 20
220.9843885399996
 30
0.0
 11
-225.22702922600229
 21
217.80240802549949
 31
0.0
  0
LINE
  8
DETAIL
  6
CONTINUOUS
 62
     5
 10
125.7605799253333
 20
-170.43679059333451
 30
0.0
 11
170.81538752533649
 21
-224.13101941466809
 31
0.0
  0
LINE
  8
DETAIL
  6
CONTINUOUS
 62
     5
 10
-66.95417938133869
 20
60.087048678666633
 30
0.0
 11
-72.096480258665906
 21
66.215404222666166
 31
0.0
  0
LINE
  8
DETAIL
  6
CONTINUOUS
 62
     5
 10
-79.809931575998235
 20
75.407937539999693
 30
0.0
 11
-84.952232453335455
 21
81.536293085333
 31
0.0
  0
LINE
  8
DETAIL
  6
CONTINUOUS
 62
     5
 10
68.109856082666738
 20
-98.801702380000734
 30
0.0
 11
59.88217467866798
 21
-88.996333508001044
 31
0.0
  0
LINE
  8
DETAIL
  6
CONTINUOUS
 62
     5
 10
55.254103888002653
 20
-83.480813518667674
 30
0.0
 11
47.026422483993883
 21
-73.675444646667529
 31
0.0
  0
LINE
  8
DETAIL
  6
CONTINUOUS
 62
     5
 10
-62.241447353336298
 20
60.560414279999797
 30
0.0
 11
-70.811948815999131
 21
70.774340189333088
 31
0.0
  0
LINE
  8
DETAIL
  6
CONTINUOUS
 62
     5
 10
-75.097199546666161
 20
75.881303142666184
 30
0.0
 11
-83.667701009329903
 21
86.095229050666148
 31
0.0
  0
LINE
  8
DETAIL
  6
CONTINUOUS
 62
     5
 10
73.484148916004415
 20
-96.90934142933429
 30
0.0
 11
41.093429520738937
 21
-58.307585224126342
 31
0.0
  0
LINE
  8
DETAIL
  6
CONTINUOUS
 62
     5
 10
133.93172065199909
 20
-163.5803894240012
 30
0.0
 11
178.98652825199679
 21
-217.2746182440014
 31
0.0
  0
LINE
  8
DETAIL
  6
CONTINUOUS
 62
     5
 10
-50.182930422668512
 20
56.561125586666549
 30
0.0
 11
-194.16777864000511
 21
228.15558572800049
 31
0.0
  0
LINE
  8
DETAIL
  6
CONTINUOUS
 62
     5
 10
44.30206831306441
 20
-55.908596723842948
 30
0.0
 11
76.548326688000998
 21
-94.338190990667499
 31
0.0
  0
LINE
  8
DETAIL
  6
CONTINUOUS
 62
     5
 10
191.10360086799761
 20
-230.72673616666819
 30
0.0
 11
98.087818430671177
 21
-119.87484327733409
 31
0.0
  0
LINE
  8
DETAIL
  6
CONTINUOUS
 62
     5
 10
-191.10360086800389
 20
230.7267361666668
 30
0.0
 11
-44.369123977312483
 21
55.855396175571968
 31
0.0
  0
LINE
  8
DETAIL
  6
CONTINUOUS
 62
     5
 10
194.16777864133201
 20
-228.1555857280014
 30
0.0
 11
101.1384001559945
 21
-117.28748970133439
 31
0.0
  0
LINE
  8
DETAIL
  6
CONTINUOUS
 62
     5
 10
81.661304230663518
 20
-117.71398933333469
 30
0.0
 11
83.159314119996452
 21
-119.55475384266769
 31
0.0
  0
LINE
  8
DETAIL
  6
CONTINUOUS
 62
     5
 10
89.934596666660582
 20
-110.9812031320012
 30
0.0
 11
91.758124577329909
 21
-113.2219663480009
 31
0.0
  0
LINE
  8
DETAIL
  6
CONTINUOUS
 62
     5
 10
19.48421682213484
 20
-65.752706251729364
 30
0.0
 11
23.12311418442323
 21
-83.397921453963022
 31
0.0
  0
LINE
  8
DETAIL
  6
CONTINUOUS
 62
     5
 10
25.3186505196777
 20
-63.134680959601162
 30
0.0
 11
24.898312064945909
 21
-61.179350914960708
 31
0.0
  0
LINE
  8
DETAIL
  6
CONTINUOUS
 62
     5
 10
159.05296123599959
 20
239.30584724533361
 30
0.0
 11
155.22904125733751
 21
232.63918057866701
 31
0.0
  0
LINE
  8
DETAIL
  6
CONTINUOUS
 62
     5
 10
-41.093429520730751
 20
-58.307585224129532
 30
0.0
 11
-73.484148914667458
 21
-96.90934142933429
 31
0.0
  0
LINE
  8
DETAIL
  6
CONTINUOUS
 62
     5
 10
83.536608937334677
 20
86.205228361333411
 30
0.0
 11
74.966107474666387
 21
75.991302453332992
 31
0.0
  0
LINE
  8
DETAIL
  6
CONTINUOUS
 62
     5
 10
70.585703937334074
 20
70.770940799999607
 30
0.0
 11
62.015202474665777
 21
60.557014891999643
 31
0.0
  0
LINE
  8
DETAIL
  6
CONTINUOUS
 62
     5
 10
-47.02642248400025
 20
-73.675444646667529
 30
0.0
 11
-55.254103887999008
 21
-83.480813518667674
 31
0.0
  0
LINE
  8
DETAIL
  6
CONTINUOUS
 62
     5
 10
-59.882174677330113
 20
-88.996333508001044
 30
0.0
 11
-68.109856081338876
 21
-98.801702380000734
 31
0.0
  0
LINE
  8
DETAIL
  6
CONTINUOUS
 62
     5
 10
84.952232453333636
 20
81.536293085333
 30
0.0
 11
79.809931576001873
 21
75.407937539999693
 31
0.0
  0
LINE
  8
DETAIL
  6
CONTINUOUS
 62
     5
 10
72.096480260003773
 20
66.215404222666166
 30
0.0
 11
66.954179382666553
 21
60.087048678666633
 31
0.0
  0
LINE
  8
DETAIL
  6
CONTINUOUS
 62
     5
 10
-220.98438853999551
 20
-228.40900974200079
 30
0.0
 11
-217.80240802399791
 21
-225.2270292260005
 31
0.0
  0
LINE
  8
DETAIL
  6
CONTINUOUS
 62
     5
 10
-216.21141776600459
 20
-226.81801948400019
 30
0.0
 11
-229.99999999999861
 21
-240.60660171650079
 31
0.0
  0
LINE
  8
DETAIL
  6
CONTINUOUS
 62
     5
 10
258.93333333332657
 20
45.166666666466433
 30
0.0
 11
259.99999999999233
 21
45.166666666466433
 31
0.0
  0
LINE
  8
DETAIL
  6
CONTINUOUS
 62
     5
 10
-220.98438853999551
 20
228.40900974349961
 30
0.0
 11
-217.80240802399791
 21
225.22702922749929
 31
0.0
  0
LINE
  8
DETAIL
  6
CONTINUOUS
 62
     5
 10
-229.99999999999861
 20
240.60660171799961
 30
0.0
 11
-216.21141776600459
 21
226.81801948549949
 31
0.0
  0
LINE
  8
DETAIL
  6
CONTINUOUS
 62
     5
 10
-41.09342952003135
 20
58.307585224621562
 30
0.0
 11
-73.484148914667458
 21
96.909341429333381
 31
0.0
  0
LINE
  8
DETAIL
  6
CONTINUOUS
 62
     5
 10
62.24144735466416
 20
-60.560414280000707
 30
0.0
 11
70.811948815998221
 21
-70.774340188001133
 31
0.0
  0
LINE
  8
DETAIL
  6
CONTINUOUS
 62
     5
 10
75.09719954799948
 20
-75.881303141334229
 30
0.0
 11
83.66770101066686
 21
-86.095229050667513
 31
0.0
  0
LINE
  8
DETAIL
  6
CONTINUOUS
 62
     5
 10
-68.109856081338876
 20
98.801702381333143
 30
0.0
 11
-59.882174677330113
 21
88.996333509332999
 31
0.0
  0
LINE
  8
DETAIL
  6
CONTINUOUS
 62
     5
 10
-55.254103887999008
 20
83.480813518666309
 30
0.0
 11
-47.02642248400025
 21
73.675444646666165
 31
0.0
  0
LINE
  8
DETAIL
  6
CONTINUOUS
 62
     5
 10
66.954179382666553
 20
-60.087048677334217
 30
0.0
 11
72.096480260003773
 21
-66.21540422266753
 31
0.0
  0
LINE
  8
DETAIL
  6
CONTINUOUS
 62
     5
 10
79.809931576001873
 20
-75.407937540001058
 30
0.0
 11
84.952232453333636
 21
-81.53629308400059
 31
0.0
  0
LINE
  8
DETAIL
  6
CONTINUOUS
 62
     5
 10
73.801852175996828
 20
51.465755466666003
 30
0.0
 11
81.766222827996899
 21
77.739354667999578
 31
0.0
  0
LINE
  8
DETAIL
  6
CONTINUOUS
 62
     5
 10
83.329860066667607
 20
82.897625157333096
 30
0.0
 11
83.953407156001958
 21
84.954639706666512
 31
0.0
  0
LINE
  8
DETAIL
  6
CONTINUOUS
 62
     5
 10
166.73845461199829
 20
225.97251391200049
 30
0.0
 11
170.562374590666
 21
232.63918057866701
 31
0.0
  0
LINE
  8
DETAIL
  6
CONTINUOUS
 62
     5
 10
-144.53980562533619
 20
-231.5064524280015
 30
0.0
 11
-160.82375840400249
 21
-250.91291165333499
 31
0.0
  0
LINE
  8
DETAIL
  6
CONTINUOUS
 62
     5
 10
257.19999999999482
 20
52.766666666465881
 30
0.0
 11
258.93333333332657
 21
52.766666666465881
 31
0.0
  0
LINE
  8
DETAIL
  6
CONTINUOUS
 62
     5
 10
257.86666666666088
 20
53.067197551799381
 30
0.0
 11
257.19999999999482
 21
53.067197551799381
 31
0.0
  0
LINE
  8
DETAIL
  6
CONTINUOUS
 62
     5
 10
257.19999999999482
 20
53.43333333313285
 30
0.0
 11
258.26666666665511
 21
53.43333333313285
 31
0.0
  0
LINE
  8
DETAIL
  6
CONTINUOUS
 62
     5
 10
231.67595904629931
 20
54.499999999799464
 30
0.0
 11
258.26666666665511
 21
54.499999999799464
 31
0.0
  0
LINE
  8
DETAIL
  6
CONTINUOUS
 62
     5
 10
234.29333333332261
 20
64.019999999799893
 30
0.0
 11
241.75999999999249
 21
64.019999999799893
 31
0.0
  0
LINE
  8
DETAIL
  6
CONTINUOUS
 62
     5
 10
254.26666666665781
 20
64.697038286199586
 30
0.0
 11
232.1466666666561
 21
64.697038286199586
 31
0.0
  0
LINE
  8
DETAIL
  6
CONTINUOUS
 62
     5
 10
202.89027537600211
 20
-182.54459478000129
 30
0.0
 11
219.1742281546685
 21
-201.9510540066681
 31
0.0
  0
LINE
  8
DETAIL
  6
CONTINUOUS
 62
     5
 10
83.953407156001958
 20
-84.954639705334102
 30
0.0
 11
83.329860066667607
 21
-82.897625156001141
 31
0.0
  0
LINE
  8
DETAIL
  6
CONTINUOUS
 62
     5
 10
81.766222827996899
 20
-77.739354666667623
 30
0.0
 11
73.801852175996828
 21
-51.465755465334041
 31
0.0
  0
LINE
  8
DETAIL
  6
CONTINUOUS
 62
     5
 10
50.182930423996368
 20
-56.561125585334139
 30
0.0
 11
47.118752650666472
 21
-59.132276024000483
 31
0.0
  0
LINE
  8
DETAIL
  6
CONTINUOUS
 62
     5
 10
47.053206614667033
 20
59.187275679999857
 30
0.0
 11
50.051838350663267
 21
56.671124897332902
 31
0.0
  0
LINE
  8
DETAIL
  6
CONTINUOUS
 62
     5
 10
193.15165919066661
 20
-200.81832585600159
 30
0.0
 11
196.975579168
 21
-207.48499252266811
 31
0.0
  0
LINE
  8
DETAIL
  6
CONTINUOUS
 62
     5
 10
208.48499252400049
 20
-200.81832585600159
 30
0.0
 11
204.6610725453329
 21
-194.15165918933459
 31
0.0
  0
LINE
  8
DETAIL
  6
CONTINUOUS
 62
     5
 10
47.059290973335919
 20
-73.299756098667331
 30
0.0
 11
50.736304299995027
 21
-70.21437557200079
 31
0.0
  0
LINE
  8
DETAIL
  6
CONTINUOUS
 62
     5
 10
57.134484399999558
 20
-64.845665010667744
 30
0.0
 11
62.24144735466416
 21
-60.560414280000707
 31
0.0
  0
LINE
  8
DETAIL
  6
CONTINUOUS
 62
     5
 10
55.718860883995148
 20
-69.514600286667246
 30
0.0
 11
55.784406920000038
 21
-69.459600630667865
 31
0.0
  0
LINE
  8
DETAIL
  6
CONTINUOUS
 62
     5
 10
63.955547646670311
 20
-62.603199461334043
 30
0.0
 11
66.954179382666553
 21
-60.087048677334217
 31
0.0
  0
LINE
  8
DETAIL
  6
CONTINUOUS
 62
     5
 10
51.140263186663113
 20
-78.578129082667601
 30
0.0
 11
55.225833549331583
 21
-75.149928497334258
 31
0.0
  0
LINE
  8
DETAIL
  6
CONTINUOUS
 62
     5
 10
61.419735130662048
 20
-69.952627965334159
 30
0.0
 11
66.526698084745476
 21
-65.667377233302886
 31
0.0
  0
LINE
  8
DETAIL
  6
CONTINUOUS
 62
     5
 10
60.861161761332369
 20
-75.642955830667688
 30
0.0
 11
60.926707797336348
 21
-75.587956176000716
 31
0.0
  0
LINE
  8
DETAIL
  6
CONTINUOUS
 62
     5
 10
69.097848523997527
 20
-68.73155500666735
 30
0.0
 11
72.096480260003773
 21
-66.21540422266753
 31
0.0
  0
LINE
  8
DETAIL
  6
CONTINUOUS
 62
     5
 10
55.629792435998752
 20
-83.51368200666775
 30
0.0
 11
59.306805762663323
 21
-80.428301480000755
 31
0.0
  0
LINE
  8
DETAIL
  6
CONTINUOUS
 62
     5
 10
65.704985862667854
 20
-75.059590918667254
 30
0.0
 11
70.811948815998221
 21
-70.774340188001133
 31
0.0
  0
LINE
  8
DETAIL
  6
CONTINUOUS
 62
     5
 10
59.915043166665782
 20
-88.620644961334165
 30
0.0
 11
63.592056494664583
 21
-85.535264434667624
 31
0.0
  0
LINE
  8
DETAIL
  6
CONTINUOUS
 62
     5
 10
69.990236593330337
 20
-80.166553873334578
 30
0.0
 11
75.09719954799948
 21
-75.881303141334229
 31
0.0
  0
LINE
  8
DETAIL
  6
CONTINUOUS
 62
     5
 10
56.90823952133087
 20
64.842265623999538
 30
0.0
 11
62.015202474665777
 21
60.557014891999643
 31
0.0
  0
LINE
  8
DETAIL
  6
CONTINUOUS
 62
     5
 10
47.059290973335919
 20
73.29975609999974
 30
0.0
 11
50.736304299995027
 21
70.2143755733332
 31
0.0
  0
LINE
  8
DETAIL
  6
CONTINUOUS
 62
     5
 10
63.824455573332671
 20
62.713198771999942
 30
0.0
 11
66.954179382666553
 21
60.087048678666633
 31
0.0
  0
LINE
  8
DETAIL
  6
CONTINUOUS
 62
     5
 10
61.1934902519979
 20
69.949228577333088
 30
0.0
 11
66.300453206409657
 21
65.663977846486887
 31
0.0
  0
LINE
  8
DETAIL
  6
CONTINUOUS
 62
     5
 10
55.225833549331583
 20
75.149928498666213
 30
0.0
 11
51.140263186663113
 21
78.578129082666692
 31
0.0
  0
LINE
  8
DETAIL
  6
CONTINUOUS
 62
     5
 10
68.966756450664434
 20
68.841554317332793
 30
0.0
 11
72.096480260003773
 21
66.215404222666166
 31
0.0
  0
LINE
  8
DETAIL
  6
CONTINUOUS
 62
     5
 10
70.585703937334074
 20
70.770940799999607
 30
0.0
 11
65.47874098399916
 21
75.056191531999957
 31
0.0
  0
LINE
  8
DETAIL
  6
CONTINUOUS
 62
     5
 10
55.629792435998752
 20
83.513682007999705
 30
0.0
 11
59.306805762663323
 21
80.428301481333165
 31
0.0
  0
LINE
  8
DETAIL
  6
CONTINUOUS
 62
     5
 10
59.915043166665782
 20
88.620644962666574
 30
0.0
 11
63.592056494664583
 21
85.535264435999579
 31
0.0
  0
LINE
  8
DETAIL
  6
CONTINUOUS
 62
     5
 10
69.859144519997244
 20
80.276553184000022
 30
0.0
 11
74.966107474666387
 21
75.991302453332992
 31
0.0
  0
LINE
  8
DETAIL
  6
CONTINUOUS
 62
     5
 10
68.574613077335016
 20
-84.835489148000761
 30
0.0
 11
68.640159113329901
 21
-84.780489493334244
 31
0.0
  0
LINE
  8
DETAIL
  6
CONTINUOUS
 62
     5
 10
76.811299840000174
 20
-77.924088324000877
 30
0.0
 11
79.809931576001873
 21
-75.407937540001058
 31
0.0
  0
LINE
  8
DETAIL
  6
CONTINUOUS
 62
     5
 10
63.996015379998433
 20
-93.899017944001116
 30
0.0
 11
68.081585744000222
 21
-90.470817360000638
 31
0.0
  0
LINE
  8
DETAIL
  6
CONTINUOUS
 62
     5
 10
74.275487325336144
 20
-85.273516826667674
 30
0.0
 11
79.382450278808392
 21
-80.988266095374911
 31
0.0
  0
LINE
  8
DETAIL
  6
CONTINUOUS
 62
     5
 10
73.716913954667689
 20
-90.963844693334522
 30
0.0
 11
73.782459990667121
 21
-90.90884503866755
 31
0.0
  0
LINE
  8
DETAIL
  6
CONTINUOUS
 62
     5
 10
81.953600717331938
 20
-84.052443868000864
 30
0.0
 11
84.952232453333636
 21
-81.53629308400059
 31
0.0
  0
LINE
  8
DETAIL
  6
CONTINUOUS
 62
     5
 10
68.485544629329524
 20
-98.834570869334584
 30
0.0
 11
72.162557957331956
 21
-95.749190342667589
 31
0.0
  0
LINE
  8
DETAIL
  6
CONTINUOUS
 62
     5
 10
78.560738055997717
 20
-90.380479781334088
 30
0.0
 11
83.66770101066686
 21
-86.095229050667513
 31
0.0
  0
LINE
  8
DETAIL
  6
CONTINUOUS
 62
     5
 10
76.548326688000998
 20
-94.338190990667499
 30
0.0
 11
73.484148916004415
 21
-96.90934142933429
 31
0.0
  0
LINE
  8
DETAIL
  6
CONTINUOUS
 62
     5
 10
76.548326688000998
 20
-94.338190990667499
 30
0.0
 11
76.61387272400043
 21
-94.283191334667663
 31
0.0
  0
LINE
  8
DETAIL
  6
CONTINUOUS
 62
     5
 10
79.678050497335789
 20
-91.712040896000872
 30
0.0
 11
82.6965681199963
 21
-89.179203872000926
 31
0.0
  0
LINE
  8
DETAIL
  6
CONTINUOUS
 62
     5
 10
76.680207766662534
 20
78.034087634666321
 30
0.0
 11
79.809931576001873
 21
75.407937539999693
 31
0.0
  0
LINE
  8
DETAIL
  6
CONTINUOUS
 62
     5
 10
74.144395252003051
 20
85.383516138666437
 30
0.0
 11
79.251358205688121
 21
81.098265406960763
 31
0.0
  0
LINE
  8
DETAIL
  6
CONTINUOUS
 62
     5
 10
68.081585744000222
 20
90.470817359999728
 30
0.0
 11
63.996015379998433
 21
93.899017945333071
 31
0.0
  0
LINE
  8
DETAIL
  6
CONTINUOUS
 62
     5
 10
81.822508645333073
 20
84.162443179999627
 30
0.0
 11
84.952232453333636
 21
81.536293085333
 31
0.0
  0
LINE
  8
DETAIL
  6
CONTINUOUS
 62
     5
 10
68.485544629329524
 20
98.834570870666539
 30
0.0
 11
72.162557957331956
 21
95.749190343999999
 31
0.0
  0
LINE
  8
DETAIL
  6
CONTINUOUS
 62
     5
 10
83.536608937334677
 20
86.205228361333411
 30
0.0
 11
78.429645982665534
 21
90.490479091999532
 31
0.0
  0
LINE
  8
DETAIL
  6
CONTINUOUS
 62
     5
 10
79.546958423998149
 20
91.822040207999635
 30
0.0
 11
82.6965681199963
 21
89.179203873333336
 31
0.0
  0
LINE
  8
DETAIL
  6
CONTINUOUS
 62
     5
 10
76.482780650667337
 20
94.393190646666426
 30
0.0
 11
73.484148916004415
 21
96.909341429333381
 31
0.0
  0
LINE
  8
DETAIL
  6
CONTINUOUS
 62
     5
 10
-204.66107254400589
 20
194.15165919066661
 30
0.0
 11
-196.9755791679963
 21
194.15165919066661
 31
0.0
  0
LINE
  8
DETAIL
  6
CONTINUOUS
 62
     5
 10
-196.9755791679963
 20
207.48499252400009
 30
0.0
 11
-204.66107254400589
 21
207.48499252400009
 31
0.0
  0
LINE
  8
DETAIL
  6
CONTINUOUS
 62
     5
 10
230.27999999999381
 20
62.830371619532798
 30
0.0
 11
230.27999999999381
 21
60.125881282553109
 31
0.0
  0
LINE
  8
DETAIL
  6
CONTINUOUS
 62
     5
 10
232.42666666665949
 20
54.560013112866272
 30
0.0
 11
232.42666666665949
 21
62.153333333133112
 31
0.0
  0
LINE
  8
DETAIL
  6
CONTINUOUS
 62
     5
 10
159.05296123599959
 20
225.97251391200049
 30
0.0
 11
166.73845461199829
 21
225.97251391200049
 31
0.0
  0
LINE
  8
DETAIL
  6
CONTINUOUS
 62
     5
 10
166.73845461199829
 20
239.30584724533361
 30
0.0
 11
159.05296123599959
 21
239.30584724533361
 31
0.0
  0
LINE
  8
DETAIL
  6
CONTINUOUS
 62
     5
 10
243.62666666665561
 20
54.560013112866272
 30
0.0
 11
243.62666666665561
 21
62.153333333133112
 31
0.0
  0
LINE
  8
DETAIL
  6
CONTINUOUS
 62
     5
 10
172.74152498533391
 20
-202.6207709573346
 30
0.0
 11
197.25494716400141
 21
-182.0515674466678
 31
0.0
  0
LINE
  8
BASIS
  6
DASHDOT
 62
     6
 10
-198.188808995003
 20
229.99999999999949
 30
0.0
 11
-261.81119100350452
 21
229.99999999999949
 31
0.0
  0
LINE
  8
DETAIL
  6
CONTINUOUS
 62
     5
 10
169.54625514000051
 20
205.30192070666681
 30
0.0
 11
145.03283295999881
 21
225.87112421733349
 31
0.0
  0
LINE
  8
DETAIL
  6
CONTINUOUS
 62
     5
 10
155.22904125733751
 20
232.63918057866701
 30
0.0
 11
159.05296123599959
 21
225.97251391200049
 31
0.0
  0
LINE
  8
DETAIL
  6
CONTINUOUS
 62
     5
 10
170.562374590666
 20
232.63918057866701
 30
0.0
 11
166.73845461199829
 21
239.30584724533361
 31
0.0
  0
LINE
  8
DETAIL
  6
CONTINUOUS
 62
     5
 10
256.13333333332372
 20
62.830371619532798
 30
0.0
 11
256.13333333332372
 21
54.499999999799464
 31
0.0
  0
LINE
  8
DETAIL
  6
CONTINUOUS
 62
     5
 10
257.20000000001619
 20
-71.766666666666879
 30
0.0
 11
257.20000000001619
 21
-73.500000000000455
 31
0.0
  0
LINE
  8
DETAIL
  6
CONTINUOUS
 62
     5
 10
257.19999999999482
 20
52.766666666465881
 30
0.0
 11
257.19999999999482
 21
54.499999999799464
 31
0.0
  0
LINE
  8
DETAIL
  6
CONTINUOUS
 62
     5
 10
257.86666666666088
 20
53.067197551799381
 30
0.0
 11
257.86666666666088
 21
52.766666666465881
 31
0.0
  0
LINE
  8
DETAIL
  6
CONTINUOUS
 62
     5
 10
258.93333333332657
 20
52.766666666465881
 30
0.0
 11
258.93333333334789
 21
-71.766666666666879
 31
0.0
  0
LINE
  8
DETAIL
  6
CONTINUOUS
 62
     5
 10
258.93333333332657
 20
47.833333333132941
 30
0.0
 11
258.93333333332657
 21
52.766666666465881
 31
0.0
  0
LINE
  8
DETAIL
  6
CONTINUOUS
 62
     5
 10
260.00000000001359
 20
-71.766666666666879
 30
0.0
 11
260.00000000001359
 21
-64.166666666667425
 31
0.0
  0
LINE
  8
DETAIL
  6
CONTINUOUS
 62
     5
 10
259.99999999999233
 20
45.166666666466433
 30
0.0
 11
259.99999999999233
 21
52.766666666465881
 31
0.0
  0
LINE
  8
DETAIL
  6
CONTINUOUS
 62
     5
 10
260.00000000000142
 20
-250.00000000000051
 30
0.0
 11
260.00000000000142
 21
249.99999999999949
 31
0.0
  0
LINE
  8
DETAIL
  6
CONTINUOUS
 62
     5
 10
196.975579168
 20
-194.15165918933459
 30
0.0
 11
193.15165919066661
 21
-200.81832585600159
 31
0.0
  0
LINE
  8
DETAIL
  6
CONTINUOUS
 62
     5
 10
204.6610725453329
 20
-207.48499252266811
 30
0.0
 11
208.48499252400049
 21
-200.81832585600159
 31
0.0
  0
LINE
  8
DETAIL
  6
CONTINUOUS
 62
     5
 10
250.00000000000139
 20
259.99999999999949
 30
0.0
 11
-249.99999999999861
 21
259.99999999999949
 31
0.0
  0
LINE
  8
DETAIL
  6
CONTINUOUS
 62
     5
 10
191.10360086799761
 20
-230.72673616666819
 30
0.0
 11
218.6812008213337
 21
-207.5863822173346
 31
0.0
  0
LINE
  8
DETAIL
  6
CONTINUOUS
 62
     5
 10
194.03668656799979
 20
228.26558503866681
 30
0.0
 11
166.45908661599699
 21
251.40593898800029
 31
0.0
  0
ARC
  8
DETAIL
  6
CONTINUOUS
 62
     5
 10
-249.99999999999861
 20
-250.00000000000051
 30
0.0
 40
10.0
 50
180.0
 51
270.0
  0
ARC
  8
DETAIL
  6
CONTINUOUS
 62
     5
 10
-163.88793617600371
 20
-248.3417612146682
 30
0.0
 40
4.0000000000000151
 50
230.00000000000961
 51
320.00000000000392
  0
ARC
  8
DETAIL
  6
CONTINUOUS
 62
     5
 10
-147.60398339733729
 20
-228.9353019893347
 30
0.0
 40
4.0000000000000151
 50
320.00000000000392
 51
50.000000000009607
  0
ARC
  8
DETAIL
  6
CONTINUOUS
 62
     5
 10
-217.00691289500401
 20
-226.0225243550008
 30
0.0
 40
1.125
 50
315.00000000001381
 51
135.00000000001381
  0
ARC
  8
DETAIL
  6
CONTINUOUS
 62
     5
 10
-226.02252435500171
 20
-217.0069128950004
 30
0.0
 40
1.125
 50
315.00000000001381
 51
135.00000000001381
  0
ARC
  8
DETAIL
  6
CONTINUOUS
 62
     5
 10
-89.113810073335117
 20
46.824209891999537
 30
0.0
 40
16.00000000000006
 50
332.2806420748916
 51
16.863739317280011
  0
ARC
  8
DETAIL
  6
CONTINUOUS
 62
     5
 10
-89.113810073335117
 20
-46.824209890667127
 30
0.0
 40
16.00000000000006
 50
343.13626068271998
 51
27.719357925108369
  0
ARC
  8
DETAIL
  6
CONTINUOUS
 62
     5
 10
-80.125417680003011
 20
-86.115026100000705
 30
0.0
 40
4.0000000000000151
 50
163.13626068272001
 51
230.00000000000961
  0
ARC
  8
DETAIL
  6
CONTINUOUS
 62
     5
 10
-55.458382405334312
 20
-83.309403489334272
 30
0.0
 40
0.2666666666666677
 50
230.00000000000961
 51
320.00000000000392
  0
ARC
  8
DETAIL
  6
CONTINUOUS
 62
     5
 10
-47.230701001335547
 20
-73.504034617334128
 30
0.0
 40
0.2666666666666677
 50
320.00000000000392
 51
50.000000000009607
  0
ARC
  8
DETAIL
  6
CONTINUOUS
 62
     5
 10
-50.90771432933343
 20
-70.418654090667587
 30
0.0
 40
0.2666666666666677
 50
50.000000000009607
 51
140.00000000000389
  0
ARC
  8
DETAIL
  6
CONTINUOUS
 62
     5
 10
-59.135395733337653
 20
-80.224022962667277
 30
0.0
 40
0.2666666666666677
 50
140.00000000000389
 51
230.00000000000961
  0
ARC
  8
DETAIL
  6
CONTINUOUS
 62
     5
 10
-68.314134599998397
 20
-98.630292350667787
 30
0.0
 40
0.2666666666666677
 50
230.00000000000961
 51
320.00000000000392
  0
ARC
  8
DETAIL
  6
CONTINUOUS
 62
     5
 10
-60.086453195999638
 20
-88.824923480000962
 30
0.0
 40
0.2666666666666677
 50
320.00000000000392
 51
50.000000000009607
  0
ARC
  8
DETAIL
  6
CONTINUOUS
 62
     5
 10
-63.76346652266875
 20
-85.739542953333967
 30
0.0
 40
0.2666666666666677
 50
50.000000000009607
 51
140.00000000000389
  0
ARC
  8
DETAIL
  6
CONTINUOUS
 62
     5
 10
-71.991147926667509
 20
-95.544911825334111
 30
0.0
 40
0.2666666666666677
 50
140.00000000000389
 51
230.00000000000961
  0
ARC
  8
DETAIL
  6
CONTINUOUS
 62
     5
 10
109.5029710394729
 20
-211.39694600441129
 30
0.0
 40
8.6666666666658916
 50
205.84710038600579
 51
25.847100386005831
  0
ARC
  8
DETAIL
  6
CONTINUOUS
 62
     5
 10
174.9009578893338
 20
-220.7028188293348
 30
0.0
 40
5.3333333333333526
 50
219.99999999999611
 51
39.999999999996128
  0
ARC
  8
DETAIL
  6
CONTINUOUS
 62
     5
 10
216.1100503813341
 20
-204.52220444533441
 30
0.0
 40
4.0000000000000151
 50
309.99999999999039
 51
39.999999999996128
  0
ARC
  8
DETAIL
  6
CONTINUOUS
 62
     5
 10
199.82609760266769
 20
-185.11574521866811
 30
0.0
 40
4.0000000000000151
 50
39.999999999996128
 51
129.99999999999039
  0
ARC
  8
DETAIL
  6
CONTINUOUS
 62
     5
 10
89.113810073334207
 20
-46.824209890667127
 30
0.0
 40
16.00000000000006
 50
152.28064207489169
 51
196.86373931728011
  0
ARC
  8
DETAIL
  6
CONTINUOUS
 62
     5
 10
80.125417681335421
 20
-86.115026100000705
 30
0.0
 40
4.0000000000000151
 50
309.99999999999039
 51
16.863739317280011
  0
ARC
  8
DETAIL
  6
CONTINUOUS
 62
     5
 10
4.461796710179442
 20
-67.618291143406054
 30
0.0
 40
1.3333333333333379
 50
192.1322695817943
 51
282.1322695817945
  0
ARC
  8
DETAIL
  6
CONTINUOUS
 62
     5
 10
24.015097156584488
 20
-63.41490659608894
 30
0.0
 40
1.3333333333333379
 50
282.1322695817945
 51
12.132269581794301
  0
ARC
  8
DETAIL
  6
CONTINUOUS
 62
     5
 10
47.230701002662499
 20
-73.504034617334128
 30
0.0
 40
0.2666666666666677
 50
129.99999999999039
 51
219.99999999999611
  0
ARC
  8
DETAIL
  6
CONTINUOUS
 62
     5
 10
55.458382406662167
 20
-83.309403489334272
 30
0.0
 40
0.2666666666666677
 50
219.99999999999611
 51
309.99999999999039
  0
ARC
  8
DETAIL
  6
CONTINUOUS
 62
     5
 10
59.135395733331279
 20
-80.224022962667277
 30
0.0
 40
0.2666666666666677
 50
309.99999999988398
 51
39.999999999996128
  0
ARC
  8
DETAIL
  6
CONTINUOUS
 62
     5
 10
50.907714329331611
 20
-70.418654090667587
 30
0.0
 40
0.2666666666666677
 50
39.999999999996128
 51
130.00000000008561
  0
ARC
  8
DETAIL
  6
CONTINUOUS
 62
     5
 10
60.086453196003283
 20
-88.824923480000962
 30
0.0
 40
0.2666666666666677
 50
129.99999999999039
 51
219.99999999999611
  0
ARC
  8
DETAIL
  6
CONTINUOUS
 62
     5
 10
68.314134600002035
 20
-98.630292350667787
 30
0.0
 40
0.2666666666666677
 50
219.99999999999611
 51
309.99999999999039
  0
ARC
  8
DETAIL
  6
CONTINUOUS
 62
     5
 10
71.991147927995371
 20
-95.544911825334111
 30
0.0
 40
0.2666666666666677
 50
309.99999999988398
 51
39.999999999996128
  0
ARC
  8
DETAIL
  6
CONTINUOUS
 62
     5
 10
63.763466523996613
 20
-85.739542953333967
 30
0.0
 40
0.2666666666666677
 50
39.999999999996128
 51
129.99999999999039
  0
ARC
  8
DETAIL
  6
CONTINUOUS
 62
     5
 10
0.000000000001819
 20
-0.0000000000004547
 30
0.0
 40
238.0
 50
50.515030890591348
 51
129.52719684411059
  0
ARC
  8
DETAIL
  6
CONTINUOUS
 62
     5
 10
0.000000000001819
 20
-0.0000000000004547
 30
0.0
 40
238.0
 50
130.5150674147078
 51
229.52719684422581
  0
ARC
  8
DETAIL
  6
CONTINUOUS
 62
     5
 10
0.000000000001819
 20
-0.0000000000004547
 30
0.0
 40
238.0
 50
230.51506741506529
 51
306.73423371457721
  0
ARC
  8
DETAIL
  6
CONTINUOUS
 62
     5
 10
0.000000000001819
 20
-0.0000000000004547
 30
0.0
 40
238.0
 50
310.51506741501322
 51
49.527196844294558
  0
ARC
  8
DETAIL
  6
CONTINUOUS
 62
     5
 10
0.000000000001819
 20
-0.0000000000004547
 30
0.0
 40
202.5
 50
310.58771516048938
 51
49.460507907896641
  0
ARC
  8
DETAIL
  6
CONTINUOUS
 62
     5
 10
0.000000000001819
 20
-0.0000000000004547
 30
0.0
 40
202.5
 50
50.587701091201957
 51
129.46053750188261
  0
ARC
  8
DETAIL
  6
CONTINUOUS
 62
     5
 10
0.000000000001819
 20
-0.0000000000004547
 30
0.0
 40
202.5
 50
130.58768586576241
 51
229.4605375020202
  0
ARC
  8
DETAIL
  6
CONTINUOUS
 62
     5
 10
0.000000000001819
 20
-0.0000000000004547
 30
0.0
 40
202.5
 50
230.58768586617501
 51
306.27550217913551
  0
ARC
  8
DETAIL
  6
CONTINUOUS
 62
     5
 10
0.000000000001819
 20
-0.0000000000004547
 30
0.0
 40
84.666666666666984
 50
234.06485661500159
 51
278.34821204679503
  0
ARC
  8
DETAIL
  6
CONTINUOUS
 62
     5
 10
0.000000000001819
 20
-0.0000000000004547
 30
0.0
 40
84.666666666666984
 50
285.57139303679338
 51
305.93626296159368
  0
ARC
  8
DETAIL
  6
CONTINUOUS
 62
     5
 10
0.000000000001819
 20
-0.0000000000004547
 30
0.0
 40
84.666666666666984
 50
54.064856615002029
 51
125.935143384998
  0
ARC
  8
DETAIL
  6
CONTINUOUS
 62
     5
 10
0.000000000001819
 20
-0.0000000000004547
 30
0.0
 40
84.666666666666984
 50
152.28064207489169
 51
207.7193579251084
  0
ARC
  8
DETAIL
  6
CONTINUOUS
 62
     5
 10
0.000000000001819
 20
-0.0000000000004547
 30
0.0
 40
84.666666666666984
 50
332.2806420748916
 51
27.719357925108369
  0
ARC
  8
DETAIL
  6
CONTINUOUS
 62
     5
 10
0.000000000001819
 20
-0.0000000000004547
 30
0.0
 40
71.333333333333599
 50
125.1750280509093
 51
234.8249719483895
  0
ARC
  8
DETAIL
  6
CONTINUOUS
 62
     5
 10
0.000000000001819
 20
-0.0000000000004547
 30
0.0
 40
71.333333333333599
 50
305.17502805161052
 51
54.824971949090738
  0
CIRCLE
  8
DETAIL
  6
CONTINUOUS
 62
     5
 10
0.000000000001819
 20
-0.0000000000004547
 30
0.0
 40
66.0
  0
ARC
  8
DETAIL
  6
CONTINUOUS
 62
     5
 10
89.113810073334207
 20
46.824209891999537
 30
0.0
 40
16.00000000000006
 50
163.13626068272001
 51
207.7193579251084
  0
ARC
  8
DETAIL
  6
CONTINUOUS
 62
     5
 10
250.00000000000139
 20
-250.00000000000051
 30
0.0
 40
10.0
 50
270.0
 51
0.0
  0
CIRCLE
  8
DETAIL
  6
CONTINUOUS
 62
     5
 10
236.81333333332299
 20
59.633333333132668
 30
0.0
 40
4.3866666666666827
  0
ARC
  8
DETAIL
  6
CONTINUOUS
 62
     5
 10
241.75999999999249
 20
62.153333333133112
 30
0.0
 40
1.866666666666674
 50
0.0
 51
90.0
  0
ARC
  8
DETAIL
  6
CONTINUOUS
 62
     5
 10
234.29333333332261
 20
62.153333333133112
 30
0.0
 40
1.866666666666674
 50
90.0
 51
180.0
  0
ARC
  8
DETAIL
  6
CONTINUOUS
 62
     5
 10
258.26666666665511
 20
52.766666666465881
 30
0.0
 40
1.7333333333333401
 50
0.0
 51
90.0
  0
ARC
  8
DETAIL
  6
CONTINUOUS
 62
     5
 10
258.26666666667637
 20
-71.766666666666879
 30
0.0
 40
1.7333333333333401
 50
270.0
 51
0.0
  0
ARC
  8
DETAIL
  6
CONTINUOUS
 62
     5
 10
258.26666666667637
 20
-71.766666666666879
 30
0.0
 40
0.6666666666666692
 50
270.0
 51
0.0
  0
ARC
  8
DETAIL
  6
CONTINUOUS
 62
     5
 10
258.26666666665511
 20
52.766666666465881
 30
0.0
 40
0.6666666666666692
 50
0.0
 51
90.0
  0
ARC
  8
DETAIL
  6
CONTINUOUS
 62
     5
 10
-249.99999999999861
 20
249.99999999999949
 30
0.0
 40
10.0
 50
90.0
 51
180.0
  0
ARC
  8
DETAIL
  6
CONTINUOUS
 62
     5
 10
-216.11005038133499
 20
204.5222044453335
 30
0.0
 40
4.0000000000000151
 50
129.99999999999039
 51
219.99999999999611
  0
ARC
  8
DETAIL
  6
CONTINUOUS
 62
     5
 10
-199.82609760266399
 20
185.11574522000001
 30
0.0
 40
4.0000000000000151
 50
219.99999999999611
 51
309.99999999999039
  0
ARC
  8
DETAIL
  6
CONTINUOUS
 62
     5
 10
-80.125417680003011
 20
86.115026099999795
 30
0.0
 40
4.0000000000000151
 50
129.99999999999039
 51
196.86373931728011
  0
ARC
  8
DETAIL
  6
CONTINUOUS
 62
     5
 10
80.125417681335421
 20
86.115026099999795
 30
0.0
 40
4.0000000000000151
 50
343.13626068271998
 51
50.000000000009607
  0
ARC
  8
DETAIL
  6
CONTINUOUS
 62
     5
 10
-226.02252435500171
 20
217.00691289649919
 30
0.0
 40
1.125
 50
224.99999999998619
 51
44.999999999986187
  0
ARC
  8
DETAIL
  6
CONTINUOUS
 62
     5
 10
-217.00691289500401
 20
226.02252435649959
 30
0.0
 40
1.125
 50
224.99999999998619
 51
44.999999999986187
  0
ARC
  8
DETAIL
  6
CONTINUOUS
 62
     5
 10
68.314134600002035
 20
98.630292351999742
 30
0.0
 40
0.2666666666666677
 50
50.000000000009607
 51
140.0000000000808
  0
ARC
  8
DETAIL
  6
CONTINUOUS
 62
     5
 10
60.086453196003283
 20
88.824923479999597
 30
0.0
 40
0.2666666666666677
 50
140.0000000000808
 51
230.00000000000961
  0
ARC
  8
DETAIL
  6
CONTINUOUS
 62
     5
 10
63.763466523996613
 20
85.739542953333057
 30
0.0
 40
0.2666666666666677
 50
230.00000000000961
 51
319.99999999991383
  0
ARC
  8
DETAIL
  6
CONTINUOUS
 62
     5
 10
71.991147927995371
 20
95.544911825333202
 30
0.0
 40
0.2666666666666677
 50
320.00000000000392
 51
50.000000000009607
  0
ARC
  8
DETAIL
  6
CONTINUOUS
 62
     5
 10
55.458382406662167
 20
83.309403489333363
 30
0.0
 40
0.2666666666666677
 50
50.000000000009607
 51
140.0000000000808
  0
ARC
  8
DETAIL
  6
CONTINUOUS
 62
     5
 10
47.230701002662499
 20
73.504034617333218
 30
0.0
 40
0.2666666666666677
 50
140.0000000000808
 51
230.00000000000961
  0
ARC
  8
DETAIL
  6
CONTINUOUS
 62
     5
 10
50.907714329331611
 20
70.418654091999542
 30
0.0
 40
0.2666666666666677
 50
230.00000000000961
 51
319.99999999991383
  0
ARC
  8
DETAIL
  6
CONTINUOUS
 62
     5
 10
59.135395733331279
 20
80.224022963999687
 30
0.0
 40
0.2666666666666677
 50
319.99999999991383
 51
50.000000000009607
  0
ARC
  8
DETAIL
  6
CONTINUOUS
 62
     5
 10
-60.086453195999638
 20
88.824923479999597
 30
0.0
 40
0.2666666666666677
 50
309.99999999988398
 51
39.999999999996128
  0
ARC
  8
DETAIL
  6
CONTINUOUS
 62
     5
 10
-68.314134599998397
 20
98.630292351999742
 30
0.0
 40
0.2666666666666677
 50
39.999999999996128
 51
129.99999999999039
  0
ARC
  8
DETAIL
  6
CONTINUOUS
 62
     5
 10
-71.991147926667509
 20
95.544911825333202
 30
0.0
 40
0.2666666666666677
 50
130.00000000008561
 51
219.99999999999611
  0
ARC
  8
DETAIL
  6
CONTINUOUS
 62
     5
 10
-63.76346652266875
 20
85.739542953333057
 30
0.0
 40
0.2666666666666677
 50
219.99999999999611
 51
309.99999999988398
  0
ARC
  8
DETAIL
  6
CONTINUOUS
 62
     5
 10
-47.230701001335547
 20
73.504034617333218
 30
0.0
 40
0.2666666666666677
 50
309.99999999988398
 51
39.999999999996128
  0
ARC
  8
DETAIL
  6
CONTINUOUS
 62
     5
 10
-55.458382405334312
 20
83.309403489333363
 30
0.0
 40
0.2666666666666677
 50
39.999999999996128
 51
130.00000000008561
  0
ARC
  8
DETAIL
  6
CONTINUOUS
 62
     5
 10
-59.135395733337653
 20
80.224022963999687
 30
0.0
 40
0.2666666666666677
 50
129.99999999999039
 51
219.99999999999611
  0
ARC
  8
DETAIL
  6
CONTINUOUS
 62
     5
 10
-50.90771432933343
 20
70.418654091999542
 30
0.0
 40
0.2666666666666677
 50
219.99999999999611
 51
309.99999999999039
  0
ARC
  8
DETAIL
  6
CONTINUOUS
 62
     5
 10
250.00000000000139
 20
249.99999999999949
 30
0.0
 40
10.0
 50
0.0
 51
90.0
  0
ARC
  8
DETAIL
  6
CONTINUOUS
 62
     5
 10
163.88793617733151
 20
248.34176121600009
 30
0.0
 40
4.0000000000000151
 50
50.000000000009607
 51
140.00000000000389
  0
ARC
  8
DETAIL
  6
CONTINUOUS
 62
     5
 10
147.60398339866521
 20
228.93530198933379
 30
0.0
 40
4.0000000000000151
 50
140.00000000000389
 51
230.00000000000961
  0
ARC
  8
DETAIL
  6
CONTINUOUS
 62
     5
 10
232.1466666666561
 20
62.830371619532798
 30
0.0
 40
1.866666666666674
 50
90.0
 51
180.0
  0
ARC
  8
DETAIL
  6
CONTINUOUS
 62
     5
 10
254.26666666665781
 20
62.830371619532798
 30
0.0
 40
1.866666666666674
 50
0.0
 51
90.0
  0
LINE
  8
SIZE
  6
CONTINUOUS
 62
    30
 10
-259.99999999999858
 20
269.99999999999949
 30
0.0
 11
-259.99999999999858
 21
488.23498854888788
 31
0.0
  0
LINE
  8
SIZE
  6
CONTINUOUS
 62
    30
 10
260.00000000000142
 20
269.99999999999949
 30
0.0
 11
260.00000000000142
 21
488.23498854888788
 31
0.0
  0
LINE
  8
SIZE
  6
CONTINUOUS
 62
    30
 10
-247.99999999999861
 20
468.23498854888788
 30
0.0
 11
248.00000000000139
 21
468.23498854888788
 31
0.0
  0
CIRCLE
  8
SIZE
  6
CONTINUOUS
 62
    30
 10
-259.99999999999858
 20
468.23498854888788
 30
0.0
 40
6.0
  0
LINE
  8
SIZE
  6
CONTINUOUS
 62
    30
 10
-259.99999999999858
 20
468.23498854888788
 30
0.0
 11
-247.99999999999858
 21
468.23498854888788
 31
0.0
  0
CIRCLE
  8
SIZE
  6
CONTINUOUS
 62
    30
 10
260.00000000000142
 20
468.23498854888788
 30
0.0
 40
6.0
  0
LINE
  8
SIZE
  6
CONTINUOUS
 62
    30
 10
260.00000000000142
 20
468.23498854888788
 30
0.0
 11
248.00000000000142
 21
468.23498854888788
 31
0.0
  0
TEXT
  8
SIZE
  6
CONTINUOUS
 62
    30
 10
-80.927999999998633
 20
493.23498854888794
 30
0.0
 40
64.0
  1
520
 50
0.0
 41
0.9
 51
0.0
  7
STANDARD
 71
     0
 72
     1
 11
0.0000000000013642
 21
493.23498854888794
 31
0.0
210
0.0
220
0.0
230
1.0
  0
POINT
  8
DEFPOINTS
  6
CONTINUOUS
 62
    30
 10
-259.99999999999858
 20
249.99999999999949
 30
0.0
  0
POINT
  8
DEFPOINTS
  6
CONTINUOUS
 62
    30
 10
260.00000000000142
 20
249.99999999999949
 30
0.0
  0
POINT
  8
DEFPOINTS
  6
CONTINUOUS
 62
    30
 10
260.00000000000142
 20
468.23498854888788
 30
0.0
  0
LINE
  8
SIZE
  6
CONTINUOUS
 62
    30
 10
-229.99999999999861
 20
281.81119100499973
 30
0.0
 11
-229.99999999999861
 21
355.00111143581438
 31
0.0
  0
LINE
  8
SIZE
  6
CONTINUOUS
 62
    30
 10
230.00000000000139
 20
281.81119100499973
 30
0.0
 11
230.00000000000139
 21
355.00111143581438
 31
0.0
  0
LINE
  8
SIZE
  6
CONTINUOUS
 62
    30
 10
-217.99999999999861
 20
335.00111143581438
 30
0.0
 11
218.00000000000139
 21
335.00111143581438
 31
0.0
  0
CIRCLE
  8
SIZE
  6
CONTINUOUS
 62
    30
 10
-229.99999999999861
 20
335.00111143581438
 30
0.0
 40
6.0
  0
LINE
  8
SIZE
  6
CONTINUOUS
 62
    30
 10
-229.99999999999861
 20
335.00111143581438
 30
0.0
 11
-217.99999999999861
 21
335.00111143581438
 31
0.0
  0
CIRCLE
  8
SIZE
  6
CONTINUOUS
 62
    30
 10
230.00000000000139
 20
335.00111143581438
 30
0.0
 40
6.0
  0
LINE
  8
SIZE
  6
CONTINUOUS
 62
    30
 10
230.00000000000139
 20
335.00111143581438
 30
0.0
 11
218.00000000000139
 21
335.00111143581438
 31
0.0
  0
TEXT
  8
SIZE
  6
CONTINUOUS
 62
    30
 10
-81.503999999998641
 20
360.00111143581438
 30
0.0
 40
64.0
  1
460
 50
0.0
 41
0.9
 51
0.0
  7
STANDARD
 71
     0
 72
     1
 11
0.0000000000013642
 21
360.00111143581438
 31
0.0
210
0.0
220
0.0
230
1.0
  0
POINT
  8
DEFPOINTS
  6
CONTINUOUS
 62
    30
 10
-229.99999999999861
 20
261.81119100499973
 30
0.0
  0
POINT
  8
DEFPOINTS
  6
CONTINUOUS
 62
    30
 10
230.00000000000139
 20
261.81119100499973
 30
0.0
  0
POINT
  8
DEFPOINTS
  6
CONTINUOUS
 62
    30
 10
230.00000000000139
 20
335.00111143581438
 30
0.0
  0
LINE
  8
SIZE
  6
CONTINUOUS
 62
    30
 10
-281.81119100350458
 20
229.99999999999969
 30
0.0
 11
-390.99386708349692
 21
229.9999999999996
 31
0.0
  0
LINE
  8
SIZE
  6
CONTINUOUS
 62
    30
 10
-277.01636616100279
 20
-230.0000000000006
 30
0.0
 11
-390.99386708349681
 21
-230.0000000000006
 31
0.0
  0
LINE
  8
SIZE
  6
CONTINUOUS
 62
    30
 10
-370.99386708349681
 20
217.9999999999996
 30
0.0
 11
-370.9938670834967
 21
-218.0000000000006
 31
0.0
  0
CIRCLE
  8
SIZE
  6
CONTINUOUS
 62
    30
 10
-370.99386708349681
 20
229.9999999999996
 30
0.0
 40
6.0
  0
LINE
  8
SIZE
  6
CONTINUOUS
 62
    30
 10
-370.99386708349681
 20
229.9999999999996
 30
0.0
 11
-370.99386708349681
 21
217.9999999999996
 31
0.0
  0
CIRCLE
  8
SIZE
  6
CONTINUOUS
 62
    30
 10
-370.9938670834967
 20
-230.0000000000006
 30
0.0
 40
6.0
  0
LINE
  8
SIZE
  6
CONTINUOUS
 62
    30
 10
-370.9938670834967
 20
-230.0000000000006
 30
0.0
 11
-370.9938670834967
 21
-218.0000000000006
 31
0.0
  0
TEXT
  8
SIZE
  6
CONTINUOUS
 62
    30
 10
-395.9938670834967
 20
-81.504000000000389
 30
0.0
 40
64.0
  1
460
 50
90.0
 41
0.9
 51
0.0
  7
STANDARD
 71
     0
 72
     1
 11
-395.9938670834967
 21
-0.0000000000003702
 31
0.0
210
0.0
220
0.0
230
1.0
  0
POINT
  8
DEFPOINTS
  6
CONTINUOUS
 62
    30
 10
-261.81119100350458
 20
229.99999999999969
 30
0.0
  0
POINT
  8
DEFPOINTS
  6
CONTINUOUS
 62
    30
 10
-257.01636616100279
 20
-230.0000000000006
 30
0.0
  0
POINT
  8
DEFPOINTS
  6
CONTINUOUS
 62
    30
 10
-370.9938670834967
 20
-230.0000000000006
 30
0.0
  0
LINE
  8
SIZE
  6
CONTINUOUS
 62
    30
 10
-269.99999999999869
 20
259.99999999999972
 30
0.0
 11
-530.40225131571867
 21
259.9999999999996
 31
0.0
  0
LINE
  8
SIZE
  6
CONTINUOUS
 62
    30
 10
-269.99999999999869
 20
-260.00000000000063
 30
0.0
 11
-530.40225131571844
 21
-260.00000000000063
 31
0.0
  0
LINE
  8
SIZE
  6
CONTINUOUS
 62
    30
 10
-510.40225131571862
 20
247.9999999999996
 30
0.0
 11
-510.4022513157185
 21
-248.0000000000006
 31
0.0
  0
CIRCLE
  8
SIZE
  6
CONTINUOUS
 62
    30
 10
-510.40225131571862
 20
259.9999999999996
 30
0.0
 40
6.0
  0
LINE
  8
SIZE
  6
CONTINUOUS
 62
    30
 10
-510.40225131571862
 20
259.9999999999996
 30
0.0
 11
-510.40225131571862
 21
247.9999999999996
 31
0.0
  0
CIRCLE
  8
SIZE
  6
CONTINUOUS
 62
    30
 10
-510.4022513157185
 20
-260.00000000000063
 30
0.0
 40
6.0
  0
LINE
  8
SIZE
  6
CONTINUOUS
 62
    30
 10
-510.4022513157185
 20
-260.00000000000063
 30
0.0
 11
-510.4022513157185
 21
-248.00000000000063
 31
0.0
  0
TEXT
  8
SIZE
  6
CONTINUOUS
 62
    30
 10
-535.40225131571844
 20
-80.928000000000353
 30
0.0
 40
64.0
  1
520
 50
90.0
 41
0.9
 51
0.0
  7
STANDARD
 71
     0
 72
     1
 11
-535.40225131571844
 21
-0.0000000000003617
 31
0.0
210
0.0
220
0.0
230
1.0
  0
POINT
  8
DEFPOINTS
  6
CONTINUOUS
 62
    30
 10
-249.99999999999869
 20
259.99999999999972
 30
0.0
  0
POINT
  8
DEFPOINTS
  6
CONTINUOUS
 62
    30
 10
-249.99999999999869
 20
-260.00000000000063
 30
0.0
  0
POINT
  8
DEFPOINTS
  6
CONTINUOUS
 62
    30
 10
-510.4022513157185
 20
-260.00000000000063
 30
0.0
  0
ARC
  8
DETAIL
  6
CONTINUOUS
 62
     5
 10
69.144680708143824
 20
-127.59036944768791
 30
0.0
 40
15.94392513052186
 50
38.275595749317453
 51
80.005148868336832
  0
ARC
  8
DETAIL
  6
CONTINUOUS
 62
     5
 10
68.922110542025621
 20
-127.9625842743712
 30
0.0
 40
27.016511222592321
 50
38.943642229848933
 51
79.431312343920851
  0
ARC
  8
DETAIL
  6
CONTINUOUS
 62
     5
 10
32.649046011475093
 20
-80.952230978223724
 30
0.0
 40
20.736040580626529
 50
200.89784909904321
 51
244.3946524052831
  0
ARC
  8
DETAIL
  6
CONTINUOUS
 62
     5
 10
27.46285464742914
 20
-82.080825309510487
 30
0.0
 40
4.5352055675550673
 50
196.88286144573831
 51
240.36916049226869
  0
ARC
  8
OUTLINE
  6
CONTINUOUS
 62
     3
 10
-249.99999999999858
 20
249.99999999999949
 30
0.0
 40
9.9999999999999964
 50
90.0
 51
180.0
  0
LINE
  8
OUTLINE
  6
CONTINUOUS
 62
     3
 10
-249.99999999999861
 20
259.99999999999949
 30
0.0
 11
250.00000000000139
 21
259.99999999999949
 31
0.0
  0
ARC
  8
OUTLINE
  6
CONTINUOUS
 62
     3
 10
250.00000000000142
 20
249.99999999999949
 30
0.0
 40
10.0
 50
0.0
 51
90.0
  0
LINE
  8
OUTLINE
  6
CONTINUOUS
 62
     3
 10
260.00000000000142
 20
249.99999999999949
 30
0.0
 11
260.00000000000142
 21
-250.00000000000051
 31
0.0
  0
ARC
  8
OUTLINE
  6
CONTINUOUS
 62
     3
 10
250.00000000000142
 20
-250.00000000000051
 30
0.0
 40
10.0
 50
270.0
 51
0.0
  0
LINE
  8
OUTLINE
  6
CONTINUOUS
 62
     3
 10
250.00000000000139
 20
-260.00000000000051
 30
0.0
 11
170.81538752533649
 21
-260.00000000000051
 31
0.0
  0
LINE
  8
OUTLINE
  6
CONTINUOUS
 62
     3
 10
170.81538752533649
 20
-260.00000000000051
 30
0.0
 11
-249.99999999999861
 21
-260.00000000000051
 31
0.0
  0
ARC
  8
OUTLINE
  6
CONTINUOUS
 62
     3
 10
-249.99999999999858
 20
-250.00000000000051
 30
0.0
 40
9.9999999999999982
 50
180.0
 51
270.0
  0
LINE
  8
OUTLINE
  6
CONTINUOUS
 62
     3
 10
-259.99999999999858
 20
-250.00000000000051
 30
0.0
 11
-259.99999999999858
 21
249.99999999999949
 31
0.0
  0
CIRCLE
  8
FIX
  6
CONTINUOUS
 62
    11
 10
-229.99999999999861
 20
229.99999999999949
 30
0.0
 40
7.5
  0
CIRCLE
  8
FIX
  6
CONTINUOUS
 62
    11
 10
-229.99999999999861
 20
-230.00000000000051
 30
0.0
 40
7.5
  0
POINT
  8
ARRANGE
  6
CONTINUOUS
 62
     1
 10
0.0
 20
0.0
 30
0.0
  0
CIRCLE
  8
ARRANGE
  6
CONTINUOUS
 62
     1
 10
0.0
 20
0.0
 30
0.0
 40
40.0
  0
ARC
  8
DETAIL
  6
CONTINUOUS
 62
     5
 10
-0.0000000000004547
 20
-0.0000000000013642
 30
0.0
 40
200.0000000000008
 50
273.50987541105962
 51
350.78300328656258
  0
ARC
  8
DETAIL
  6
CONTINUOUS
 62
     5
 10
91.471362248197693
 20
-85.239357495972399
 30
0.0
 40
139.14380368339391
 50
173.91810865833449
 51
235.29222193675801
  0
ARC
  8
DETAIL
  6
CONTINUOUS
 62
     5
 10
126.9827288655088
 20
145.3280558898191
 30
0.0
 40
7.0211866713253377
 50
52.077794939700972
 51
66.081539991266922
  0
ARC
  8
DETAIL
  6
CONTINUOUS
 62
     5
 10
-0.0000000000004547
 20
-0.0000000000013642
 30
0.0
 40
200.0000000000008
 50
33.509875411022371
 51
49.451546188146843
  0
ARC
  8
DETAIL
  6
CONTINUOUS
 62
     5
 10
-0.0000000000004547
 20
-0.0000000000013642
 30
0.0
 40
200.0000000000008
 50
50.597480982572968
 51
110.7830032865718
  0
ARC
  8
DETAIL
  6
CONTINUOUS
 62
     5
 10
28.0837678696771
 20
121.8362021736925
 30
0.0
 40
139.1438036833938
 50
293.9181086583211
 51
355.29222193678208
  0
ARC
  8
DETAIL
  6
CONTINUOUS
 62
     5
 10
-109.6286061789619
 20
46.354369068732467
 30
0.0
 40
133.90614012437251
 50
15.629810207732421
 51
73.257447383481193
  0
ARC
  8
DETAIL
  6
CONTINUOUS
 62
     5
 10
-68.053633070873275
 20
180.59081488994019
 30
0.0
 40
7.0272572884172648
 50
114.4833104358363
 51
214.02529802145739
  0
ARC
  8
DETAIL
  6
CONTINUOUS
 62
     5
 10
-68.94344255730357
 20
180.41579996862541
 30
0.0
 40
6.2019060333559901
 50
217.28683467078031
 51
250.1041371271067
  0
ARC
  8
DETAIL
  6
CONTINUOUS
 62
     5
 10
-0.0000000000004547
 20
-0.0000000000013642
 30
0.0
 40
200.0000000000008
 50
153.50987541104629
 51
229.45154618800589
  0
ARC
  8
DETAIL
  6
CONTINUOUS
 62
     5
 10
-0.0000000000004547
 20
-0.0000000000013642
 30
0.0
 40
200.0000000000008
 50
230.5974809827724
 51
230.7830032865532
  0
ARC
  8
DETAIL
  6
CONTINUOUS
 62
     5
 10
-119.5551301178734
 20
-36.596844677722864
 30
0.0
 40
139.1438036833938
 50
75.681235211690762
 51
115.29222193678849
  0
ARC
  8
DETAIL
  6
CONTINUOUS
 62
     5
 10
14.670241899558279
 20
-118.11834246682839
 30
0.0
 40
133.90614012437251
 50
135.6298102077327
 51
188.30053241856339
  0
ARC
  8
DETAIL
  6
CONTINUOUS
 62
     5
 10
14.670241899558279
 20
-118.11834246682839
 30
0.0
 40
133.90614012437251
 50
190.55392225105101
 51
193.25744738349451
  0
ARC
  8
DETAIL
  6
CONTINUOUS
 62
     5
 10
-122.3694168493853
 20
-149.23158250417191
 30
0.0
 40
7.0272572884187339
 50
234.4833104359717
 51
334.02529802146421
  0
ARC
  8
DETAIL
  6
CONTINUOUS
 62
     5
 10
-121.7729447382703
 20
-149.91467266329349
 30
0.0
 40
6.2019060333559901
 50
337.28683467078122
 51
10.10413712712413
  0
LINE
  8
DETAIL
  6
CONTINUOUS
 62
     5
 10
234.29333333332261
 20
-83.020000000000891
 30
0.0
 11
241.75999999999249
 21
-83.020000000000891
 31
0.0
  0
LINE
  8
DETAIL
  6
CONTINUOUS
 62
     5
 10
254.26666666665781
 20
-83.697038286400584
 30
0.0
 11
232.1466666666561
 21
-83.697038286400584
 31
0.0
  0
LINE
  8
DETAIL
  6
CONTINUOUS
 62
     5
 10
230.27999999999381
 20
-81.830371619733796
 30
0.0
 11
230.27999999999381
 21
-75.366666666667243
 31
0.0
  0
LINE
  8
DETAIL
  6
CONTINUOUS
 62
     5
 10
232.42666666665949
 20
-73.560013113067271
 30
0.0
 11
232.42666666665949
 21
-81.153333333334103
 31
0.0
  0
LINE
  8
DETAIL
  6
CONTINUOUS
 62
     5
 10
243.62666666665561
 20
-73.560013113067271
 30
0.0
 11
243.62666666665561
 21
-81.153333333334103
 31
0.0
  0
LINE
  8
DETAIL
  6
CONTINUOUS
 62
     5
 10
256.13333333332372
 20
-81.830371619733796
 30
0.0
 11
256.13333333332372
 21
-73.500000000000455
 31
0.0
  0
CIRCLE
  8
DETAIL
  6
CONTINUOUS
 62
     5
 10
236.81333333332299
 20
-78.633333333333667
 30
0.0
 40
4.3866666666666827
  0
ARC
  8
DETAIL
  6
CONTINUOUS
 62
     5
 10
228.41333333332341
 20
-75.366666666667243
 30
0.0
 40
1.866666666666674
 50
0.0
 51
89.999277442905679
  0
ARC
  8
DETAIL
  6
CONTINUOUS
 62
     5
 10
241.75999999999249
 20
-81.153333333334103
 30
0.0
 40
1.866666666666674
 50
270.0
 51
0.0
  0
ARC
  8
DETAIL
  6
CONTINUOUS
 62
     5
 10
234.29333333332261
 20
-81.153333333334103
 30
0.0
 40
1.866666666666674
 50
180.0
 51
270.0
  0
ARC
  8
DETAIL
  6
CONTINUOUS
 62
     5
 10
232.1466666666561
 20
-81.830371619733796
 30
0.0
 40
1.866666666666674
 50
180.0
 51
270.0
  0
ARC
  8
DETAIL
  6
CONTINUOUS
 62
     5
 10
254.26666666665781
 20
-81.830371619733796
 30
0.0
 40
1.866666666666674
 50
270.0
 51
0.0
  0
LINE
  8
SIZE
  6
CONTINUOUS
 62
    30
 10
502.74749045906623
 20
-150.07148155449741
 30
0.0
 11
203.1426962129745
 21
-60.638642591372452
 31
0.0
  0
LINE
  8
SIZE
  6
CONTINUOUS
 62
    30
 10
-203.14269621297191
 20
60.638642591368367
 30
0.0
 11
-214.6413393948383
 21
64.071018587106309
 31
0.0
  0
TEXT
  8
SIZE
  6
CONTINUOUS
 62
    30
 10
278.2444180238914
 20
-56.96667432956859
 30
0.0
 40
64.0
  1
φ400
 50
343.37949382685741
 41
0.9
 51
0.0
  7
STANDARD
 71
     0
 72
     1
 11
390.01122975163253
 21
-90.329369008141398
 31
0.0
210
0.0
220
0.0
230
1.0
  0
LINE
  8
SIZE
  6
CONTINUOUS
 62
    30
 10
-191.6440530311055
 20
57.206266595630431
 30
0.0
 11
191.64405303110809
 21
-57.206266595634503
 31
0.0
  0
CIRCLE
  8
SIZE
  6
CONTINUOUS
 62
    30
 10
-191.6440530311055
 20
57.206266595630431
 30
0.0
 40
6.0
  0
LINE
  8
SIZE
  6
CONTINUOUS
 62
    30
 10
-191.6440530311055
 20
57.206266595630431
 30
0.0
 11
-203.14269621297188
 21
60.638642591368374
 31
0.0
  0
CIRCLE
  8
SIZE
  6
CONTINUOUS
 62
    30
 10
191.64405303110809
 20
-57.206266595634503
 30
0.0
 40
6.0
  0
LINE
  8
SIZE
  6
CONTINUOUS
 62
    30
 10
191.64405303110809
 20
-57.206266595634503
 30
0.0
 11
203.14269621297444
 21
-60.638642591372445
 31
0.0
  0
POINT
  8
DEFPOINTS
  6
CONTINUOUS
 62
    30
 10
191.64405303110809
 20
-57.206266595634503
 30
0.0
  0
POINT
  8
DEFPOINTS
  6
CONTINUOUS
 62
    30
 10
-191.6440530311055
 20
57.206266595630431
 30
0.0
  0
LINE
  8
SIZE
  6
CONTINUOUS
 62
    30
 10
471.20546649891691
 20
-300.2985345407788
 30
0.0
 11
180.888754301918
 21
-115.280130842662
 31
0.0
  0
LINE
  8
SIZE
  6
CONTINUOUS
 62
    30
 10
-180.88875430191351
 20
115.2801308426608
 30
0.0
 11
-191.00840489223049
 21
121.7293689317608
 31
0.0
  0
TEXT
  8
SIZE
  6
CONTINUOUS
 62
    30
 10
281.25471406785789
 20
-149.59791360325187
 30
0.0
 40
64.0
  1
φ405
 50
327.4906992831493
 41
0.9
 51
0.0
  7
STANDARD
 71
     0
 72
     1
 11
379.13197457740353
 21
-211.97494440102651
 31
0.0
210
0.0
220
0.0
230
1.0
  0
LINE
  8
SIZE
  6
CONTINUOUS
 62
    30
 10
-170.7691037115965
 20
108.8308927535609
 30
0.0
 11
170.76910371160099
 21
-108.8308927535621
 31
0.0
  0
CIRCLE
  8
SIZE
  6
CONTINUOUS
 62
    30
 10
-170.7691037115965
 20
108.8308927535609
 30
0.0
 40
6.0
  0
LINE
  8
SIZE
  6
CONTINUOUS
 62
    30
 10
-170.7691037115965
 20
108.8308927535609
 30
0.0
 11
-180.88875430191348
 21
115.28013084266082
 31
0.0
  0
CIRCLE
  8
SIZE
  6
CONTINUOUS
 62
    30
 10
170.76910371160099
 20
-108.8308927535621
 30
0.0
 40
6.0
  0
LINE
  8
SIZE
  6
CONTINUOUS
 62
    30
 10
170.76910371160099
 20
-108.8308927535621
 30
0.0
 11
180.88875430191794
 21
-115.28013084266205
 31
0.0
  0
POINT
  8
DEFPOINTS
  6
CONTINUOUS
 62
    30
 10
170.76910371160099
 20
-108.8308927535621
 30
0.0
  0
POINT
  8
DEFPOINTS
  6
CONTINUOUS
 62
    30
 10
-170.7691037115965
 20
108.8308927535609
 30
0.0
  0
LINE
  8
SIZE
  6
CONTINUOUS
 62
    30
 10
500.56758856766618
 20
275.064970637405
 30
0.0
 11
219.09965106263959
 21
120.39660669732589
 31
0.0
  0
LINE
  8
SIZE
  6
CONTINUOUS
 62
    30
 10
-219.0996510626361
 20
-120.3966066973271
 30
0.0
 11
-229.61643431364271
 21
-126.1756438187988
 31
0.0
  0
TEXT
  8
SIZE
  6
CONTINUOUS
 62
    30
 10
278.86633860427128
 20
181.7646020744975
 30
0.0
 40
64.0
  1
φ476
 50
28.789065400563572
 41
0.9
 51
0.0
  7
STANDARD
 71
     0
 72
     1
 11
380.07986061195862
 21
237.38205533154076
 31
0.0
210
0.0
220
0.0
230
1.0
  0
LINE
  8
SIZE
  6
CONTINUOUS
 62
    30
 10
-208.58286781162951
 20
-114.6175695758554
 30
0.0
 11
208.58286781163301
 21
114.6175695758543
 31
0.0
  0
CIRCLE
  8
SIZE
  6
CONTINUOUS
 62
    30
 10
-208.58286781162951
 20
-114.6175695758554
 30
0.0
 40
6.0
  0
LINE
  8
SIZE
  6
CONTINUOUS
 62
    30
 10
-208.58286781162951
 20
-114.6175695758554
 30
0.0
 11
-219.0996510626361
 21
-120.39660669732706
 31
0.0
  0
CIRCLE
  8
SIZE
  6
CONTINUOUS
 62
    30
 10
208.58286781163301
 20
114.6175695758543
 30
0.0
 40
6.0
  0
LINE
  8
SIZE
  6
CONTINUOUS
 62
    30
 10
208.58286781163301
 20
114.6175695758543
 30
0.0
 11
219.09965106263959
 21
120.39660669732596
 31
0.0
  0
POINT
  8
DEFPOINTS
  6
CONTINUOUS
 62
    30
 10
208.58286781163301
 20
114.6175695758543
 30
0.0
  0
POINT
  8
DEFPOINTS
  6
CONTINUOUS
 62
    30
 10
-208.58286781162951
 20
-114.6175695758554
 30
0.0
  0
LINE
  8
DETAIL
  6
CONTINUOUS
 62
     5
 10
240.6066017180087
 20
229.99999999999949
 30
0.0
 11
230.00000000000139
 21
240.60660171799961
 31
0.0
  0
LINE
  8
DETAIL
  6
CONTINUOUS
 62
     5
 10
228.40900974200801
 20
220.9843885399996
 30
0.0
 11
220.98438853999821
 21
228.40900974349961
 31
0.0
  0
LINE
  8
DETAIL
  6
CONTINUOUS
 62
     5
 10
230.00000000000139
 20
-240.60660171650079
 30
0.0
 11
240.6066017180087
 21
-230.00000000000051
 31
0.0
  0
LINE
  8
DETAIL
  6
CONTINUOUS
 62
     5
 10
220.98438853999821
 20
-228.40900974200079
 30
0.0
 11
228.40900974200801
 21
-220.98438854000051
 31
0.0
  0
LINE
  8
BASIS
  6
DASHDOT
 62
     6
 10
230.00000000000139
 20
261.81119100499973
 30
0.0
 11
230.00000000000139
 21
198.1888089964996
 31
0.0
  0
LINE
  8
BASIS
  6
DASHDOT
 62
     6
 10
230.00000000000139
 20
-202.98363383750029
 30
0.0
 11
230.00000000000139
 21
-257.01636616100041
 31
0.0
  0
LINE
  8
BASIS
  6
DASHDOT
 62
     6
 10
202.9836338375076
 20
-230.00000000000051
 30
0.0
 11
257.01636616100541
 21
-230.00000000000051
 31
0.0
  0
LINE
  8
DETAIL
  6
CONTINUOUS
 62
     5
 10
240.6066017180087
 20
-230.00000000000051
 30
0.0
 11
226.8180194840038
 21
-216.21141776600049
 31
0.0
  0
LINE
  8
DETAIL
  6
CONTINUOUS
 62
     5
 10
228.40900974200801
 20
-220.98438854000051
 30
0.0
 11
225.22702922600499
 21
-217.8024080240007
 31
0.0
  0
LINE
  8
DETAIL
  6
CONTINUOUS
 62
     5
 10
226.8180194840038
 20
216.2114177674994
 30
0.0
 11
240.6066017180087
 21
229.99999999999949
 31
0.0
  0
LINE
  8
DETAIL
  6
CONTINUOUS
 62
     5
 10
228.40900974200801
 20
220.9843885399996
 30
0.0
 11
225.22702922600499
 21
217.80240802549949
 31
0.0
  0
LINE
  8
DETAIL
  6
CONTINUOUS
 62
     5
 10
220.98438853999821
 20
-228.40900974200079
 30
0.0
 11
217.8024080240007
 21
-225.2270292260005
 31
0.0
  0
LINE
  8
DETAIL
  6
CONTINUOUS
 62
     5
 10
216.21141776600729
 20
-226.81801948400019
 30
0.0
 11
230.00000000000139
 21
-240.60660171650079
 31
0.0
  0
LINE
  8
DETAIL
  6
CONTINUOUS
 62
     5
 10
220.98438853999821
 20
228.40900974349961
 30
0.0
 11
217.8024080240007
 21
225.22702922749929
 31
0.0
  0
LINE
  8
DETAIL
  6
CONTINUOUS
 62
     5
 10
230.00000000000139
 20
240.60660171799961
 30
0.0
 11
216.21141776600729
 21
226.81801948549949
 31
0.0
  0
LINE
  8
BASIS
  6
DASHDOT
 62
     6
 10
198.1888089950057
 20
229.99999999999949
 30
0.0
 11
261.81119100350719
 21
229.99999999999949
 31
0.0
  0
ARC
  8
DETAIL
  6
CONTINUOUS
 62
     5
 10
217.00691289500671
 20
-226.0225243550008
 30
0.0
 40
1.125
 50
44.999999999986187
 51
224.99999999998619
  0
ARC
  8
DETAIL
  6
CONTINUOUS
 62
     5
 10
226.02252435500441
 20
-217.0069128950004
 30
0.0
 40
1.125
 50
44.999999999986187
 51
224.99999999998619
  0
ARC
  8
DETAIL
  6
CONTINUOUS
 62
     5
 10
226.02252435500441
 20
217.00691289649919
 30
0.0
 40
1.125
 50
135.00000000001381
 51
315.00000000001381
  0
ARC
  8
DETAIL
  6
CONTINUOUS
 62
     5
 10
217.00691289500671
 20
226.02252435649959
 30
0.0
 40
1.125
 50
135.00000000001381
 51
315.00000000001381
  0
CIRCLE
  8
FIX
  6
CONTINUOUS
 62
    11
 10
230.00000000000139
 20
229.99999999999949
 30
0.0
 40
7.5
  0
CIRCLE
  8
FIX
  6
CONTINUOUS
 62
    11
 10
230.00000000000139
 20
-230.00000000000051
 30
0.0
 40
7.5
  0
ARC
  8
DETAIL
  6
CONTINUOUS
 62
     5
 10
95.741383161018348
 20
72.587060652449054
 30
0.0
 40
133.90614012437251
 50
261.6784395489629
 51
312.83324817868652
  0
ARC
  8
DETAIL
  6
CONTINUOUS
 62
     5
 10
190.4424047644284
 20
-31.233865173334831
 30
0.0
 40
7.0211866713253368
 50
353.4497607224543
 51
93.624133793528273
  0
ARC
  8
DETAIL
  6
CONTINUOUS
 62
     5
 10
190.73965130290659
 20
-30.384191859547631
 30
0.0
 40
6.2019060333559901
 50
96.862635465889525
 51
129.67993792229629
  0
LINE
  8
SIZE
  6
CONTINUOUS
 62
    30
 10
504.94208315074349
 20
71.329173047250094
 30
0.0
 11
77.23321289508965
 21
10.91012492603849
 31
0.0
  0
LINE
  8
SIZE
  6
CONTINUOUS
 62
    30
 10
-77.23321289508884
 20
-10.910124926039449
 30
0.0
 11
-89.115245648179538
 21
-12.588605683891609
 31
0.0
  0
TEXT
  8
SIZE
  6
CONTINUOUS
 62
    30
 10
274.91372798979393
 20
64.083092373415852
 30
0.0
 40
64.0
  1
φ132
 50
8.0405203165304329
 41
0.9
 51
0.0
  7
STANDARD
 71
     0
 72
     1
 11
382.99269791190687
 21
79.350553346839092
 31
0.0
210
0.0
220
0.0
230
1.0
  0
LINE
  8
SIZE
  6
CONTINUOUS
 62
    30
 10
-65.351180141998142
 20
-9.2316441681872998
 30
0.0
 11
65.351180141998952
 21
9.2316441681863353
 31
0.0
  0
CIRCLE
  8
SIZE
  6
CONTINUOUS
 62
    30
 10
-65.351180141998142
 20
-9.2316441681872998
 30
0.0
 40
6.0
  0
LINE
  8
SIZE
  6
CONTINUOUS
 62
    30
 10
-65.351180141998142
 20
-9.2316441681872998
 30
0.0
 11
-77.23321289508884
 21
-10.910124926039456
 31
0.0
  0
CIRCLE
  8
SIZE
  6
CONTINUOUS
 62
    30
 10
65.351180141998952
 20
9.2316441681863353
 30
0.0
 40
6.0
  0
LINE
  8
SIZE
  6
CONTINUOUS
 62
    30
 10
65.351180141998952
 20
9.2316441681863353
 30
0.0
 11
77.23321289508965
 21
10.91012492603849
 31
0.0
  0
POINT
  8
DEFPOINTS
  6
CONTINUOUS
 62
    30
 10
65.351180141998952
 20
9.2316441681863353
 30
0.0
  0
POINT
  8
DEFPOINTS
  6
CONTINUOUS
 62
    30
 10
-65.351180141998142
 20
-9.2316441681872998
 30
0.0
  0
TEXT
  8
ETC
  6
CONTINUOUS
 62
    61
 10
577.83514009210558
 20
506.11837006906131
 30
0.0
 40
64.0
  1
EG-40CTXC2_2
 41
0.9
  0
TEXT
  8
ETC
  6
CONTINUOUS
 62
    61
 10
573.64914609210518
 20
388.16306005423007
 30
0.0
 40
64.0
  1
有圧換気扇
 41
0.9
  0
TEXT
  8
ETC
  6
CONTINUOUS
 62
    61
 10
624.35054434066114
 20
280.01428716800478
 30
0.0
 40
40.0
  1
EG-40CTXC2
 50
0.0
 41
0.9
 51
0.0
  7
STANDARD
 71
     0
 11
0.0
 21
0.0
 31
0.0
210
0.0
220
0.0
230
1.0
  0
TEXT
  8
NOTE
  6
CONTINUOUS
 62
     4
 10
-687.8823555900434
 20
-378.19421081441351
 30
0.0
 40
64.0
  1
4-15×15
 50
0.0
 41
0.9
 51
0.0
  7
STANDARD
 71
     0
 72
     2
 11
-301.38635559004342
 21
-378.19421081441351
 31
0.0
210
0.0
220
0.0
230
1.0
  0
LINE
  8
NOTE
  6
CONTINUOUS
 62
     4
 10
-301.29635559004328
 20
-390.99421081441352
 30
0.0
 11
-679.90064130432893
 21
-390.99421081441352
 31
0.0
  0
LINE
  8
NOTE
  6
CONTINUOUS
 62
     4
 10
-246.76666223634732
 20
-256.14376636413016
 30
0.0
 11
-229.99999999999861
 21
-230.00000000000051
 31
0.0
  0
LINE
  8
NOTE
  6
CONTINUOUS
 62
     4
 10
-229.99999999999861
 20
-230.00000000000051
 30
0.0
 11
-231.44842549911201
 21
-261.02449912284726
 31
0.0
  0
LINE
  8
NOTE
  6
CONTINUOUS
 62
     4
 10
-229.99999999999861
 20
-230.00000000000051
 30
0.0
 11
-248.21508773546071
 21
-287.16826548697691
 31
0.0
  0
LINE
  8
NOTE
  6
CONTINUOUS
 62
     4
 10
-248.2150877354608
 20
-287.16826548697679
 30
0.0
 11
-281.29635559004328
 21
-390.99421081441352
 31
0.0
  0
LINE
  8
NOTE
  6
CONTINUOUS
 62
     4
 10
-281.29635559004328
 20
-390.99421081441352
 30
0.0
 11
-301.29635559004328
 21
-390.99421081441352
 31
0.0
  0
TEXT
  8
NOTE
  6
CONTINUOUS
 62
     4
 10
326.05238468263587
 20
-406.22874979004843
 30
0.0
 40
64.0
  1
EL
 50
0.0
 41
0.9
 51
0.0
  7
STANDARD
 71
     0
 11
0.0
 21
0.0
 31
0.0
210
0.0
220
0.0
230
1.0
  0
LINE
  8
NOTE
  6
CONTINUOUS
 62
     4
 10
325.96238468263567
 20
-419.02874979004832
 30
0.0
 11
411.08095611120717
 21
-419.02874979004832
 31
0.0
  0
LINE
  8
NOTE
  6
CONTINUOUS
 62
     4
 10
179.08927295358384
 20
-302.2043389322522
 30
0.0
 11
163.70602162798201
 21
-275.22336302508069
 31
0.0
  0
LINE
  8
NOTE
  6
CONTINUOUS
 62
     4
 10
163.70602162798201
 20
-275.22336302508069
 30
0.0
 11
190.51881964302666
 21
-290.89790751142596
 31
0.0
  0
LINE
  8
NOTE
  6
CONTINUOUS
 62
     4
 10
163.70602162798201
 20
-275.22336302508069
 30
0.0
 11
205.90207096862849
 21
-317.87888341859747
 31
0.0
  0
LINE
  8
NOTE
  6
CONTINUOUS
 62
     4
 10
205.90207096862841
 20
-317.87888341859758
 30
0.0
 11
305.96238468263567
 21
-419.02874979004832
 31
0.0
  0
LINE
  8
NOTE
  6
CONTINUOUS
 62
     4
 10
305.96238468263567
 20
-419.02874979004832
 30
0.0
 11
325.96238468263567
 21
-419.02874979004832
 31
0.0
  0
ENDSEC
  0
EOF
