  0
SECTION
  2
HEADER
  9
$ACADVER
  1
AC1009
  9
$DWGCODEPAGE
  3
dos932
  9
$INSBASE
 10
0.0
 20
0.0
 30
0.0
  9
$EXTMIN
 10
-542.46366742586724
 20
-530.6396368316382
 30
-0.0015258207003583
  9
$EXTMAX
 10
1090.365612227894
 20
357.28455364853647
 30
0.0000000349246037
  9
$LIMMIN
 10
-2970.0
 20
-2100.0
  9
$LIMMAX
 10
2970.0
 20
2100.0
  9
$ORTHOMODE
 70
     1
  9
$REGENMODE
 70
     1
  9
$FILLMODE
 70
     1
  9
$QTEXTMODE
 70
     0
  9
$MIRRTEXT
 70
     0
  9
$LTSCALE
 40
20.0
  9
$ATTMODE
 70
     1
  9
$TEXTSIZE
 40
64.0
  9
$TRACEWID
 40
0.05
  9
$TEXTSTYLE
  7
STANDARD
  9
$CLAYER
  8
SIZE
  9
$CELTYPE
  6
CONTINUOUS
  9
$CECOLOR
 62
     7
  9
$DIMSCALE
 40
1.0
  9
$DIMASZ
 40
12.0
  9
$DIMEXO
 40
20.0
  9
$DIMDLI
 40
200.0
  9
$DIMRND
 40
0.0
  9
$DIMDLE
 40
0.0
  9
$DIMEXE
 40
20.0
  9
$DIMTP
 40
0.0
  9
$DIMTM
 40
0.0
  9
$DIMTXT
 40
64.0
  9
$DIMCEN
 40
0.09
  9
$DIMTSZ
 40
0.0
  9
$DIMTOL
 70
     0
  9
$DIMLIM
 70
     0
  9
$DIMTIH
 70
     0
  9
$DIMTOH
 70
     0
  9
$DIMSE1
 70
     0
  9
$DIMSE2
 70
     0
  9
$DIMTAD
 70
     1
  9
$DIMZIN
 70
     8
  9
$DIMBLK
  1

  9
$DIMASO
 70
     1
  9
$DIMSHO
 70
     0
  9
$DIMPOST
  1

  9
$DIMAPOST
  1

  9
$DIMALT
 70
     0
  9
$DIMALTD
 70
     2
  9
$DIMALTF
 40
25.399999999999999
  9
$DIMLFAC
 40
1.0
  9
$DIMTOFL
 70
     1
  9
$DIMTVP
 40
0.0
  9
$DIMTIX
 70
     1
  9
$DIMSOXD
 70
     0
  9
$DIMSAH
 70
     0
  9
$DIMBLK1
  1

  9
$DIMBLK2
  1

  9
$DIMSTYLE
  2
STANDARD
  9
$DIMCLRD
 70
     7
  9
$DIMCLRE
 70
     7
  9
$DIMCLRT
 70
     7
  9
$DIMTFAC
 40
1.0
  9
$DIMGAP
 40
25.0
  9
$LUNITS
 70
     2
  9
$LUPREC
 70
     4
  9
$SKETCHINC
 40
0.1
  9
$FILLETRAD
 40
3.0
  9
$AUNITS
 70
     1
  9
$AUPREC
 70
     3
  9
$MENU
  1
ACAD
  9
$ELEVATION
 40
0.0
  9
$PELEVATION
 40
0.0
  9
$THICKNESS
 40
0.0
  9
$LIMCHECK
 70
     0
  9
$CHAMFERA
 40
0.0
  9
$CHAMFERB
 40
0.0
  9
$SKPOLY
 70
     0
  9
$TDCREATE
 40
2453019.62301037
  9
$TDUPDATE
 40
2459362.658508357
  9
$TDINDWG
 40
1.7163817245
  9
$TDUSRTIMER
 40
1.7163817245
  9
$USRTIMER
 70
     1
  9
$ANGBASE
 50
0.0
  9
$ANGDIR
 70
     0
  9
$PDMODE
 70
     3
  9
$PDSIZE
 40
-2.0
  9
$PLINEWID
 40
0.0
  9
$SPLFRAME
 70
     0
  9
$SPLINETYPE
 70
     6
  9
$SPLINESEGS
 70
     8
  9
$SURFTAB1
 70
     6
  9
$SURFTAB2
 70
     6
  9
$SURFTYPE
 70
     6
  9
$SURFU
 70
     6
  9
$SURFV
 70
     6
  9
$UCSNAME
  2

  9
$UCSORG
 10
0.0
 20
0.0
 30
0.0
  9
$UCSXDIR
 10
1.0
 20
0.0
 30
0.0
  9
$UCSYDIR
 10
0.0
 20
1.0
 30
0.0
  9
$PUCSNAME
  2

  9
$PUCSORG
 10
0.0
 20
0.0
 30
0.0
  9
$PUCSXDIR
 10
1.0
 20
0.0
 30
0.0
  9
$PUCSYDIR
 10
0.0
 20
1.0
 30
0.0
  9
$USERI1
 70
     0
  9
$USERI2
 70
     0
  9
$USERI3
 70
     0
  9
$USERI4
 70
     0
  9
$USERI5
 70
     0
  9
$USERR1
 40
20.0
  9
$USERR2
 40
0.0
  9
$USERR3
 40
0.0
  9
$USERR4
 40
0.0
  9
$USERR5
 40
0.0
  9
$WORLDVIEW
 70
     1
  9
$SHADEDGE
 70
     3
  9
$SHADEDIF
 70
    70
  9
$TILEMODE
 70
     1
  9
$MAXACTVP
 70
    48
  9
$PINSBASE
 10
0.0
 20
0.0
 30
0.0
  9
$PLIMCHECK
 70
     0
  9
$PEXTMIN
 10
-100000000000000000000.0
 20
-100000000000000000000.0
 30
-100000000000000000000.0
  9
$PEXTMAX
 10
100000000000000000000.0
 20
100000000000000000000.0
 30
100000000000000000000.0
  9
$PLIMMIN
 10
0.0
 20
0.0
  9
$PLIMMAX
 10
12.0
 20
9.0
  9
$UNITMODE
 70
     0
  9
$VISRETAIN
 70
     0
  9
$PLINEGEN
 70
     0
  9
$PSLTSCALE
 70
     0
  9
$TREEDEPTH
 70
  3020
  9
$ATTDIA
 70
     0
  9
$ATTREQ
 70
     1
  9
$BLIPMODE
 70
     1
  9
$COORDS
 70
     1
  9
$DRAGMODE
 70
     2
  9
$OSMODE
 70
     0
  9
$HANDLING
 70
     0
  9
$HANDSEED
  5
101E6
  0
ENDSEC
  0
SECTION
  2
TABLES
  0
TABLE
  2
LTYPE
 70
     2
  0
LTYPE
  2
CONTINUOUS
 70
     0
  3
実線
 72
    65
 73
     0
 40
0.0
  0
LTYPE
  2
DASHDOT
 70
     0
  3
____ _ ____ _ ____ _ ____ _ ____ _ ____ _ ____
 72
    65
 73
     4
 40
5.5
 49
4.0
 49
-0.6
 49
0.3
 49
-0.6
  0
ENDTAB
  0
TABLE
  2
LAYER
 70
    12
  0
LAYER
  2
0
 70
     0
 62
     7
  6
CONTINUOUS
  0
LAYER
  2
BASIS
 70
     0
 62
     6
  6
DASHDOT
  0
LAYER
  2
OUTLINE
 70
     0
 62
     3
  6
CONTINUOUS
  0
LAYER
  2
DETAIL
 70
     0
 62
     5
  6
CONTINUOUS
  0
LAYER
  2
SIZE
 70
     0
 62
    30
  6
CONTINUOUS
  0
LAYER
  2
ARRANGE
 70
     0
 62
     1
  6
CONTINUOUS
  0
LAYER
  2
DEFPOINTS
 70
     0
 62
     7
  6
CONTINUOUS
  0
LAYER
  2
ETC
 70
     0
 62
    61
  6
CONTINUOUS
  0
LAYER
  2
FIX
 70
     0
 62
    11
  6
CONTINUOUS
  0
LAYER
  2
NOTE
 70
     0
 62
     4
  6
CONTINUOUS
  0
LAYER
  2
SERVICESPACE
 70
    64
 62
     2
  6
DASHDOT
  0
LAYER
  2
SYMBOLLINE
 70
    64
 62
    15
  6
CONTINUOUS
  0
ENDTAB
  0
TABLE
  2
STYLE
 70
     1
  0
STYLE
  2
STANDARD
 70
     0
 40
64.0
 41
0.9
 50
0.0
 71
     0
 42
64.0
  3
SIMPLEX.shx
  4
BIGFONT.shx
  0
ENDTAB
  0
TABLE
  2
APPID
 70
    20
  0
APPID
  2
ACAD
 70
     0
  0
APPID
  2
AUTOCAD_POSTSCRIPT_FIGURE
 70
     0
  0
APPID
  2
ACAD_EXEMPT_FROM_CAD_STANDARDS
 70
     0
  0
APPID
  2
ACAD_PSEXT
 70
     0
  0
APPID
  2
ACAUTHENVIRON
 70
     0
  0
APPID
  2
GENIUS_GENOENT_13
 70
     0
  0
APPID
  2
GENIUS_GENCFG_13
 70
     0
  0
APPID
  2
GENIUS_GENCFG0_13
 70
     0
  0
APPID
  2
GENIUS_GENCFG1_13
 70
     0
  0
APPID
  2
GENIUS_GENCFG2_13
 70
     0
  0
APPID
  2
GENIUS_GENCFG3_13
 70
     0
  0
APPID
  2
GENIUS_GENCFG4_13
 70
     0
  0
APPID
  2
GENIUS_GEVCFG0_13
 70
     0
  0
APPID
  2
CONTENTBLOCKICON
 70
     0
  0
APPID
  2
CONTENTBLOCKDESCRIPTION
 70
     0
  0
APPID
  2
ACAD_NAV_VCDISPLAY
 70
     0
  0
APPID
  2
ACAD_MLEADERVER
 70
     0
  0
APPID
  2
ACDBDYNAMICBLOCKTRUENAME
 70
     0
  0
APPID
  2
ACDBDYNAMICBLOCKGUID
 70
     0
  0
APPID
  2
ACAD_DSTYLE_DIMRADIAL_EXTENSION
 70
     0
  0
ENDTAB
  0
TABLE
  2
DIMSTYLE
 70
     1
  0
DIMSTYLE
  2
STANDARD
 70
     0
  3

  4

  5
_ORIGIN
  6

  7

 40
1.0
 41
12.0
 42
20.0
 43
200.0
 44
20.0
 45
0.0
 46
0.0
 47
0.0
 48
0.0
140
64.0
141
0.09
142
0.0
143
25.399999999999999
144
1.0
145
0.0
146
1.0
147
25.0
 71
     0
 72
     0
 73
     0
 74
     0
 75
     0
 76
     0
 77
     1
 78
     8
170
     0
171
     2
172
     1
173
     0
174
     1
175
     0
176
     7
177
     7
178
     7
  0
ENDTAB
  0
TABLE
  2
VIEW
 70
     1
  0
VIEW
  2
ALL
 70
     0
 40
4282.6198079999986
 10
0.0
 20
41.309904000000003
 41
5940.0
 11
0.0
 21
0.0
 31
1.0
 12
0.0
 22
0.0
 32
0.0
 42
50.0
 43
0.0
 44
0.0
 50
0.0
 71
     0
  0
ENDTAB
  0
TABLE
  2
UCS
 70
     0
  0
ENDTAB
  0
TABLE
  2
VPORT
 70
     1
  0
VPORT
  2
*ACTIVE
 70
     0
 10
0.0
 20
0.0
 11
1.0
 21
1.0
 12
273.95097240101308
 22
-86.677541591550835
 13
0.0
 23
0.0
 14
1.0
 24
1.0
 15
0.0
 25
0.0
 16
0.0
 26
0.0
 36
1.0
 17
0.0
 27
0.0
 37
0.0
 40
927.39654074797966
 41
1.767337807606264
 42
50.0
 43
0.0
 44
0.0
 50
0.0
 51
0.0
 71
     0
 72
  1000
 73
     1
 74
     3
 75
     0
 76
     0
 77
     0
 78
     0
  0
ENDTAB
  0
ENDSEC
  0
SECTION
  2
BLOCKS
  0
BLOCK
  8
0
  2
_ORIGIN
 70
     0
 10
0.0
 20
0.0
 30
0.0
  3
_ORIGIN
  1
_ORIGIN
  0
CIRCLE
  8
SIZE
  6
CONTINUOUS
 62
    30
 10
0.0
 20
0.0
 30
0.0
 40
0.5
  0
LINE
  8
SIZE
  6
CONTINUOUS
 62
    30
 10
0.0
 20
0.0
 30
0.0
 11
-1.0
 21
0.0
 31
0.0
  0
ENDBLK
  8
0
  0
ENDSEC
  0
SECTION
  2
ENTITIES
  0
LINE
  8
DETAIL
  6
CONTINUOUS
 62
     5
 10
260.0
 20
-5.0
 30
0.0
 11
260.0
 21
0.0
 31
0.0
  0
LINE
  8
DETAIL
  6
CONTINUOUS
 62
     5
 10
212.7532244233989
 20
-10.00000000000364
 30
0.0
 11
212.7532244233989
 21
-13.00000000000364
 31
0.0
  0
LINE
  8
DETAIL
  6
CONTINUOUS
 62
     5
 10
202.9762889453996
 20
-16.800000000006548
 30
0.0
 11
202.9762889453996
 21
-13.200000000004369
 31
0.0
  0
LINE
  8
DETAIL
  6
CONTINUOUS
 62
     5
 10
198.79690351239969
 20
-15.50000000000364
 30
0.0
 11
198.79690351239969
 21
-10.00000000000364
 31
0.0
  0
LINE
  8
DETAIL
  6
CONTINUOUS
 62
     5
 10
197.9762889453996
 20
-17.00000000000728
 30
0.0
 11
197.9762889453996
 21
-15.50000000000364
 31
0.0
  0
LINE
  8
DETAIL
  6
CONTINUOUS
 62
     5
 10
192.29690351239969
 20
-10.00000000000364
 30
0.0
 11
192.29690351239969
 21
-15.50000000000364
 31
0.0
  0
LINE
  8
DETAIL
  6
CONTINUOUS
 62
     5
 10
185.79690351239969
 20
-10.00000000000364
 30
0.0
 11
185.79690351239969
 21
-15.50000000000364
 31
0.0
  0
LINE
  8
DETAIL
  6
CONTINUOUS
 62
     5
 10
179.1106479043992
 20
-16.800000000006548
 30
0.0
 11
179.1106479043992
 21
-13.200000000004369
 31
0.0
  0
LINE
  8
DETAIL
  6
CONTINUOUS
 62
     5
 10
175.4624817303993
 20
-17.00000000000728
 30
0.0
 11
173.57010359775541
 21
-149.64672864535621
 31
0.0
  0
LINE
  8
DETAIL
  6
CONTINUOUS
 62
     5
 10
174.1106479043992
 20
-17.00000000000728
 30
0.0
 11
174.1106479043992
 21
-13.00000000000364
 31
0.0
  0
LINE
  8
DETAIL
  6
CONTINUOUS
 62
     5
 10
169.1106479043992
 20
-16.800000000006548
 30
0.0
 11
169.1106479043992
 21
-13.200000000004369
 31
0.0
  0
LINE
  8
DETAIL
  6
CONTINUOUS
 62
     5
 10
159.3337124263999
 20
-10.00000000000364
 30
0.0
 11
159.3337124263999
 21
-13.00000000000364
 31
0.0
  0
LINE
  8
DETAIL
  6
CONTINUOUS
 62
     5
 10
-60.392378132644808
 20
-253.62802295434989
 30
0.0
 11
56.607621867355192
 21
-253.62802295434989
 31
0.0
  0
LINE
  8
DETAIL
  6
CONTINUOUS
 62
     5
 10
58.549709600355527
 20
-217.52802295435501
 30
0.0
 11
144.93880952175459
 21
-217.5280229543587
 31
0.0
  0
LINE
  8
DETAIL
  6
CONTINUOUS
 62
     5
 10
-62.334465866644678
 20
-217.52802295435501
 30
0.0
 11
-148.6410663050392
 21
-217.52802295435961
 31
0.0
  0
LINE
  8
DETAIL
  6
CONTINUOUS
 62
     5
 10
-86.260237451644571
 20
-207.91477430035411
 30
0.0
 11
-82.430015236644977
 21
-210.80152564635321
 31
0.0
  0
LINE
  8
DETAIL
  6
CONTINUOUS
 62
     5
 10
-74.684521781644435
 20
-207.91477430035411
 30
0.0
 11
-70.854299565644396
 21
-210.80152564635321
 31
0.0
  0
LINE
  8
DETAIL
  6
CONTINUOUS
 62
     5
 10
78.562759487354924
 20
-210.80152564635321
 30
0.0
 11
82.392981703354963
 21
-207.91477430035411
 31
0.0
  0
LINE
  8
DETAIL
  6
CONTINUOUS
 62
     5
 10
67.072092841355698
 20
-210.80152564635321
 30
0.0
 11
70.902315056355292
 21
-207.91477430035411
 31
0.0
  0
LINE
  8
DETAIL
  6
CONTINUOUS
 62
     5
 10
-82.430015236644977
 20
-210.80152564635321
 30
0.0
 11
-79.503134555644465
 21
-210.80152564635321
 31
0.0
  0
LINE
  8
DETAIL
  6
CONTINUOUS
 62
     5
 10
-70.854299565644396
 20
-210.80152564635321
 30
0.0
 11
-67.927418885645238
 21
-210.80152564635321
 31
0.0
  0
LINE
  8
DETAIL
  6
CONTINUOUS
 62
     5
 10
78.562759487354924
 20
-210.80152564635321
 30
0.0
 11
75.635878807355766
 21
-210.80152564635321
 31
0.0
  0
LINE
  8
DETAIL
  6
CONTINUOUS
 62
     5
 10
67.072092841355698
 20
-210.80152564635321
 30
0.0
 11
64.145212160355186
 21
-210.80152564635321
 31
0.0
  0
LINE
  8
DETAIL
  6
CONTINUOUS
 62
     5
 10
-82.430015236644977
 20
-199.25452026235331
 30
0.0
 11
-79.503134555644465
 21
-199.25452026235331
 31
0.0
  0
LINE
  8
DETAIL
  6
CONTINUOUS
 62
     5
 10
-70.854299565644396
 20
-199.2545202633537
 30
0.0
 11
-67.927418885645238
 21
-199.2545202633537
 31
0.0
  0
LINE
  8
DETAIL
  6
CONTINUOUS
 62
     5
 10
78.562759487354924
 20
-199.25452026235331
 30
0.0
 11
75.635878807355766
 21
-199.25452026235331
 31
0.0
  0
LINE
  8
DETAIL
  6
CONTINUOUS
 62
     5
 10
67.072092841355698
 20
-199.25452026235331
 30
0.0
 11
64.145212160355186
 21
-199.25452026235331
 31
0.0
  0
LINE
  8
DETAIL
  6
CONTINUOUS
 62
     5
 10
56.689303228355129
 20
-193.0280229543514
 30
0.0
 11
47.089303228354773
 21
-193.0280229543514
 31
0.0
  0
LINE
  8
DETAIL
  6
CONTINUOUS
 62
     5
 10
-50.874059494644833
 20
-193.0280229543514
 30
0.0
 11
-60.474059494645189
 21
-193.0280229543514
 31
0.0
  0
LINE
  8
DETAIL
  6
CONTINUOUS
 62
     5
 10
59.409098869355148
 20
-192.52802295435501
 30
0.0
 11
142.9279472097551
 21
-192.5280229543587
 31
0.0
  0
LINE
  8
DETAIL
  6
CONTINUOUS
 62
     5
 10
-63.193855134644757
 20
-192.52802295435501
 30
0.0
 11
-146.71270347603971
 21
-192.52802295435961
 31
0.0
  0
LINE
  8
DETAIL
  6
CONTINUOUS
 62
     5
 10
83.432902281355382
 20
-189.02802295435501
 30
0.0
 11
-87.217658546644088
 21
-189.02802295435501
 31
0.0
  0
LINE
  8
DETAIL
  6
CONTINUOUS
 62
     5
 10
83.432902281355382
 20
-186.0280229543514
 30
0.0
 11
-87.217658546644088
 21
-186.0280229543514
 31
0.0
  0
LINE
  8
DETAIL
  6
CONTINUOUS
 62
     5
 10
87.289627939355341
 20
-192.52802295435501
 30
0.0
 11
87.289627939355341
 21
-192.0280229543514
 31
0.0
  0
LINE
  8
DETAIL
  6
CONTINUOUS
 62
     5
 10
85.361265110355816
 20
-192.52802295435501
 30
0.0
 11
85.361265110355816
 21
-192.0280229543514
 31
0.0
  0
LINE
  8
DETAIL
  6
CONTINUOUS
 62
     5
 10
82.392981703354963
 20
-207.91477430035411
 30
0.0
 11
82.392981703354963
 21
-202.1412716083523
 31
0.0
  0
LINE
  8
DETAIL
  6
CONTINUOUS
 62
     5
 10
78.107621867355192
 20
-186.0280229543514
 30
0.0
 11
78.107621867355192
 21
-182.0280229543514
 31
0.0
  0
LINE
  8
DETAIL
  6
CONTINUOUS
 62
     5
 10
76.657621867355374
 20
-182.0280229543514
 30
0.0
 11
76.657621867355374
 21
-178.82802295435431
 31
0.0
  0
LINE
  8
DETAIL
  6
CONTINUOUS
 62
     5
 10
78.107499715355516
 20
-182.0280229543514
 30
0.0
 11
-81.892255980645132
 21
-182.0280229543514
 31
0.0
  0
LINE
  8
DETAIL
  6
CONTINUOUS
 62
     5
 10
-80.44237813264499
 20
-178.82802295435431
 30
0.0
 11
-72.342378132644626
 21
-178.82802295435431
 31
0.0
  0
LINE
  8
DETAIL
  6
CONTINUOUS
 62
     5
 10
68.55762186735592
 20
-178.82802295435431
 30
0.0
 11
76.657621867355374
 21
-178.82802295435431
 31
0.0
  0
LINE
  8
DETAIL
  6
CONTINUOUS
 62
     5
 10
-60.674059494645007
 20
-177.0280229543514
 30
0.0
 11
-50.674059494645007
 21
-177.0280229543514
 31
0.0
  0
LINE
  8
DETAIL
  6
CONTINUOUS
 62
     5
 10
46.889303228355857
 20
-177.0280229543514
 30
0.0
 11
56.889303228355857
 21
-177.0280229543514
 31
0.0
  0
LINE
  8
DETAIL
  6
CONTINUOUS
 62
     5
 10
-77.88707626964424
 20
-176.0280229543514
 30
0.0
 11
-74.897679996644911
 21
-176.0280229543514
 31
0.0
  0
LINE
  8
DETAIL
  6
CONTINUOUS
 62
     5
 10
71.11292373035576
 20
-176.0280229543514
 30
0.0
 11
74.102320003355089
 21
-176.0280229543514
 31
0.0
  0
LINE
  8
DETAIL
  6
CONTINUOUS
 62
     5
 10
-58.674059494644098
 20
-175.02802295435501
 30
0.0
 11
-52.674059494644098
 21
-175.02802295435501
 31
0.0
  0
LINE
  8
DETAIL
  6
CONTINUOUS
 62
     5
 10
48.889303228355857
 20
-175.02802295435501
 30
0.0
 11
54.889303228355857
 21
-175.02802295435501
 31
0.0
  0
LINE
  8
DETAIL
  6
CONTINUOUS
 62
     5
 10
-199.71995752939799
 20
-14.91944341547878
 30
0.0
 11
-198.71440402939879
 21
-15.499999999477041
 31
0.0
  0
LINE
  8
DETAIL
  6
CONTINUOUS
 62
     5
 10
74.630059165355306
 20
-182.0280229543514
 30
0.0
 11
74.630059165355306
 21
-178.82802295435431
 31
0.0
  0
LINE
  8
DETAIL
  6
CONTINUOUS
 62
     5
 10
74.107621867355192
 20
-178.82802295435431
 30
0.0
 11
74.107621867355192
 21
-176.0280229543514
 31
0.0
  0
LINE
  8
DETAIL
  6
CONTINUOUS
 62
     5
 10
71.107621867355192
 20
-178.82802295435431
 30
0.0
 11
71.107621867355192
 21
-176.0280229543514
 31
0.0
  0
LINE
  8
DETAIL
  6
CONTINUOUS
 62
     5
 10
70.902315056355292
 20
-207.91477430035411
 30
0.0
 11
70.902315056355292
 21
-202.1412716083523
 31
0.0
  0
LINE
  8
DETAIL
  6
CONTINUOUS
 62
     5
 10
70.585184568355544
 20
-182.0280229543514
 30
0.0
 11
70.585184568355544
 21
-178.82802295435431
 31
0.0
  0
LINE
  8
DETAIL
  6
CONTINUOUS
 62
     5
 10
68.55762186735592
 20
-182.0280229543514
 30
0.0
 11
68.55762186735592
 21
-178.82802295435431
 31
0.0
  0
LINE
  8
DETAIL
  6
CONTINUOUS
 62
     5
 10
64.107621867355192
 20
-246.12802295434989
 30
0.0
 11
64.107621867355192
 21
-217.52802295435501
 31
0.0
  0
LINE
  8
DETAIL
  6
CONTINUOUS
 62
     5
 10
63.80762186735592
 20
-177.52802295435501
 30
0.0
 11
63.80762186735501
 21
-123.1472229543497
 31
0.0
  0
LINE
  8
DETAIL
  6
CONTINUOUS
 62
     5
 10
57.028466056355683
 20
-214.5280229543514
 30
0.0
 11
57.028466056355683
 21
-195.5280229543514
 31
0.0
  0
LINE
  8
DETAIL
  6
CONTINUOUS
 62
     5
 10
56.889303228355857
 20
-192.8280229543507
 30
0.0
 11
56.889303228355857
 21
-189.2280229543521
 31
0.0
  0
LINE
  8
DETAIL
  6
CONTINUOUS
 62
     5
 10
56.889303228355857
 20
-182.0280229543514
 30
0.0
 11
56.889303228355857
 21
-177.0280229543514
 31
0.0
  0
LINE
  8
DETAIL
  6
CONTINUOUS
 62
     5
 10
56.251576271355589
 20
-193.0280229543514
 30
0.0
 11
56.251576271355589
 21
-214.5280229543514
 31
0.0
  0
LINE
  8
DETAIL
  6
CONTINUOUS
 62
     5
 10
54.889303228355857
 20
-177.0280229543514
 30
0.0
 11
54.889303228355857
 21
-175.02802295435501
 31
0.0
  0
LINE
  8
DETAIL
  6
CONTINUOUS
 62
     5
 10
51.889303228355857
 20
-193.0280229543514
 30
0.0
 11
51.889303228355857
 21
-189.02802295435501
 31
0.0
  0
LINE
  8
DETAIL
  6
CONTINUOUS
 62
     5
 10
51.889303228355857
 20
-182.0280229543514
 30
0.0
 11
51.889303228355857
 21
-177.02802295435501
 31
0.0
  0
LINE
  8
DETAIL
  6
CONTINUOUS
 62
     5
 10
48.889303228355857
 20
-177.0280229543514
 30
0.0
 11
48.889303228355857
 21
-175.02802295435501
 31
0.0
  0
LINE
  8
DETAIL
  6
CONTINUOUS
 62
     5
 10
46.889303228355857
 20
-192.8280229543507
 30
0.0
 11
46.889303228355857
 21
-189.2280229543521
 31
0.0
  0
LINE
  8
DETAIL
  6
CONTINUOUS
 62
     5
 10
46.889303228355857
 20
-182.0280229543514
 30
0.0
 11
46.889303228355857
 21
-177.0280229543514
 31
0.0
  0
LINE
  8
DETAIL
  6
CONTINUOUS
 62
     5
 10
70.902315056355292
 20
-202.1412716083523
 30
0.0
 11
67.072092841355698
 21
-199.25452026235331
 31
0.0
  0
LINE
  8
DETAIL
  6
CONTINUOUS
 62
     5
 10
82.392981703354963
 20
-202.1412716083523
 30
0.0
 11
78.562759487354924
 21
-199.25452026235331
 31
0.0
  0
LINE
  8
DETAIL
  6
CONTINUOUS
 62
     5
 10
-70.854299565644396
 20
-199.2545202633537
 30
0.0
 11
-74.684521781644435
 21
-202.1412716083523
 31
0.0
  0
LINE
  8
DETAIL
  6
CONTINUOUS
 62
     5
 10
-82.430015236644977
 20
-199.25452026235331
 30
0.0
 11
-86.260237451644571
 21
-202.1412716083523
 31
0.0
  0
LINE
  8
DETAIL
  6
CONTINUOUS
 62
     5
 10
-57.092378132644633
 20
-112.6472229543533
 30
0.0
 11
53.30762186735501
 21
-112.6472229543533
 31
0.0
  0
LINE
  8
BASIS
  6
DASHDOT
 62
     6
 10
-1.8923781326448079
 20
-269.45336644935202
 30
0.0
 11
0.0
 21
15.97904075300085
 31
0.0
  0
LINE
  8
DETAIL
  6
CONTINUOUS
 62
     5
 10
-50.674059494645007
 20
-192.8280229543507
 30
0.0
 11
-50.674059494645007
 21
-189.2280229543521
 31
0.0
  0
LINE
  8
DETAIL
  6
CONTINUOUS
 62
     5
 10
-50.674059494645007
 20
-182.0280229543514
 30
0.0
 11
-50.674059494645007
 21
-177.0280229543514
 31
0.0
  0
LINE
  8
DETAIL
  6
CONTINUOUS
 62
     5
 10
202.77628894539981
 20
-17.00000000000728
 30
0.0
 11
196.54195563740001
 21
-17.00000000000728
 31
0.0
  0
LINE
  8
DETAIL
  6
CONTINUOUS
 62
     5
 10
178.91064790439941
 20
-17.00000000000728
 30
0.0
 11
169.31064790440001
 21
-17.00000000000728
 31
0.0
  0
LINE
  8
DETAIL
  6
CONTINUOUS
 62
     5
 10
-196.5419556373981
 20
-16.999999999480679
 30
0.0
 11
-202.69378946339839
 21
-16.999999999480679
 31
0.0
  0
LINE
  8
DETAIL
  6
CONTINUOUS
 62
     5
 10
198.79690351239969
 20
-15.50000000000364
 30
0.0
 11
185.79690351239969
 21
-15.50000000000364
 31
0.0
  0
LINE
  8
DETAIL
  6
CONTINUOUS
 62
     5
 10
-185.71473591239831
 20
-15.499999999477041
 30
0.0
 11
-198.7140721473979
 21
-15.499999999477041
 31
0.0
  0
LINE
  8
DETAIL
  6
CONTINUOUS
 62
     5
 10
212.7532244233989
 20
-13.00000000000364
 30
0.0
 11
198.79690351239969
 21
-13.00000000000364
 31
0.0
  0
LINE
  8
DETAIL
  6
CONTINUOUS
 62
     5
 10
185.79690351239969
 20
-13.00000000000364
 30
0.0
 11
159.3337124263999
 21
-13.00000000000364
 31
0.0
  0
LINE
  8
DETAIL
  6
CONTINUOUS
 62
     5
 10
-199.71995752939799
 20
-12.999999999477041
 30
0.0
 11
-212.6707249413985
 21
-12.999999999477041
 31
0.0
  0
LINE
  8
DETAIL
  6
CONTINUOUS
 62
     5
 10
255.0
 20
-10.0
 30
0.0
 11
-255.0
 21
-10.0
 31
0.0
  0
LINE
  8
DETAIL
  6
CONTINUOUS
 62
     5
 10
-52.674059494644098
 20
-177.0280229543514
 30
0.0
 11
-52.674059494644098
 21
-175.02802295435501
 31
0.0
  0
LINE
  8
DETAIL
  6
CONTINUOUS
 62
     5
 10
-55.674059494645007
 20
-193.0280229543514
 30
0.0
 11
-55.674059494645007
 21
-189.02802295435501
 31
0.0
  0
LINE
  8
DETAIL
  6
CONTINUOUS
 62
     5
 10
-55.674059494645007
 20
-182.0280229543514
 30
0.0
 11
-55.674059494645007
 21
-177.0280229543514
 31
0.0
  0
LINE
  8
DETAIL
  6
CONTINUOUS
 62
     5
 10
-58.674059494644098
 20
-177.0280229543514
 30
0.0
 11
-58.674059494644098
 21
-175.02802295435501
 31
0.0
  0
LINE
  8
DETAIL
  6
CONTINUOUS
 62
     5
 10
-60.036332537644739
 20
-193.0280229543514
 30
0.0
 11
-60.036332537644739
 21
-214.5280229543514
 31
0.0
  0
LINE
  8
DETAIL
  6
CONTINUOUS
 62
     5
 10
-60.674059494645007
 20
-192.8280229543507
 30
0.0
 11
-60.674059494645007
 21
-189.2280229543521
 31
0.0
  0
LINE
  8
DETAIL
  6
CONTINUOUS
 62
     5
 10
-60.674059494645007
 20
-182.0280229543514
 30
0.0
 11
-60.674059494645007
 21
-177.0280229543514
 31
0.0
  0
LINE
  8
DETAIL
  6
CONTINUOUS
 62
     5
 10
-60.895721805644833
 20
-214.5280229543514
 30
0.0
 11
-60.895721805644833
 21
-195.5280229543514
 31
0.0
  0
LINE
  8
DETAIL
  6
CONTINUOUS
 62
     5
 10
-67.892378132644808
 20
-246.12802295434989
 30
0.0
 11
-67.892378132644808
 21
-217.52802295435501
 31
0.0
  0
LINE
  8
DETAIL
  6
CONTINUOUS
 62
     5
 10
-67.592378132644626
 20
-177.52802295435501
 30
0.0
 11
-67.592378132644626
 21
-123.1472229543497
 31
0.0
  0
LINE
  8
DETAIL
  6
CONTINUOUS
 62
     5
 10
260.0
 20
0.0
 30
0.0
 11
-260.0
 21
0.0
 31
0.0
  0
LINE
  8
DETAIL
  6
CONTINUOUS
 62
     5
 10
-72.342378132644626
 20
-182.0280229543514
 30
0.0
 11
-72.342378132644626
 21
-178.82802295435431
 31
0.0
  0
LINE
  8
DETAIL
  6
CONTINUOUS
 62
     5
 10
-74.369940834644694
 20
-182.0280229543514
 30
0.0
 11
-74.369940834644694
 21
-178.82802295435431
 31
0.0
  0
LINE
  8
DETAIL
  6
CONTINUOUS
 62
     5
 10
-74.684521781644435
 20
-202.1412716083523
 30
0.0
 11
-74.684521781644435
 21
-207.91477430035411
 31
0.0
  0
LINE
  8
DETAIL
  6
CONTINUOUS
 62
     5
 10
-74.892378132644808
 20
-178.82802295435431
 30
0.0
 11
-74.892378132644808
 21
-176.0280229543514
 31
0.0
  0
LINE
  8
DETAIL
  6
CONTINUOUS
 62
     5
 10
-77.892378132644808
 20
-178.82802295435431
 30
0.0
 11
-77.892378132644808
 21
-176.0280229543514
 31
0.0
  0
LINE
  8
DETAIL
  6
CONTINUOUS
 62
     5
 10
-78.414815431644456
 20
-182.0280229543514
 30
0.0
 11
-78.414815431644456
 21
-178.82802295435431
 31
0.0
  0
LINE
  8
DETAIL
  6
CONTINUOUS
 62
     5
 10
-80.44237813264499
 20
-182.0280229543514
 30
0.0
 11
-80.44237813264499
 21
-178.82802295435431
 31
0.0
  0
LINE
  8
DETAIL
  6
CONTINUOUS
 62
     5
 10
-81.892378132644808
 20
-186.0280229543514
 30
0.0
 11
-81.892378132644808
 21
-182.0280229543514
 31
0.0
  0
LINE
  8
DETAIL
  6
CONTINUOUS
 62
     5
 10
-86.260237451644571
 20
-202.1412716083523
 30
0.0
 11
-86.260237451644571
 21
-207.91477430035411
 31
0.0
  0
LINE
  8
DETAIL
  6
CONTINUOUS
 62
     5
 10
-89.146021375644523
 20
-192.52802295435501
 30
0.0
 11
-89.146021375644523
 21
-192.0280229543514
 31
0.0
  0
LINE
  8
DETAIL
  6
CONTINUOUS
 62
     5
 10
-91.074384204644957
 20
-192.52802295435501
 30
0.0
 11
-91.074384204644957
 21
-192.0280229543514
 31
0.0
  0
LINE
  8
DETAIL
  6
CONTINUOUS
 62
     5
 10
-184.70885053039819
 20
-14.91944341547878
 30
0.0
 11
-185.71440402939879
 21
-15.499999999477041
 31
0.0
  0
LINE
  8
DETAIL
  6
CONTINUOUS
 62
     5
 10
-177.35485986304411
 20
-149.64672864535621
 30
0.0
 11
-175.46248173040021
 21
-16.00000000000728
 31
0.0
  0
LINE
  8
DETAIL
  6
CONTINUOUS
 62
     5
 10
-184.70885053039819
 20
-9.9999999994770405
 30
0.0
 11
-184.70885053039819
 21
-14.91944341547878
 31
0.0
  0
LINE
  8
DETAIL
  6
CONTINUOUS
 62
     5
 10
-188.46162728039781
 20
-9.9999999994770405
 30
0.0
 11
-188.46162728039781
 21
-15.499999999473401
 31
0.0
  0
LINE
  8
DETAIL
  6
CONTINUOUS
 62
     5
 10
-194.6135928084004
 20
-15.50000000000728
 30
0.0
 11
-196.50597094104521
 21
-149.64672864535621
 31
0.0
  0
LINE
  8
DETAIL
  6
CONTINUOUS
 62
     5
 10
-195.9671807793984
 20
-9.9999999994770405
 30
0.0
 11
-195.9671807793984
 21
-15.499999999473401
 31
0.0
  0
LINE
  8
DETAIL
  6
CONTINUOUS
 62
     5
 10
-196.54195563740001
 20
-15.50000000000728
 30
0.0
 11
-198.43433377004479
 21
-149.64672864535621
 31
0.0
  0
LINE
  8
DETAIL
  6
CONTINUOUS
 62
     5
 10
-197.89378946339821
 20
-16.999999999480679
 30
0.0
 11
-197.89378946339821
 21
-15.499999999477041
 31
0.0
  0
LINE
  8
DETAIL
  6
CONTINUOUS
 62
     5
 10
-199.71995752939799
 20
-9.9999999994770405
 30
0.0
 11
-199.71995752939799
 21
-14.91944341547878
 31
0.0
  0
LINE
  8
DETAIL
  6
CONTINUOUS
 62
     5
 10
-202.89378946339821
 20
-16.799999999479951
 30
0.0
 11
-202.89378946339821
 21
-13.19999999947777
 31
0.0
  0
LINE
  8
DETAIL
  6
CONTINUOUS
 62
     5
 10
-212.6707249413985
 20
-9.9999999994770405
 30
0.0
 11
-212.6707249413985
 21
-12.999999999477041
 31
0.0
  0
LINE
  8
DETAIL
  6
CONTINUOUS
 62
     5
 10
-260.0
 20
-5.0
 30
0.0
 11
-260.0
 21
0.0
 31
0.0
  0
ARC
  8
DETAIL
  6
CONTINUOUS
 62
     5
 10
142.9271791637548
 20
-179.36804168135311
 30
0.0
 40
38.159981281
 50
270.0011531929083
 51
272.89536028629749
  0
ARC
  8
DETAIL
  6
CONTINUOUS
 62
     5
 10
56.607621867355192
 20
-246.12802295434989
 30
0.0
 40
7.5
 50
270.0
 51
0.0
  0
ARC
  8
DETAIL
  6
CONTINUOUS
 62
     5
 10
68.30762186735592
 20
-177.52802295435501
 30
0.0
 40
4.5
 50
180.0
 51
270.0
  0
ARC
  8
DETAIL
  6
CONTINUOUS
 62
     5
 10
47.089303228354773
 20
-192.8280229543507
 30
0.0
 40
0.2
 50
180.00000000010431
 51
270.0
  0
ARC
  8
DETAIL
  6
CONTINUOUS
 62
     5
 10
56.689303228355129
 20
-192.8280229543507
 30
0.0
 40
0.2
 50
270.00000000010431
 51
0.0
  0
ARC
  8
DETAIL
  6
CONTINUOUS
 62
     5
 10
56.689303228355129
 20
-189.2280229543521
 30
0.0
 40
0.2
 50
0.0
 51
89.999999999895778
  0
ARC
  8
DETAIL
  6
CONTINUOUS
 62
     5
 10
47.089303228354773
 20
-189.2280229543521
 30
0.0
 40
0.2
 50
90.0
 51
180.00000000010431
  0
ARC
  8
DETAIL
  6
CONTINUOUS
 62
     5
 10
-146.7119354290389
 20
-179.36804168135399
 30
0.0
 40
38.159981281
 50
267.10463971370251
 51
269.99884680709181
  0
ARC
  8
DETAIL
  6
CONTINUOUS
 62
     5
 10
-57.092378132644633
 20
-123.1472229543497
 30
0.0
 40
10.5
 50
90.0
 51
180.0
  0
ARC
  8
DETAIL
  6
CONTINUOUS
 62
     5
 10
-60.392378132644808
 20
-246.12802295434989
 30
0.0
 40
7.5
 50
180.0
 51
270.0
  0
ARC
  8
DETAIL
  6
CONTINUOUS
 62
     5
 10
-72.092378132644626
 20
-177.52802295435501
 30
0.0
 40
4.5
 50
270.0
 51
0.0
  0
ARC
  8
DETAIL
  6
CONTINUOUS
 62
     5
 10
-60.474059494645189
 20
-192.8280229543507
 30
0.0
 40
0.2
 50
180.00000000010431
 51
270.0
  0
ARC
  8
DETAIL
  6
CONTINUOUS
 62
     5
 10
-50.874059494644833
 20
-192.8280229543507
 30
0.0
 40
0.2
 50
270.00000000010431
 51
0.0
  0
ARC
  8
DETAIL
  6
CONTINUOUS
 62
     5
 10
-50.874059494644833
 20
-189.2280229543521
 30
0.0
 40
0.2
 50
0.0
 51
89.999999999895778
  0
ARC
  8
DETAIL
  6
CONTINUOUS
 62
     5
 10
-60.474059494645189
 20
-189.2280229543521
 30
0.0
 40
0.2
 50
90.0
 51
180.00000000010431
  0
ARC
  8
DETAIL
  6
CONTINUOUS
 62
     5
 10
255.0
 20
-5.0
 30
0.0
 40
5.0
 50
270.0
 51
0.0
  0
ARC
  8
DETAIL
  6
CONTINUOUS
 62
     5
 10
202.77628894539981
 20
-16.800000000006548
 30
0.0
 40
0.2
 50
270.00000000010431
 51
0.0
  0
ARC
  8
DETAIL
  6
CONTINUOUS
 62
     5
 10
202.77628894539981
 20
-13.200000000004369
 30
0.0
 40
0.2
 50
0.0
 51
89.999999999895778
  0
ARC
  8
DETAIL
  6
CONTINUOUS
 62
     5
 10
169.31064790440001
 20
-16.800000000006548
 30
0.0
 40
0.2
 50
180.00000000010431
 51
270.0
  0
ARC
  8
DETAIL
  6
CONTINUOUS
 62
     5
 10
178.91064790439941
 20
-16.800000000006548
 30
0.0
 40
0.2
 50
270.00000000010431
 51
0.0
  0
ARC
  8
DETAIL
  6
CONTINUOUS
 62
     5
 10
169.31064790440001
 20
-13.200000000004369
 30
0.0
 40
0.2
 50
90.0
 51
180.00000000010431
  0
ARC
  8
DETAIL
  6
CONTINUOUS
 62
     5
 10
178.91064790439941
 20
-13.200000000004369
 30
0.0
 40
0.2
 50
0.0
 51
89.999999999895778
  0
ARC
  8
DETAIL
  6
CONTINUOUS
 62
     5
 10
-255.0
 20
-5.0
 30
0.0
 40
5.0
 50
180.0
 51
270.0
  0
ARC
  8
DETAIL
  6
CONTINUOUS
 62
     5
 10
-186.58551024039841
 20
-12.69529046847765
 30
0.0
 40
2.8047095440000001
 50
270.00554296498558
 51
272.94743713528692
  0
ARC
  8
DETAIL
  6
CONTINUOUS
 62
     5
 10
-197.8432977213979
 20
-12.69531400347933
 30
0.0
 40
2.8046860090000001
 50
267.05255766100839
 51
269.99445501720288
  0
ARC
  8
DETAIL
  6
CONTINUOUS
 62
     5
 10
-202.69378946339839
 20
-16.799999999479951
 30
0.0
 40
0.2
 50
180.00000000010431
 51
270.00000000010431
  0
ARC
  8
DETAIL
  6
CONTINUOUS
 62
     5
 10
-202.69378946339839
 20
-13.19999999947777
 30
0.0
 40
0.2
 50
90.0
 51
180.00000000010431
  0
LINE
  8
DETAIL
  6
CONTINUOUS
 62
     5
 10
75.635878807355766
 20
-210.80152564635321
 30
0.0
 11
71.805656591355728
 21
-207.91477430035411
 31
0.0
  0
LINE
  8
DETAIL
  6
CONTINUOUS
 62
     5
 10
71.805656591355728
 20
-207.91477430035411
 30
0.0
 11
71.805656591355728
 21
-202.1412716083523
 31
0.0
  0
LINE
  8
DETAIL
  6
CONTINUOUS
 62
     5
 10
71.805656591355728
 20
-202.1412716083523
 30
0.0
 11
75.635878807355766
 21
-199.25452026235331
 31
0.0
  0
LINE
  8
DETAIL
  6
CONTINUOUS
 62
     5
 10
60.314989945355592
 20
-207.91477430035411
 30
0.0
 11
64.145212160355186
 21
-210.80152564635321
 31
0.0
  0
LINE
  8
DETAIL
  6
CONTINUOUS
 62
     5
 10
64.145212160355186
 20
-199.25452026235331
 30
0.0
 11
60.314989945355592
 21
-202.1412716083523
 31
0.0
  0
LINE
  8
DETAIL
  6
CONTINUOUS
 62
     5
 10
60.314989945355592
 20
-202.1412716083523
 30
0.0
 11
60.314989945355592
 21
-207.91477430035411
 31
0.0
  0
LINE
  8
DETAIL
  6
CONTINUOUS
 62
     5
 10
-67.927418885645238
 20
-210.80152564635321
 30
0.0
 11
-64.097196670644735
 21
-207.91477430035411
 31
0.0
  0
LINE
  8
DETAIL
  6
CONTINUOUS
 62
     5
 10
-64.097196670644735
 20
-207.91477430035411
 30
0.0
 11
-64.097196670644735
 21
-202.1412716083523
 31
0.0
  0
LINE
  8
DETAIL
  6
CONTINUOUS
 62
     5
 10
-64.097196670644735
 20
-202.1412716083523
 30
0.0
 11
-67.927418885645238
 21
-199.25452026235331
 31
0.0
  0
LINE
  8
DETAIL
  6
CONTINUOUS
 62
     5
 10
-79.503134555644465
 20
-210.80152564635321
 30
0.0
 11
-75.672912340644871
 21
-207.91477430035411
 31
0.0
  0
LINE
  8
DETAIL
  6
CONTINUOUS
 62
     5
 10
-75.672912340644871
 20
-207.91477430035411
 30
0.0
 11
-75.672912340644871
 21
-202.1412716083523
 31
0.0
  0
LINE
  8
DETAIL
  6
CONTINUOUS
 62
     5
 10
-75.672912340644871
 20
-202.1412716083523
 30
0.0
 11
-79.503134555644465
 21
-199.25452026235331
 31
0.0
  0
ARC
  8
DETAIL
  6
CONTINUOUS
 62
     5
 10
142.91848634096999
 20
-171.5442456090677
 30
0.0
 40
46.028137966857138
 50
272.51570448906648
 51
328.76687302305442
  0
ARC
  8
DETAIL
  6
CONTINUOUS
 62
     5
 10
107.33809710444071
 20
-150.59370274717281
 30
0.0
 40
87.316615656153331
 50
329.11801782118602
 51
0.6214015811586318
  0
ARC
  8
DETAIL
  6
CONTINUOUS
 62
     5
 10
140.32998720651091
 20
-170.66389788025839
 30
0.0
 40
47.090205585602753
 50
275.61665577093248
 51
329.43923004717561
  0
ARC
  8
DETAIL
  6
CONTINUOUS
 62
     5
 10
104.83249297387739
 20
-150.5370310572325
 30
0.0
 40
87.893230915554923
 50
329.90710154008332
 51
0.5803796551259076
  0
ARC
  8
DETAIL
  6
CONTINUOUS
 62
     5
 10
-146.5286416282288
 20
-171.2414630211897
 30
0.0
 40
46.334738247475073
 50
211.44132036322279
 51
267.38695004818231
  0
ARC
  8
DETAIL
  6
CONTINUOUS
 62
     5
 10
-109.03604570981319
 20
-150.02945511871991
 30
0.0
 40
89.399107309039749
 50
179.7547103178519
 51
210.50587027749111
  0
ARC
  8
DETAIL
  6
CONTINUOUS
 62
     5
 10
-144.39041333018849
 20
-170.80404938694301
 30
0.0
 40
46.78157267749738
 50
210.5846302660172
 51
267.15650363007268
  0
ARC
  8
DETAIL
  6
CONTINUOUS
 62
     5
 10
-106.40598148142909
 20
-149.95459451631271
 30
0.0
 40
90.100515437021727
 50
179.80422476716021
 51
209.70829403541759
  0
ARC
  8
DETAIL
  6
CONTINUOUS
 62
     5
 10
-133.22869000187711
 20
-150.5038057876736
 30
0.0
 40
44.134492722179942
 50
178.8872651065939
 51
252.21048994348709
  0
ARC
  8
DETAIL
  6
CONTINUOUS
 62
     5
 10
129.52643321959289
 20
-150.50380578767451
 30
0.0
 40
44.134492722178699
 50
287.78951005651288
 51
1.1127348934582519
  0
ARC
  8
DETAIL
  6
CONTINUOUS
 62
     5
 10
59.339722510026149
 20
-214.542601822026
 30
0.0
 40
3.0881806512569732
 50
179.72951365726021
 51
255.17792544845531
  0
ARC
  8
DETAIL
  6
CONTINUOUS
 62
     5
 10
60.273361151618701
 20
-214.4225252314873
 30
0.0
 40
3.2466096083136091
 50
181.8621390484839
 51
253.04530005719971
  0
ARC
  8
DETAIL
  6
CONTINUOUS
 62
     5
 10
-63.124478775314863
 20
-214.542601822026
 30
0.0
 40
3.0881806512569732
 50
284.82207455154469
 51
0.2704863427398361
  0
ARC
  8
DETAIL
  6
CONTINUOUS
 62
     5
 10
-63.932784081365753
 20
-214.60318918772191
 30
0.0
 40
3.0379923023658701
 50
285.68719515057109
 51
1.4177611502506009
  0
ARC
  8
DETAIL
  6
CONTINUOUS
 62
     5
 10
-63.634560934273402
 20
-195.24585931613549
 30
0.0
 40
2.7533354483688122
 50
354.11796400412243
 51
80.789475101383275
  0
ARC
  8
DETAIL
  6
CONTINUOUS
 62
     5
 10
59.936804079119611
 20
-195.39134916539479
 30
0.0
 40
2.9115476604787638
 50
100.44232102866491
 51
182.69056563146569
  0
ARC
  8
DETAIL
  6
CONTINUOUS
 62
     5
 10
-85.65043766134113
 20
-191.27494085445599
 30
0.0
 40
5.4759774245160129
 50
106.6305496256673
 51
187.90463595671679
  0
ARC
  8
DETAIL
  6
CONTINUOUS
 62
     5
 10
-86.434048103776149
 20
-191.6514819045442
 30
0.0
 40
2.7379887124529589
 50
106.63054962917541
 51
187.90463595319409
  0
ARC
  8
DETAIL
  6
CONTINUOUS
 62
     5
 10
81.865681396050604
 20
-191.27494085445599
 30
0.0
 40
5.4759774245160129
 50
352.09536404328333
 51
73.369450374332715
  0
ARC
  8
DETAIL
  6
CONTINUOUS
 62
     5
 10
82.649291838485624
 20
-191.6514819045442
 30
0.0
 40
2.7379887124529589
 50
352.09536404680603
 51
73.369450370824637
  0
ARC
  8
DETAIL
  6
CONTINUOUS
 62
     5
 10
-182.54063486555879
 20
-16.3102214017199
 30
0.0
 40
7.0849480677583792
 50
2.5095542423976349
 51
62.955260188753073
  0
LINE
  8
SIZE
  6
CONTINUOUS
 62
    30
 10
-280.00000000000011
 20
-0.0000000000000032
 30
0.0
 11
-473.0614484640567
 21
-0.0000000000000343
 31
0.0
  0
LINE
  8
SIZE
  6
CONTINUOUS
 62
    30
 10
-76.60762186735613
 20
-253.62802295435009
 30
0.0
 11
-473.06144846405658
 21
-253.62802295435009
 31
0.0
  0
LINE
  8
SIZE
  6
CONTINUOUS
 62
    30
 10
-453.0614484640567
 20
-12.00000000000003
 30
0.0
 11
-453.06144846405658
 21
-241.62802295435009
 31
0.0
  0
CIRCLE
  8
SIZE
  6
CONTINUOUS
 62
    30
 10
-453.0614484640567
 20
-0.000000000000031
 30
0.0
 40
6.0
  0
LINE
  8
SIZE
  6
CONTINUOUS
 62
    30
 10
-453.0614484640567
 20
-0.000000000000031
 30
0.0
 11
-453.0614484640567
 21
-12.00000000000003
 31
0.0
  0
CIRCLE
  8
SIZE
  6
CONTINUOUS
 62
    30
 10
-453.06144846405658
 20
-253.62802295435009
 30
0.0
 40
6.0
  0
LINE
  8
SIZE
  6
CONTINUOUS
 62
    30
 10
-453.06144846405658
 20
-253.62802295435009
 30
0.0
 11
-453.06144846405658
 21
-241.62802295435009
 31
0.0
  0
TEXT
  8
SIZE
  6
CONTINUOUS
 62
    30
 10
-478.06144846405658
 20
-207.74201147717486
 30
0.0
 40
64.0
  1
254
 50
90.0
 41
0.9
 51
0.0
  7
STANDARD
 71
     0
 72
     1
 11
-478.06144846405658
 21
-126.81401147717484
 31
0.0
210
0.0
220
0.0
230
1.0
  0
POINT
  8
DEFPOINTS
  6
CONTINUOUS
 62
    30
 10
-260.00000000000011
 20
0.0
 30
0.0
  0
POINT
  8
DEFPOINTS
  6
CONTINUOUS
 62
    30
 10
-56.60762186735613
 20
-253.62802295435009
 30
0.0
  0
POINT
  8
DEFPOINTS
  6
CONTINUOUS
 62
    30
 10
-453.06144846405658
 20
-253.62802295435009
 30
0.0
  0
LINE
  8
SIZE
  6
CONTINUOUS
 62
    30
 10
-280.00000000000011
 20
-0.0000000000000032
 30
0.0
 11
-334.85479476763442
 21
-0.000000000000012
 31
0.0
  0
LINE
  8
SIZE
  6
CONTINUOUS
 62
    30
 10
-258.00000000350082
 20
-70.000000000000028
 30
0.0
 11
-334.85479476763442
 21
-70.000000000000043
 31
0.0
  0
LINE
  8
SIZE
  6
CONTINUOUS
 62
    30
 10
-314.85479476763442
 20
-82.000000000000043
 30
0.0
 11
-314.85479476763442
 21
-94.000000000000043
 31
0.0
  0
LINE
  8
SIZE
  6
CONTINUOUS
 62
    30
 10
-314.85479476763442
 20
11.999999999999989
 30
0.0
 11
-314.85479476763442
 21
167.2571428571429
 31
0.0
  0
LINE
  8
SIZE
  6
CONTINUOUS
 62
    30
 10
-314.85479476763442
 20
-70.000000000000043
 30
0.0
 11
-314.85479476763442
 21
-0.0000000000000088
 31
0.0
  0
CIRCLE
  8
SIZE
  6
CONTINUOUS
 62
    30
 10
-314.85479476763442
 20
-70.000000000000043
 30
0.0
 40
6.0
  0
LINE
  8
SIZE
  6
CONTINUOUS
 62
    30
 10
-314.85479476763442
 20
-70.000000000000043
 30
0.0
 11
-314.85479476763442
 21
-82.000000000000043
 31
0.0
  0
CIRCLE
  8
SIZE
  6
CONTINUOUS
 62
    30
 10
-314.85479476763442
 20
-0.0000000000000088
 30
0.0
 40
6.0
  0
LINE
  8
SIZE
  6
CONTINUOUS
 62
    30
 10
-314.85479476763442
 20
-0.0000000000000088
 30
0.0
 11
-314.85479476763442
 21
11.999999999999991
 31
0.0
  0
TEXT
  8
SIZE
  6
CONTINUOUS
 62
    30
 10
-339.8547947676343
 20
41.484571428571513
 30
0.0
 40
64.0
  1
70
 50
90.0
 41
0.9
 51
0.0
  7
STANDARD
 71
     0
 72
     1
 11
-339.8547947676343
 21
95.628571428571519
 31
0.0
210
0.0
220
0.0
230
1.0
  0
POINT
  8
DEFPOINTS
  6
CONTINUOUS
 62
    30
 10
-260.00000000000011
 20
0.0
 30
0.0
  0
POINT
  8
DEFPOINTS
  6
CONTINUOUS
 62
    30
 10
-238.00000000350079
 20
-70.000000000000028
 30
0.0
  0
POINT
  8
DEFPOINTS
  6
CONTINUOUS
 62
    30
 10
-314.85479476763442
 20
-70.000000000000043
 30
0.0
  0
CIRCLE
  8
FIX
  6
CONTINUOUS
 62
    11
 10
-230.0
 20
0.0
 30
0.0
 40
7.5
  0
CIRCLE
  8
FIX
  6
CONTINUOUS
 62
    11
 10
230.0
 20
0.0
 30
0.0
 40
7.5
  0
LINE
  8
BASIS
  6
DASHDOT
 62
     6
 10
250.0
 20
0.0
 30
0.0
 11
210.0
 21
0.0
 31
0.0
  0
LINE
  8
BASIS
  6
DASHDOT
 62
     6
 10
230.0
 20
-20.0
 30
0.0
 11
230.0
 21
20.0
 31
0.0
  0
LINE
  8
BASIS
  6
DASHDOT
 62
     6
 10
-210.0
 20
0.0
 30
0.0
 11
-250.0
 21
0.0
 31
0.0
  0
LINE
  8
BASIS
  6
DASHDOT
 62
     6
 10
-230.0
 20
-20.0
 30
0.0
 11
-230.0
 21
20.0
 31
0.0
  0
LINE
  8
SIZE
  6
CONTINUOUS
 62
    30
 10
-260.0
 20
20.0
 30
0.0
 11
-260.0
 21
239.2652687469822
 31
0.0
  0
LINE
  8
SIZE
  6
CONTINUOUS
 62
    30
 10
260.0
 20
20.0
 30
0.0
 11
260.0
 21
239.2652687469822
 31
0.0
  0
LINE
  8
SIZE
  6
CONTINUOUS
 62
    30
 10
-248.0
 20
219.2652687469822
 30
0.0
 11
248.0
 21
219.2652687469822
 31
0.0
  0
CIRCLE
  8
SIZE
  6
CONTINUOUS
 62
    30
 10
-260.0
 20
219.2652687469822
 30
0.0
 40
6.0
  0
LINE
  8
SIZE
  6
CONTINUOUS
 62
    30
 10
-260.0
 20
219.2652687469822
 30
0.0
 11
-248.0
 21
219.2652687469822
 31
0.0
  0
CIRCLE
  8
SIZE
  6
CONTINUOUS
 62
    30
 10
260.0
 20
219.2652687469822
 30
0.0
 40
6.0
  0
LINE
  8
SIZE
  6
CONTINUOUS
 62
    30
 10
260.0
 20
219.2652687469822
 30
0.0
 11
248.0
 21
219.2652687469822
 31
0.0
  0
TEXT
  8
SIZE
  6
CONTINUOUS
 62
    30
 10
-80.927999999999997
 20
244.2652687469822
 30
0.0
 40
64.0
  1
520
 50
0.0
 41
0.9
 51
0.0
  7
STANDARD
 71
     0
 72
     1
 11
0.0
 21
244.2652687469822
 31
0.0
210
0.0
220
0.0
230
1.0
  0
POINT
  8
DEFPOINTS
  6
CONTINUOUS
 62
    30
 10
-260.0
 20
0.0
 30
0.0
  0
POINT
  8
DEFPOINTS
  6
CONTINUOUS
 62
    30
 10
260.0
 20
0.0
 30
0.0
  0
POINT
  8
DEFPOINTS
  6
CONTINUOUS
 62
    30
 10
260.0
 20
219.2652687469822
 30
0.0
  0
LINE
  8
SIZE
  6
CONTINUOUS
 62
    30
 10
-230.0
 20
40.0
 30
0.0
 11
-230.0
 21
122.8398007037663
 31
0.0
  0
LINE
  8
SIZE
  6
CONTINUOUS
 62
    30
 10
230.0
 20
40.0
 30
0.0
 11
230.0
 21
122.8398007037663
 31
0.0
  0
LINE
  8
SIZE
  6
CONTINUOUS
 62
    30
 10
-218.0
 20
102.8398007037663
 30
0.0
 11
218.0
 21
102.8398007037663
 31
0.0
  0
CIRCLE
  8
SIZE
  6
CONTINUOUS
 62
    30
 10
-230.0
 20
102.8398007037663
 30
0.0
 40
6.0
  0
LINE
  8
SIZE
  6
CONTINUOUS
 62
    30
 10
-230.0
 20
102.8398007037663
 30
0.0
 11
-218.0
 21
102.8398007037663
 31
0.0
  0
CIRCLE
  8
SIZE
  6
CONTINUOUS
 62
    30
 10
230.0
 20
102.8398007037663
 30
0.0
 40
6.0
  0
LINE
  8
SIZE
  6
CONTINUOUS
 62
    30
 10
230.0
 20
102.8398007037663
 30
0.0
 11
218.0
 21
102.8398007037663
 31
0.0
  0
TEXT
  8
SIZE
  6
CONTINUOUS
 62
    30
 10
-81.504000000000005
 20
127.83980070376629
 30
0.0
 40
64.0
  1
460
 50
0.0
 41
0.9
 51
0.0
  7
STANDARD
 71
     0
 72
     1
 11
0.0
 21
127.83980070376629
 31
0.0
210
0.0
220
0.0
230
1.0
  0
POINT
  8
DEFPOINTS
  6
CONTINUOUS
 62
    30
 10
-230.0
 20
20.0
 30
0.0
  0
POINT
  8
DEFPOINTS
  6
CONTINUOUS
 62
    30
 10
230.0
 20
20.0
 30
0.0
  0
POINT
  8
DEFPOINTS
  6
CONTINUOUS
 62
    30
 10
230.0
 20
102.8398007037663
 30
0.0
  0
LINE
  8
SIZE
  6
CONTINUOUS
 62
    30
 10
238.0
 20
-90.0
 30
0.0
 11
238.0
 21
-530.47782703411758
 31
0.0
  0
LINE
  8
SIZE
  6
CONTINUOUS
 62
    30
 10
-238.0
 20
-90.0
 30
0.0
 11
-238.0
 21
-530.47782703411758
 31
0.0
  0
LINE
  8
SIZE
  6
CONTINUOUS
 62
    30
 10
226.0
 20
-510.47782703411758
 30
0.0
 11
-226.0
 21
-510.47782703411758
 31
0.0
  0
CIRCLE
  8
SIZE
  6
CONTINUOUS
 62
    30
 10
238.0
 20
-510.47782703411758
 30
0.0
 40
6.0
  0
LINE
  8
SIZE
  6
CONTINUOUS
 62
    30
 10
238.0
 20
-510.47782703411758
 30
0.0
 11
226.0
 21
-510.47782703411758
 31
0.0
  0
CIRCLE
  8
SIZE
  6
CONTINUOUS
 62
    30
 10
-238.0
 20
-510.47782703411758
 30
0.0
 40
6.0
  0
LINE
  8
SIZE
  6
CONTINUOUS
 62
    30
 10
-238.0
 20
-510.47782703411758
 30
0.0
 11
-226.0
 21
-510.47782703411758
 31
0.0
  0
TEXT
  8
SIZE
  6
CONTINUOUS
 62
    30
 10
-115.48800000000003
 20
-485.47782703411758
 30
0.0
 40
64.0
  1
φ476
 50
0.0
 41
0.9
 51
0.0
  7
STANDARD
 71
     0
 72
     1
 11
-0.0000000000000284
 21
-485.47782703411758
 31
0.0
210
0.0
220
0.0
230
1.0
  0
POINT
  8
DEFPOINTS
  6
CONTINUOUS
 62
    30
 10
238.0
 20
-70.0
 30
0.0
  0
POINT
  8
DEFPOINTS
  6
CONTINUOUS
 62
    30
 10
-238.0
 20
-70.0
 30
0.0
  0
POINT
  8
DEFPOINTS
  6
CONTINUOUS
 62
    30
 10
-238.0
 20
-510.47782703411758
 30
0.0
  0
POINT
  8
ARRANGE
  6
CONTINUOUS
 62
     1
 10
0.0
 20
0.0
 30
0.0
 50
90.0
  0
CIRCLE
  8
ARRANGE
  6
CONTINUOUS
 62
     1
 10
0.0
 20
0.0
 30
0.0
 40
40.0
  0
LINE
  8
SIZE
  6
CONTINUOUS
 62
    30
 10
280.00000000000011
 20
0.0000000000000032
 30
0.0
 11
428.06427854098291
 21
0.000000000000027
 31
0.0
  0
LINE
  8
SIZE
  6
CONTINUOUS
 62
    30
 10
275.00000000000011
 20
-10.0
 30
0.0
 11
428.06427854098291
 21
-9.9999999999999751
 31
0.0
  0
LINE
  8
SIZE
  6
CONTINUOUS
 62
    30
 10
408.06427854098291
 20
-21.999999999999979
 30
0.0
 11
408.06427854098291
 21
-33.999999999999993
 31
0.0
  0
LINE
  8
SIZE
  6
CONTINUOUS
 62
    30
 10
408.06427854098291
 20
12.00000000000002
 30
0.0
 11
408.0642785409828
 21
156.28571428571459
 31
0.0
  0
LINE
  8
SIZE
  6
CONTINUOUS
 62
    30
 10
408.06427854098291
 20
-9.9999999999999787
 30
0.0
 11
408.06427854098291
 21
0.0000000000000238
 31
0.0
  0
CIRCLE
  8
SIZE
  6
CONTINUOUS
 62
    30
 10
408.06427854098291
 20
-9.9999999999999787
 30
0.0
 40
6.0
  0
LINE
  8
SIZE
  6
CONTINUOUS
 62
    30
 10
408.06427854098291
 20
-9.9999999999999787
 30
0.0
 11
408.06427854098291
 21
-21.999999999999979
 31
0.0
  0
CIRCLE
  8
SIZE
  6
CONTINUOUS
 62
    30
 10
408.06427854098291
 20
0.0000000000000238
 30
0.0
 40
6.0
  0
LINE
  8
SIZE
  6
CONTINUOUS
 62
    30
 10
408.06427854098291
 20
0.0000000000000238
 30
0.0
 11
408.06427854098291
 21
12.000000000000023
 31
0.0
  0
TEXT
  8
SIZE
  6
CONTINUOUS
 62
    30
 10
383.06427854098268
 20
41.758857142857323
 30
0.0
 40
64.0
  1
10
 50
90.0
 41
0.9
 51
0.0
  7
STANDARD
 71
     0
 72
     1
 11
383.06427854098268
 21
90.142857142857338
 31
0.0
210
0.0
220
0.0
230
1.0
  0
POINT
  8
DEFPOINTS
  6
CONTINUOUS
 62
    30
 10
260.00000000000011
 20
0.0
 30
0.0
  0
POINT
  8
DEFPOINTS
  6
CONTINUOUS
 62
    30
 10
255.00000000000011
 20
-10.0
 30
0.0
  0
POINT
  8
DEFPOINTS
  6
CONTINUOUS
 62
    30
 10
408.06427854098291
 20
-9.9999999999999787
 30
0.0
  0
LINE
  8
SIZE
  6
CONTINUOUS
 62
    30
 10
-67.892378132644808
 20
-266.12802295434989
 30
0.0
 11
-67.892378132644822
 21
-392.77170021241272
 31
0.0
  0
LINE
  8
SIZE
  6
CONTINUOUS
 62
    30
 10
64.107621867355192
 20
-266.12802295434989
 30
0.0
 11
64.107621867355178
 21
-392.77170021241272
 31
0.0
  0
LINE
  8
SIZE
  6
CONTINUOUS
 62
    30
 10
-55.892378132644822
 20
-372.77170021241272
 30
0.0
 11
52.107621867355178
 21
-372.77170021241272
 31
0.0
  0
LINE
  8
SIZE
  6
CONTINUOUS
 62
    30
 10
64.107621867355178
 20
-372.77170021241272
 30
0.0
 11
478.27809254154818
 21
-372.77170021241272
 31
0.0
  0
CIRCLE
  8
SIZE
  6
CONTINUOUS
 62
    30
 10
-67.892378132644822
 20
-372.77170021241272
 30
0.0
 40
6.0
  0
LINE
  8
SIZE
  6
CONTINUOUS
 62
    30
 10
-67.892378132644822
 20
-372.77170021241272
 30
0.0
 11
-55.892378132644822
 21
-372.77170021241272
 31
0.0
  0
CIRCLE
  8
SIZE
  6
CONTINUOUS
 62
    30
 10
64.107621867355178
 20
-372.77170021241272
 30
0.0
 40
6.0
  0
LINE
  8
SIZE
  6
CONTINUOUS
 62
    30
 10
64.107621867355178
 20
-372.77170021241272
 30
0.0
 11
52.107621867355178
 21
-372.77170021241272
 31
0.0
  0
TEXT
  8
SIZE
  6
CONTINUOUS
 62
    30
 10
249.49752111297681
 20
-347.77170021241272
 30
0.0
 40
64.0
  1
φ132
 50
0.0
 41
0.9
 51
0.0
  7
STANDARD
 71
     0
 72
     1
 11
358.6495211129768
 21
-347.77170021241272
 31
0.0
210
0.0
220
0.0
230
1.0
  0
POINT
  8
DEFPOINTS
  6
CONTINUOUS
 62
    30
 10
-67.892378132644808
 20
-246.12802295434989
 30
0.0
  0
POINT
  8
DEFPOINTS
  6
CONTINUOUS
 62
    30
 10
64.107621867355192
 20
-246.12802295434989
 30
0.0
  0
POINT
  8
DEFPOINTS
  6
CONTINUOUS
 62
    30
 10
64.107621867355178
 20
-372.77170021241272
 30
0.0
  0
LINE
  8
DETAIL
  6
CONTINUOUS
 62
     5
 10
238.00000000349971
 20
-70.0
 30
0.0
 11
238.00000000349971
 21
-68.800000000001091
 31
0.0
  0
LINE
  8
DETAIL
  6
CONTINUOUS
 62
     5
 10
-238.0
 20
-70.0
 30
0.0
 11
-196.54195563740001
 21
-70.0
 31
0.0
  0
LINE
  8
DETAIL
  6
CONTINUOUS
 62
     5
 10
-237.9000000017877
 20
-68.800000000001091
 30
0.0
 11
-196.54195563740001
 21
-68.800000000002001
 31
0.0
  0
LINE
  8
DETAIL
  6
CONTINUOUS
 62
     5
 10
-237.89999999980051
 20
-68.800000000001091
 30
0.0
 11
-238.0
 21
-68.800000000001091
 31
0.0
  0
LINE
  8
DETAIL
  6
CONTINUOUS
 62
     5
 10
-203.7999999964004
 20
-34.600000000000357
 30
0.0
 11
-203.7999999964004
 21
-25.0
 31
0.0
  0
LINE
  8
DETAIL
  6
CONTINUOUS
 62
     5
 10
-238.0
 20
-70.0
 30
0.0
 11
-238.0
 21
-68.800000000001091
 31
0.0
  0
ARC
  8
DETAIL
  6
CONTINUOUS
 62
     5
 10
-237.9146629729421
 20
-34.685233698827687
 30
0.0
 40
34.11476945234125
 50
270.02462647454217
 51
0.1431502066396174
  0
ARC
  8
DETAIL
  6
CONTINUOUS
 62
     5
 10
-218.7999999964004
 20
-25.0
 30
0.0
 40
15.0
 50
0.0
 51
53.130102357482563
  0
LINE
  8
DETAIL
  6
CONTINUOUS
 62
     5
 10
194.61359280839949
 20
-15.50000000000728
 30
0.0
 11
192.72121467575559
 21
-149.64672864535621
 31
0.0
  0
LINE
  8
DETAIL
  6
CONTINUOUS
 62
     5
 10
196.54195563740001
 20
-15.50000000000728
 30
0.0
 11
194.64957750475509
 21
-149.64672864535621
 31
0.0
  0
LINE
  8
DETAIL
  6
CONTINUOUS
 62
     5
 10
203.79999999639949
 20
-34.600000000000357
 30
0.0
 11
203.79999999639949
 21
-25.0
 31
0.0
  0
ARC
  8
DETAIL
  6
CONTINUOUS
 62
     5
 10
237.91466297294119
 20
-34.685233698827687
 30
0.0
 40
34.11476945234125
 50
179.8568497933604
 51
269.97537352543168
  0
ARC
  8
DETAIL
  6
CONTINUOUS
 62
     5
 10
218.79999999639949
 20
-25.0
 30
0.0
 40
15.0
 50
126.8698976425174
 51
180.0
  0
LINE
  8
DETAIL
  6
CONTINUOUS
 62
     5
 10
-175.46248173040021
 20
-68.800000000002001
 30
0.0
 11
175.4624817303993
 21
-68.800000000001091
 31
0.0
  0
LINE
  8
DETAIL
  6
CONTINUOUS
 62
     5
 10
-175.46248173040021
 20
-70.0
 30
0.0
 11
175.4624817303993
 21
-70.0
 31
0.0
  0
LINE
  8
DETAIL
  6
CONTINUOUS
 62
     5
 10
196.54195563740001
 20
-68.800000000001091
 30
0.0
 11
238.00000000349971
 21
-68.800000000001091
 31
0.0
  0
LINE
  8
DETAIL
  6
CONTINUOUS
 62
     5
 10
196.54195563740001
 20
-70.0
 30
0.0
 11
238.00000000349971
 21
-70.0
 31
0.0
  0
LINE
  8
OUTLINE
  6
CONTINUOUS
 62
     3
 10
260.0
 20
0.0
 30
0.0
 11
260.0
 21
-5.0
 31
0.0
  0
ARC
  8
OUTLINE
  6
CONTINUOUS
 62
     3
 10
255.0
 20
-5.0000000000000009
 30
0.0
 40
4.9999999999999991
 50
270.0
 51
0.0
  0
LINE
  8
OUTLINE
  6
CONTINUOUS
 62
     3
 10
255.0
 20
-10.0
 30
0.0
 11
212.7532244233989
 21
-10.0
 31
0.0
  0
LINE
  8
OUTLINE
  6
CONTINUOUS
 62
     3
 10
212.7532244233989
 20
-10.0
 30
0.0
 11
212.7532244233989
 21
-13.00000000000364
 31
0.0
  0
LINE
  8
OUTLINE
  6
CONTINUOUS
 62
     3
 10
212.7532244233989
 20
-13.00000000000364
 30
0.0
 11
209.79999999639489
 21
-13.00000000000364
 31
0.0
  0
ARC
  8
OUTLINE
  6
CONTINUOUS
 62
     3
 10
218.79999999639969
 20
-25.000000000000284
 30
0.0
 40
15.000000000000192
 50
126.86989764586639
 51
180.0
  0
LINE
  8
OUTLINE
  6
CONTINUOUS
 62
     3
 10
203.79999999639949
 20
-25.0
 30
0.0
 11
203.79999999639949
 21
-34.770467397519504
 31
0.0
  0
ARC
  8
OUTLINE
  6
CONTINUOUS
 62
     3
 10
237.91466297294079
 20
-34.685233698827318
 30
0.0
 40
34.114769452341179
 50
180.14315020638946
 51
270.14332375287529
  0
LINE
  8
OUTLINE
  6
CONTINUOUS
 62
     3
 10
238.00000000349971
 20
-68.799896417042874
 30
0.0
 11
238.00000000349971
 21
-70.0
 31
0.0
  0
LINE
  8
OUTLINE
  6
CONTINUOUS
 62
     3
 10
238.00000000349971
 20
-70.0
 30
0.0
 11
196.54195563740001
 21
-70.0
 31
0.0
  0
LINE
  8
OUTLINE
  6
CONTINUOUS
 62
     3
 10
196.54195563740001
 20
-70.0
 30
0.0
 11
194.64957750475509
 21
-149.64672864518249
 31
0.0
  0
ARC
  8
OUTLINE
  6
CONTINUOUS
 62
     3
 10
107.33809710448092
 20
-150.59370274718418
 30
0.0
 40
87.316615656112788
 50
329.1180178211871
 51
0.6214015812994376
  0
ARC
  8
OUTLINE
  6
CONTINUOUS
 62
     3
 10
142.91848634096962
 20
-171.54424560906767
 30
0.0
 40
46.028137966857287
 50
272.51570448905431
 51
328.76687302306732
  0
LINE
  8
OUTLINE
  6
CONTINUOUS
 62
     3
 10
144.93880952173731
 20
-217.5280229543587
 30
0.0
 11
64.107621867355192
 21
-217.52802295435501
 31
0.0
  0
LINE
  8
OUTLINE
  6
CONTINUOUS
 62
     3
 10
64.107621867355192
 20
-217.52802295435501
 30
0.0
 11
64.107621867355192
 21
-246.12802295434989
 31
0.0
  0
ARC
  8
OUTLINE
  6
CONTINUOUS
 62
     3
 10
56.607621867355142
 20
-246.12802295434983
 30
0.0
 40
7.500000000000048
 50
270.0
 51
0.0
  0
LINE
  8
OUTLINE
  6
CONTINUOUS
 62
     3
 10
56.607621867355192
 20
-253.62802295434989
 30
0.0
 11
-60.392378132644808
 21
-253.62802295434989
 31
0.0
  0
ARC
  8
OUTLINE
  6
CONTINUOUS
 62
     3
 10
-60.392378132644758
 20
-246.12802295434983
 30
0.0
 40
7.500000000000048
 50
180.0
 51
270.0
  0
LINE
  8
OUTLINE
  6
CONTINUOUS
 62
     3
 10
-67.892378132644808
 20
-246.12802295434989
 30
0.0
 11
-67.892378132644808
 21
-217.52802295435501
 31
0.0
  0
LINE
  8
OUTLINE
  6
CONTINUOUS
 62
     3
 10
-67.892378132644808
 20
-217.52802295435501
 30
0.0
 11
-148.64106630502471
 21
-217.52802295435961
 31
0.0
  0
ARC
  8
OUTLINE
  6
CONTINUOUS
 62
     3
 10
-146.5286416282276
 20
-171.24146302118976
 30
0.0
 40
46.334738247475471
 50
211.44132036325288
 51
267.38695004821886
  0
ARC
  8
OUTLINE
  6
CONTINUOUS
 62
     3
 10
-109.03604570971
 20
-150.02945511868978
 30
0.0
 40
89.399107309142536
 50
179.75471031821098
 51
210.50587027750407
  0
LINE
  8
OUTLINE
  6
CONTINUOUS
 62
     3
 10
-198.43433377004479
 20
-149.64672864588559
 30
0.0
 11
-196.54195563740001
 21
-70.0
 31
0.0
  0
LINE
  8
OUTLINE
  6
CONTINUOUS
 62
     3
 10
-196.54195563740001
 20
-70.0
 30
0.0
 11
-238.0
 21
-70.0
 31
0.0
  0
LINE
  8
OUTLINE
  6
CONTINUOUS
 62
     3
 10
-238.0
 20
-70.0
 30
0.0
 11
-238.0
 21
-68.799896417051968
 31
0.0
  0
ARC
  8
OUTLINE
  6
CONTINUOUS
 62
     3
 10
-237.91466297294144
 20
-34.685233698827858
 30
0.0
 40
34.11476945234098
 50
269.85667625300357
 51
0.1431502064380084
  0
LINE
  8
OUTLINE
  6
CONTINUOUS
 62
     3
 10
-203.7999999964004
 20
-34.600000000106768
 30
0.0
 11
-203.7999999964004
 21
-25.0
 31
0.0
  0
ARC
  8
OUTLINE
  6
CONTINUOUS
 62
     3
 10
-218.79999999640026
 20
-25.000000000000174
 30
0.0
 40
14.999999999999849
 50
0.0
 51
53.13010235748709
  0
LINE
  8
OUTLINE
  6
CONTINUOUS
 62
     3
 10
-209.79999999709801
 20
-12.999999999477041
 30
0.0
 11
-212.6707249413985
 21
-12.999999999477041
 31
0.0
  0
LINE
  8
OUTLINE
  6
CONTINUOUS
 62
     3
 10
-212.6707249413985
 20
-12.999999999477041
 30
0.0
 11
-212.6707249413985
 21
-10.0
 31
0.0
  0
LINE
  8
OUTLINE
  6
CONTINUOUS
 62
     3
 10
-212.6707249413985
 20
-10.0
 30
0.0
 11
-255.0
 21
-10.0
 31
0.0
  0
ARC
  8
OUTLINE
  6
CONTINUOUS
 62
     3
 10
-255.0
 20
-5.0000000000000009
 30
0.0
 40
4.9999999999999991
 50
180.0
 51
270.0
  0
LINE
  8
OUTLINE
  6
CONTINUOUS
 62
     3
 10
-260.0
 20
-5.0
 30
0.0
 11
-260.0
 21
0.0
 31
0.0
  0
LINE
  8
OUTLINE
  6
CONTINUOUS
 62
     3
 10
-260.0
 20
0.0
 30
0.0
 11
260.0
 21
0.0
 31
0.0
  0
LINE
  8
DETAIL
  6
CONTINUOUS
 62
     5
 10
15.146131465636239
 20
-83.847222954354038
 30
0.0
 11
-16.85300679156353
 21
-83.847222954354038
 31
0.0
  0
LINE
  8
DETAIL
  6
CONTINUOUS
 62
     5
 10
15.146131465636239
 20
-86.347222954354038
 30
0.0
 11
-16.85300679156353
 21
-86.347222954354038
 31
0.0
  0
LINE
  8
DETAIL
  6
CONTINUOUS
 62
     5
 10
-13.85340093936429
 20
-88.747222954353674
 30
0.0
 11
12.146525613436101
 21
-88.747222954353674
 31
0.0
  0
LINE
  8
DETAIL
  6
CONTINUOUS
 62
     5
 10
13.677309119036179
 20
-91.247222954353674
 30
0.0
 11
19.784823172836699
 21
-91.781561196353323
 31
0.0
  0
LINE
  8
DETAIL
  6
CONTINUOUS
 62
     5
 10
-15.38398032456371
 20
-91.247222954353674
 30
0.0
 11
13.67710499863642
 21
-91.247222954353674
 31
0.0
  0
LINE
  8
DETAIL
  6
CONTINUOUS
 62
     5
 10
-26.860902736163549
 20
-105.7472229543537
 30
0.0
 11
25.154027410236271
 21
-105.7472229543537
 31
0.0
  0
LINE
  8
DETAIL
  6
CONTINUOUS
 62
     5
 10
25.154202015436571
 20
-105.7472229543537
 30
0.0
 11
24.330017949636389
 21
-96.326755973154832
 31
0.0
  0
LINE
  8
DETAIL
  6
CONTINUOUS
 62
     5
 10
10.88087283083587
 20
-108.64412202115361
 30
0.0
 11
11.91936373703629
 21
-107.60561611755379
 31
0.0
  0
LINE
  8
DETAIL
  6
CONTINUOUS
 62
     5
 10
15.1465623404365
 20
-86.347222954354038
 30
0.0
 11
15.1465623404365
 21
-83.847222954354038
 31
0.0
  0
LINE
  8
DETAIL
  6
CONTINUOUS
 62
     5
 10
12.446562340435779
 20
-106.3328331019538
 30
0.0
 11
12.446562340435779
 21
-105.7472229543537
 31
0.0
  0
LINE
  8
DETAIL
  6
CONTINUOUS
 62
     5
 10
12.1465623404365
 20
-88.747222954353674
 30
0.0
 11
12.1465623404365
 21
-91.247222954353674
 31
0.0
  0
LINE
  8
DETAIL
  6
CONTINUOUS
 62
     5
 10
10.6465623404365
 20
-112.6472229543533
 30
0.0
 11
10.6465623404365
 21
-109.20980336135381
 31
0.0
  0
LINE
  8
DETAIL
  6
CONTINUOUS
 62
     5
 10
9.1465623404365033
 20
-88.747222954353674
 30
0.0
 11
9.1465623404365033
 21
-86.347222954354038
 31
0.0
  0
ARC
  8
DETAIL
  6
CONTINUOUS
 62
     5
 10
19.349044459036119
 20
-96.762534686954496
 30
0.0
 40
5.0
 50
4.999999999974639
 51
85.000000000000256
  0
ARC
  8
DETAIL
  6
CONTINUOUS
 62
     5
 10
10.6465623404365
 20
-106.3328331019538
 30
0.0
 40
1.8
 50
315.00041371817463
 51
0.0
  0
ARC
  8
DETAIL
  6
CONTINUOUS
 62
     5
 10
11.446562340435779
 20
-109.20980336135381
 30
0.0
 40
0.8
 50
135.0004137181746
 51
180.0
  0
LINE
  8
DETAIL
  6
CONTINUOUS
 62
     5
 10
-15.38418444496347
 20
-91.247222954353674
 30
0.0
 11
-21.491698498763981
 21
-91.781561196353323
 31
0.0
  0
LINE
  8
DETAIL
  6
CONTINUOUS
 62
     5
 10
-26.861077341363849
 20
-105.7472229543537
 30
0.0
 11
-26.036893275563671
 21
-96.326755973154832
 31
0.0
  0
LINE
  8
DETAIL
  6
CONTINUOUS
 62
     5
 10
-12.587748156764061
 20
-108.64412202115361
 30
0.0
 11
-13.626239062963579
 21
-107.60561611755379
 31
0.0
  0
LINE
  8
DETAIL
  6
CONTINUOUS
 62
     5
 10
-16.853437666363789
 20
-86.347222954354038
 30
0.0
 11
-16.853437666363789
 21
-83.847222954354038
 31
0.0
  0
LINE
  8
DETAIL
  6
CONTINUOUS
 62
     5
 10
-14.15343766636397
 20
-106.3328331019538
 30
0.0
 11
-14.15343766636397
 21
-105.7472229543537
 31
0.0
  0
LINE
  8
DETAIL
  6
CONTINUOUS
 62
     5
 10
-13.85343766636379
 20
-88.747222954353674
 30
0.0
 11
-13.85343766636379
 21
-91.247222954353674
 31
0.0
  0
LINE
  8
DETAIL
  6
CONTINUOUS
 62
     5
 10
-12.35343766636379
 20
-112.6472229543533
 30
0.0
 11
-12.35343766636379
 21
-109.20980336135381
 31
0.0
  0
LINE
  8
DETAIL
  6
CONTINUOUS
 62
     5
 10
-10.85343766636379
 20
-88.747222954353674
 30
0.0
 11
-10.85343766636379
 21
-86.347222954354038
 31
0.0
  0
ARC
  8
DETAIL
  6
CONTINUOUS
 62
     5
 10
-21.055919784963411
 20
-96.762534686954496
 30
0.0
 40
5.0
 50
94.999999999999758
 51
175.00000000002541
  0
ARC
  8
DETAIL
  6
CONTINUOUS
 62
     5
 10
-12.35343766636379
 20
-106.3328331019538
 30
0.0
 40
1.8
 50
180.0
 51
224.9995862818254
  0
ARC
  8
DETAIL
  6
CONTINUOUS
 62
     5
 10
-13.15343766636397
 20
-109.20980336135381
 30
0.0
 40
0.8
 50
0.0
 51
44.999586281825451
  0
ARC
  8
DETAIL
  6
CONTINUOUS
 62
     5
 10
53.30762186735501
 20
-123.1472229543497
 30
0.0
 40
10.5
 50
0.0
 51
90.0
  0
LINE
  8
DETAIL
  6
CONTINUOUS
 62
     5
 10
13.1465623404365
 20
-82.847222954354038
 30
0.0
 11
-14.85343766636379
 21
-82.847222954354038
 31
0.0
  0
LINE
  8
DETAIL
  6
CONTINUOUS
 62
     5
 10
12.1465623404365
 20
-83.847222954354038
 30
0.0
 11
13.1465623404365
 21
-82.847222954354038
 31
0.0
  0
LINE
  8
DETAIL
  6
CONTINUOUS
 62
     5
 10
13.1465623404365
 20
-82.847222954354038
 30
0.0
 11
13.1465623404365
 21
-70.0
 31
0.0
  0
LINE
  8
DETAIL
  6
CONTINUOUS
 62
     5
 10
-13.85343766636379
 20
-83.847222954354038
 30
0.0
 11
-14.85343766636379
 21
-82.847222954354038
 31
0.0
  0
LINE
  8
DETAIL
  6
CONTINUOUS
 62
     5
 10
-14.85343766636379
 20
-82.847222954354038
 30
0.0
 11
-14.85343766636379
 21
-70.0
 31
0.0
  0
ARC
  8
DETAIL
  6
CONTINUOUS
 62
     5
 10
97.842284964845021
 20
31.550878223310971
 30
0.0
 40
170.5358010610943
 50
258.48789935483433
 51
296.51619836861107
  0
ARC
  8
DETAIL
  6
CONTINUOUS
 62
     5
 10
-395.14939682444577
 20
503.43726058326052
 30
0.0
 40
671.82997626274732
 50
288.93846141465212
 51
297.73391537463948
  0
ARC
  8
DETAIL
  6
CONTINUOUS
 62
     5
 10
-887.89613248871319
 20
1263.0963800596801
 30
0.0
 40
1557.3052264058449
 50
297.16216256117292
 51
300.3424874349555
  0
ARC
  8
DETAIL
  6
CONTINUOUS
 62
     5
 10
63.593971732464517
 20
195.49226990821529
 30
0.0
 40
321.78158035514463
 50
235.59557043180379
 51
253.25659176425319
  0
CIRCLE
  8
DETAIL
  6
CONTINUOUS
 62
     5
 10
184.35580032229609
 20
-33.837959993941688
 30
0.0
 40
5.0
  0
TEXT
  8
ETC
  6
CONTINUOUS
 62
    61
 10
478.36819637215922
 20
293.13372793354569
 30
0.0
 40
64.0
  1
EG-40CTXC2_6
 41
0.9
  0
TEXT
  8
ETC
  6
CONTINUOUS
 62
    61
 10
474.18220237215968
 20
175.1784179187143
 30
0.0
 40
64.0
  1
有圧換気扇
 41
0.9
  0
TEXT
  8
ETC
  6
CONTINUOUS
 62
    61
 10
524.88360062071479
 20
67.029645032489498
 30
0.0
 40
40.0
  1
EG-40CTXC2
 50
0.0
 41
0.9
 51
0.0
  7
STANDARD
 71
     0
 11
0.0
 21
0.0
 31
0.0
210
0.0
220
0.0
230
1.0
  0
TEXT
  8
NOTE
  6
CONTINUOUS
 62
     4
 10
332.05168196318118
 20
-141.61652071284061
 30
0.0
 40
64.0
  1
4-15×15
 50
0.0
 41
0.9
 51
0.0
  7
STANDARD
 71
     0
 11
0.0
 21
0.0
 31
0.0
210
0.0
220
0.0
230
1.0
  0
LINE
  8
NOTE
  6
CONTINUOUS
 62
     4
 10
331.96168196318098
 20
-154.41652071284079
 30
0.0
 11
710.56596767746669
 21
-154.41652071284079
 31
0.0
  0
LINE
  8
NOTE
  6
CONTINUOUS
 62
     4
 10
236.96470846216553
 20
-30.267314355374179
 30
0.0
 11
230.0
 21
0.0
 31
0.0
  0
LINE
  8
NOTE
  6
CONTINUOUS
 62
     4
 10
230.0
 20
0.0
 30
0.0
 11
251.16530588854471
 21
-22.729877010101372
 31
0.0
  0
LINE
  8
NOTE
  6
CONTINUOUS
 62
     4
 10
230.0
 20
0.0
 30
0.0
 11
258.13001435071021
 21
-52.997191365475551
 31
0.0
  0
LINE
  8
NOTE
  6
CONTINUOUS
 62
     4
 10
258.13001435071021
 20
-52.997191365475558
 30
0.0
 11
311.96168196318098
 21
-154.41652071284079
 31
0.0
  0
LINE
  8
NOTE
  6
CONTINUOUS
 62
     4
 10
311.96168196318098
 20
-154.41652071284079
 30
0.0
 11
331.96168196318098
 21
-154.41652071284079
 31
0.0
  0
TEXT
  8
NOTE
  6
CONTINUOUS
 62
     4
 10
341.29190023715552
 20
-238.30742594299679
 30
0.0
 40
64.0
  1
EL
 50
0.0
 41
0.9
 51
0.0
  7
STANDARD
 71
     0
 11
0.0
 21
0.0
 31
0.0
210
0.0
220
0.0
230
1.0
  0
LINE
  8
NOTE
  6
CONTINUOUS
 62
     4
 10
341.20190023715531
 20
-251.107425942997
 30
0.0
 11
426.32047166572681
 21
-251.107425942997
 31
0.0
  0
LINE
  8
NOTE
  6
CONTINUOUS
 62
     4
 10
193.54233242995355
 20
-63.506547929416115
 30
0.0
 11
184.35580032229609
 21
-33.837959993941688
 31
0.0
  0
LINE
  8
NOTE
  6
CONTINUOUS
 62
     4
 10
184.35580032229609
 20
-33.837959993941688
 30
0.0
 11
207.14589626516357
 21
-54.938410443277959
 31
0.0
  0
LINE
  8
NOTE
  6
CONTINUOUS
 62
     4
 10
184.35580032229609
 20
-33.837959993941688
 30
0.0
 11
216.33242837282103
 21
-84.60699837875238
 31
0.0
  0
LINE
  8
NOTE
  6
CONTINUOUS
 62
     4
 10
216.332428372821
 20
-84.606998378752408
 30
0.0
 11
321.20190023715531
 21
-251.107425942997
 31
0.0
  0
LINE
  8
NOTE
  6
CONTINUOUS
 62
     4
 10
321.20190023715531
 20
-251.107425942997
 30
0.0
 11
341.20190023715531
 21
-251.107425942997
 31
0.0
  0
ENDSEC
  0
EOF
