  0
SECTION
  2
HEADER
  9
$ACADVER
  1
AC1009
  9
$INSBASE
 10
0.0
 20
0.0
 30
0.0
  9
$EXTMIN
 10
-755.9142902329512
 20
-483.85618951154902
 30
-100.119172924072
  9
$EXTMAX
 10
762.71210842848632
 20
549.86573063054311
 30
50.009162623118868
  9
$LIMMIN
 10
-2970.0
 20
-2100.0
  9
$LIMMAX
 10
2970.0
 20
2100.0
  9
$ORTHOMODE
 70
     1
  9
$REGENMODE
 70
     1
  9
$FILLMODE
 70
     1
  9
$QTEXTMODE
 70
     0
  9
$MIRRTEXT
 70
     0
  9
$DRAGMODE
 70
     2
  9
$LTSCALE
 40
20.0
  9
$OSMODE
 70
    37
  9
$ATTMODE
 70
     1
  9
$TEXTSIZE
 40
64.0
  9
$TRACEWID
 40
0.05
  9
$TEXTSTYLE
  7
STANDARD
  9
$CLAYER
  8
ARRANGE
  9
$CELTYPE
  6
CONTINUOUS
  9
$CECOLOR
 62
     7
  9
$DIMSCALE
 40
1.0
  9
$DIMASZ
 40
2.0
  9
$DIMEXO
 40
20.0
  9
$DIMDLI
 40
200.0
  9
$DIMRND
 40
0.0
  9
$DIMDLE
 40
0.0
  9
$DIMEXE
 40
30.0
  9
$DIMTP
 40
0.1
  9
$DIMTM
 40
0.1
  9
$DIMTXT
 40
64.0
  9
$DIMCEN
 40
0.09
  9
$DIMTSZ
 40
0.0
  9
$DIMTOL
 70
     0
  9
$DIMLIM
 70
     0
  9
$DIMTIH
 70
     0
  9
$DIMTOH
 70
     0
  9
$DIMSE1
 70
     0
  9
$DIMSE2
 70
     0
  9
$DIMTAD
 70
     1
  9
$DIMZIN
 70
     8
  9
$DIMBLK
  1
DOT1
  9
$DIMASO
 70
     1
  9
$DIMSHO
 70
     0
  9
$DIMPOST
  1
<>
  9
$DIMAPOST
  1
"
  9
$DIMALT
 70
     0
  9
$DIMALTD
 70
     2
  9
$DIMALTF
 40
0.03937
  9
$DIMLFAC
 40
1.0
  9
$DIMTOFL
 70
     1
  9
$DIMTVP
 40
0.0
  9
$DIMTIX
 70
     0
  9
$DIMSOXD
 70
     0
  9
$DIMSAH
 70
     1
  9
$DIMBLK1
  1

  9
$DIMBLK2
  1

  9
$DIMSTYLE
  2
GEN-ISO
  9
$DIMCLRD
 70
     7
  9
$DIMCLRE
 70
     7
  9
$DIMCLRT
 70
     7
  9
$DIMTFAC
 40
1.0
  9
$DIMGAP
 40
25.0
  9
$LUNITS
 70
     2
  9
$LUPREC
 70
     4
  9
$SKETCHINC
 40
0.1
  9
$FILLETRAD
 40
5.0
  9
$AUNITS
 70
     1
  9
$AUPREC
 70
     3
  9
$MENU
  1
ACAD
  9
$ELEVATION
 40
0.0
  9
$PELEVATION
 40
0.0
  9
$THICKNESS
 40
0.0
  9
$LIMCHECK
 70
     0
  9
$BLIPMODE
 70
     0
  9
$CHAMFERA
 40
0.0
  9
$CHAMFERB
 40
0.0
  9
$SKPOLY
 70
     0
  9
$TDCREATE
 40
2451372.5474537038
  9
$TDUPDATE
 40
2454949.5614880561
  9
$TDINDWG
 40
0.876445787
  9
$TDUSRTIMER
 40
0.8764456019
  9
$USRTIMER
 70
     1
  9
$ANGBASE
 50
0.0
  9
$ANGDIR
 70
     0
  9
$PDMODE
 70
     3
  9
$PDSIZE
 40
-2.0
  9
$PLINEWID
 40
0.0
  9
$COORDS
 70
     0
  9
$SPLFRAME
 70
     0
  9
$SPLINETYPE
 70
     6
  9
$SPLINESEGS
 70
     8
  9
$ATTDIA
 70
     0
  9
$ATTREQ
 70
     1
  9
$HANDLING
 70
     1
  9
$HANDSEED
  5
36F
  9
$SURFTAB1
 70
     6
  9
$SURFTAB2
 70
     6
  9
$SURFTYPE
 70
     6
  9
$SURFU
 70
     6
  9
$SURFV
 70
     6
  9
$UCSNAME
  2

  9
$UCSORG
 10
0.0
 20
0.0
 30
0.0
  9
$UCSXDIR
 10
1.0
 20
0.0
 30
0.0
  9
$UCSYDIR
 10
0.0
 20
1.0
 30
0.0
  9
$PUCSNAME
  2

  9
$PUCSORG
 10
0.0
 20
0.0
 30
0.0
  9
$PUCSXDIR
 10
1.0
 20
0.0
 30
0.0
  9
$PUCSYDIR
 10
0.0
 20
1.0
 30
0.0
  9
$USERI1
 70
     0
  9
$USERI2
 70
     0
  9
$USERI3
 70
     0
  9
$USERI4
 70
     0
  9
$USERI5
 70
     0
  9
$USERR1
 40
20.0
  9
$USERR2
 40
0.0
  9
$USERR3
 40
0.0
  9
$USERR4
 40
0.0
  9
$USERR5
 40
0.0
  9
$WORLDVIEW
 70
     1
  9
$SHADEDGE
 70
     3
  9
$SHADEDIF
 70
    70
  9
$TILEMODE
 70
     1
  9
$MAXACTVP
 70
    48
  9
$PLIMCHECK
 70
     0
  9
$PEXTMIN
 10
-1.0000000000000000E+020
 20
-1.0000000000000000E+020
 30
-1.0000000000000000E+020
  9
$PEXTMAX
 10
1.0000000000000000E+020
 20
1.0000000000000000E+020
 30
1.0000000000000000E+020
  9
$PLIMMIN
 10
0.0
 20
0.0
  9
$PLIMMAX
 10
12.0
 20
9.0
  9
$UNITMODE
 70
     0
  9
$VISRETAIN
 70
     0
  9
$PLINEGEN
 70
     0
  9
$PSLTSCALE
 70
     0
  0
ENDSEC
  0
SECTION
  2
TABLES
  0
TABLE
  2
VPORT
 70
     1
  0
VPORT
  2
*ACTIVE
 70
     0
 10
0.0
 20
0.0
 11
1.0
 21
1.0
 12
37.464098178480072
 22
42.164710079491208
 13
0.0
 23
0.0
 14
50.0
 24
50.0
 15
400.0
 25
400.0
 16
0.0
 26
0.0
 36
1.0
 17
0.0
 27
0.0
 37
0.0
 40
1346.8192169682379
 41
1.2740315638450499
 42
50.0
 43
0.0
 44
0.0
 50
0.0
 51
0.0
 71
     0
 72
   500
 73
     1
 74
     0
 75
     0
 76
     0
 77
     0
 78
     0
  0
ENDTAB
  0
TABLE
  2
LTYPE
 70
     4
  0
LTYPE
  2
CONTINUOUS
 70
     0
  3
実線
 72
    65
 73
     0
 40
0.0
  0
LTYPE
  2
DASHDOT
 70
     0
  3
____ _ ____ _ ____ _ ____ _ ____ _ ____ _ ____
 72
    65
 73
     4
 40
5.5
 49
4.0
 49
-0.6
 49
0.3
 49
-0.6
  0
LTYPE
  2
DASHED
 70
     0
  3
-- -- -- -- -- -- -- -- -- -- -- -- -- -- --
 72
    65
 73
     2
 40
0.75
 49
0.5
 49
-0.25
  0
ENDTAB
  0
TABLE
  2
LAYER
 70
    12
  0
LAYER
  2
0
 70
     0
 62
     7
  6
CONTINUOUS
  0
LAYER
  2
ARRANGE
 70
     0
 62
     1
  6
CONTINUOUS
  0
LAYER
  2
OUTLINE
 70
     0
 62
     3
  6
CONTINUOUS
  0
LAYER
  2
DETAIL
 70
     0
 62
     5
  6
CONTINUOUS
  0
LAYER
  2
BASIS
 70
     0
 62
     6
  6
DASHDOT
  0
LAYER
  2
NOTE
 70
     0
 62
     4
  6
CONTINUOUS
  0
LAYER
  2
DEFPOINTS
 70
     0
 62
     7
  6
CONTINUOUS
  0
LAYER
  2
SIZE
 70
     0
 62
    30
  6
CONTINUOUS
  0
LAYER
  2
ETC
 70
     0
 62
    61
  6
CONTINUOUS
  0
LAYER
  2
FIX
 70
     0
 62
    11
  6
CONTINUOUS
  0
LAYER
  2
SERVICESPACE
 70
     0
 62
     2
  6
DASHDOT
  0
LAYER
  2
SYMBOLLINE
 70
     0
 62
    15
  6
CONTINUOUS
  0
ENDTAB
  0
TABLE
  2
STYLE
 70
     3
  0
STYLE
  2
STANDARD
 70
     0
 40
0.0
 41
0.9
 50
0.0
 71
     0
 42
64.0
  3
SIMPLEX
  4
BIGFONT
  0
STYLE
  2
ANNOTATIVE
 70
     0
 40
0.0
 41
1.0
 50
0.0
 71
     0
 42
0.2
  3
txt
  4

  0
STYLE
  2

 70
     1
 40
0.0
 41
1.0
 50
0.0
 71
     0
 42
64.0
  3
ltypeshp.shx
  4

  0
ENDTAB
  0
TABLE
  2
VIEW
 70
     1
  0
VIEW
  2
ALL
 70
     0
 40
4282.6198079999986
 10
0.0
 20
41.309903999999989
 41
5940.0
 11
0.0
 21
0.0
 31
1.0
 12
0.0
 22
0.0
 32
0.0
 42
50.0
 43
0.0
 44
0.0
 50
0.0
 71
     0
  0
ENDTAB
  0
TABLE
  2
UCS
 70
     0
  0
ENDTAB
  0
TABLE
  2
APPID
 70
    14
  0
APPID
  2
ACAD
 70
     0
  0
APPID
  2
ACADANNOTATIVE
 70
     0
  0
APPID
  2
ACAD_MLEADERVER
 70
     0
  0
APPID
  2
CONTENTBLOCKDESCRIPTION
 70
     0
  0
APPID
  2
CONTENTBLOCKICON
 70
     0
  0
APPID
  2
GENIUS_GENCFG_13
 70
     0
  0
APPID
  2
GENIUS_GENCFG0_13
 70
     0
  0
APPID
  2
GENIUS_GENCFG1_13
 70
     0
  0
APPID
  2
GENIUS_GENCFG2_13
 70
     0
  0
APPID
  2
GENIUS_GENCFG3_13
 70
     0
  0
APPID
  2
GENIUS_GENCFG4_13
 70
     0
  0
APPID
  2
GENIUS_GEVCFG0_13
 70
     0
  0
APPID
  2
GENIUS_GENOENT_13
 70
     0
  0
APPID
  2
ACAD_EXEMPT_FROM_CAD_STANDARDS
 70
     0
  0
ENDTAB
  0
TABLE
  2
DIMSTYLE
 70
     3
  0
DIMSTYLE
  2
STANDARD
 70
     0
  3

  4

  5

  6

  7

 40
1.0
 41
0.18
 42
0.0625
 43
0.38
 44
0.18
 45
0.0
 46
0.0
 47
0.0
 48
0.0
140
0.18
141
0.09
142
0.0
143
25.399999999999999
144
1.0
145
0.0
146
1.0
147
0.09
 71
     0
 72
     0
 73
     1
 74
     1
 75
     0
 76
     0
 77
     0
 78
     0
170
     0
171
     2
172
     0
173
     0
174
     0
175
     0
176
     0
177
     0
178
     0
  0
DIMSTYLE
  2
ANNOTATIVE
 70
     0
  3

  4

  5

  6

  7

 40
1.0
 41
0.18
 42
0.0625
 43
0.38
 44
0.18
 45
0.0
 46
0.0
 47
0.0
 48
0.0
140
0.18
141
0.09
142
0.0
143
25.399999999999999
144
1.0
145
0.0
146
1.0
147
0.09
 71
     0
 72
     0
 73
     1
 74
     1
 75
     0
 76
     0
 77
     0
 78
     0
170
     0
171
     2
172
     0
173
     0
174
     0
175
     0
176
     0
177
     0
178
     0
  0
DIMSTYLE
  2
GEN-ISO
 70
     0
  3

  4
"
  5

  6

  7

 40
1.0
 41
2.0
 42
20.0
 43
200.0
 44
30.0
 45
0.0
 46
0.0
 47
0.1
 48
0.1
140
64.0
141
0.09
142
0.0
143
0.03937
144
1.0
145
0.0
146
1.0
147
25.0
 71
     0
 72
     0
 73
     0
 74
     0
 75
     0
 76
     0
 77
     1
 78
     8
170
     0
171
     2
172
     1
173
     1
174
     0
175
     0
176
     7
177
     7
178
     7
  0
ENDTAB
  0
ENDSEC
  0
SECTION
  2
BLOCKS
  0
BLOCK
  8
0
  2
$MODEL_SPACE
 70
     0
 10
0.0
 20
0.0
 30
0.0
  3
$MODEL_SPACE
  1

  0
ENDBLK
  5
76
  8
0
  0
BLOCK
 67
     1
  8
0
  2
$PAPER_SPACE
 70
     0
 10
0.0
 20
0.0
 30
0.0
  3
$PAPER_SPACE
  1

  0
ENDBLK
  5
72
 67
     1
  8
0
  0
BLOCK
  8
OUTLINE
  2
DOT1
 70
     0
 10
0.0
 20
0.0
 30
0.0
  3
DOT1
  1

  0
CIRCLE
  5
99
  8
SIZE
  6
CONTINUOUS
 62
     7
 10
0.0
 20
0.0
 30
0.0
 40
3.0
  0
ENDBLK
  5
9A
  8
OUTLINE
  0
ENDSEC
  0
SECTION
  2
ENTITIES
  0
LINE
  5
9E
  8
DETAIL
  6
CONTINUOUS
 62
     5
 10
18.595694000000002
 20
-97.105461000000005
 30
0.0
 11
0.0
 21
-97.105461000000005
 31
0.0
  0
LINE
  5
9F
  8
DETAIL
  6
CONTINUOUS
 62
     5
 10
0.0
 20
-145.75001700000001
 30
0.0
 11
58.501049999999999
 21
-145.75001700000001
 31
0.0
  0
LINE
  5
A0
  8
DETAIL
  6
CONTINUOUS
 62
     5
 10
0.0
 20
-144.24225799999999
 30
0.0
 11
30.217099999999999
 21
-144.24225799999999
 31
0.0
  0
LINE
  5
A1
  8
DETAIL
  6
CONTINUOUS
 62
     5
 10
0.0
 20
-142.13140200000001
 30
0.0
 11
26.054212
 21
-142.13140200000001
 31
0.0
  0
LINE
  5
A2
  8
DETAIL
  6
CONTINUOUS
 62
     5
 10
0.0
 20
-143.739666
 30
0.0
 11
11.861038000000001
 21
-143.739666
 31
0.0
  0
LINE
  5
A3
  8
DETAIL
  6
CONTINUOUS
 62
     5
 10
14.072417
 20
-120.01759699999999
 30
0.0
 11
0.0
 21
-120.01759699999999
 31
0.0
  0
LINE
  5
A4
  8
DETAIL
  6
CONTINUOUS
 62
     5
 10
13.067245
 20
-121.02276999999999
 30
0.0
 11
0.0
 21
-121.02276999999999
 31
0.0
  0
LINE
  5
A5
  8
DETAIL
  6
CONTINUOUS
 62
     5
 10
0.0
 20
-123.535701
 30
0.0
 11
14.072417
 21
-123.535701
 31
0.0
  0
LINE
  5
A6
  8
DETAIL
  6
CONTINUOUS
 62
     5
 10
0.0
 20
-121.02276999999999
 30
0.0
 11
14.072417
 21
-121.02276999999999
 31
0.0
  0
LINE
  5
A7
  8
DETAIL
  6
CONTINUOUS
 62
     5
 10
0.0
 20
-125.546047
 30
0.0
 11
14.072417
 21
-125.546047
 31
0.0
  0
LINE
  5
A8
  8
DETAIL
  6
CONTINUOUS
 62
     5
 10
15.077536
 20
-127.55640099999999
 30
0.0
 11
0.0
 21
-127.55640099999999
 31
0.0
  0
CIRCLE
  5
A9
  8
ARRANGE
  6
CONTINUOUS
 62
     1
 10
0.0
 20
0.0
 30
0.0
 40
40.0
  0
ARC
  5
AA
  8
DETAIL
  6
CONTINUOUS
 62
     5
 10
-0.123717
 20
-284.16153400000002
 30
0.0
 40
4.511703999999999
 50
218.60818599999999
 51
343.15384699999998
  0
ARC
  5
AB
  8
DETAIL
  6
CONTINUOUS
 62
     5
 10
-0.114704
 20
-284.16919000000001
 30
0.0
 40
4.4998839999999989
 50
196.78988799999999
 51
321.39637499999998
  0
ARC
  5
AC
  8
OUTLINE
  6
CONTINUOUS
 62
     3
 10
-0.114704
 20
-284.16919000000001
 30
0.0
 40
4.4998839999999989
 50
196.78988799999999
 51
321.39637499999998
  0
ARC
  5
AD
  8
OUTLINE
  6
CONTINUOUS
 62
     3
 10
-0.123717
 20
-284.16153400000002
 30
0.0
 40
4.511703999999999
 50
218.60818599999999
 51
343.15384699999998
  0
LINE
  5
AE
  8
DETAIL
  6
CONTINUOUS
 62
     5
 10
-0.228386
 20
-285.46903900000001
 30
0.0
 11
58.198146999999999
 21
-285.46903900000001
 31
0.0
  0
LINE
  5
AF
  8
DETAIL
  6
CONTINUOUS
 62
     5
 10
29.989077999999999
 20
-287.0
 30
0.0
 11
-0.228386
 21
-287.0
 31
0.0
  0
LINE
  5
B0
  8
OUTLINE
  6
CONTINUOUS
 62
     3
 10
29.989077999999999
 20
-287.0
 30
0.0
 11
-0.228386
 21
-287.0
 31
0.0
  0
LINE
  5
B1
  8
OUTLINE
  6
CONTINUOUS
 62
     3
 10
-0.228386
 20
-285.46903900000001
 30
0.0
 11
58.198146999999999
 21
-285.46903900000001
 31
0.0
  0
LINE
  5
B2
  8
BASIS
  6
DASHDOT
 62
     6
 39
100.110011
 10
-0.2656449999999999
 20
-312.35121700000002
 30
-100.110011
 11
0.195981
 21
2.3509889999999989
 31
-100.110011
  0
LINE
  5
B3
  8
SIZE
  6
CONTINUOUS
 62
    30
 10
-279.997007
 20
40.0
 30
0.0
 11
-279.98248599999999
 21
137.01669799999999
 31
0.0
  0
LINE
  5
B4
  8
SIZE
  6
CONTINUOUS
 62
    30
 10
280.002993
 20
37.244228999999997
 30
0.0
 11
280.01791400000002
 21
136.932883
 31
0.0
  0
LINE
  5
B5
  8
SIZE
  6
CONTINUOUS
 62
    30
 10
-277.98697600000003
 20
107.01639900000001
 30
0.0
 11
278.0134240000001
 21
106.933183
 31
0.0
  0
CIRCLE
  5
B6
  8
SIZE
  6
CONTINUOUS
 62
    30
 10
-279.98697599999991
 20
107.016699
 30
0.0
 40
6.0
  0
CIRCLE
  5
B7
  8
SIZE
  6
CONTINUOUS
 62
    30
 10
280.0134240000001
 20
106.932883
 30
0.0
 40
6.0
  0
TEXT
  5
B8
  8
SIZE
  6
CONTINUOUS
 62
    30
 10
-74.040187024071145
 20
131.98589809711879
 30
0.0
 40
64.0
  1
560
 50
359.99140599999998
 41
0.9
 72
     1
 11
0.016955
 21
131.97479000000001
 31
0.0
  0
POINT
  5
B9
  8
DEFPOINTS
  6
CONTINUOUS
 62
    30
 10
-280.0
 20
20.0
 30
0.0
  0
POINT
  5
BA
  8
DEFPOINTS
  6
CONTINUOUS
 62
    30
 10
280.0
 20
17.244229999999991
 30
0.0
  0
POINT
  5
BB
  8
DEFPOINTS
  6
CONTINUOUS
 62
    30
 10
280.0134240000001
 20
106.932883
 30
0.0
  0
LINE
  5
BC
  8
SIZE
  6
CONTINUOUS
 62
    30
 10
-309.997342
 20
17.781827
 30
0.0
 11
-309.95977499999998
 21
268.78347599999989
 31
0.0
  0
LINE
  5
BD
  8
SIZE
  6
CONTINUOUS
 62
    30
 10
310.00264099999998
 20
17.647100999999999
 30
0.0
 11
310.04021499999999
 21
268.69068099999998
 31
0.0
  0
LINE
  5
BE
  8
SIZE
  6
CONTINUOUS
 62
    30
 10
-307.96426500000001
 20
238.78317699999999
 30
0.0
 11
308.03572500000001
 21
238.69098
 31
0.0
  0
CIRCLE
  5
BF
  8
SIZE
  6
CONTINUOUS
 62
    30
 10
-309.96426500000001
 20
238.78347600000001
 30
0.0
 40
6.0
  0
CIRCLE
  5
C0
  8
SIZE
  6
CONTINUOUS
 62
    30
 10
310.03572500000001
 20
238.69068100000001
 30
0.0
 40
6.0
  0
TEXT
  5
C1
  8
SIZE
  6
CONTINUOUS
 62
    30
 10
-74.017681024071138
 20
263.74818609711878
 30
0.0
 40
64.0
  1
620
 50
359.99140599999998
 41
0.9
 72
     1
 11
0.039461
 21
263.737078
 31
0.0
  0
POINT
  5
C2
  8
DEFPOINTS
  6
CONTINUOUS
 62
    30
 10
-310.00033500000001
 20
-2.2181730000000002
 30
0.0
  0
POINT
  5
C3
  8
DEFPOINTS
  6
CONTINUOUS
 62
    30
 10
309.99964799999998
 20
-2.3528989999999999
 30
0.0
  0
POINT
  5
C4
  8
DEFPOINTS
  6
CONTINUOUS
 62
    30
 10
310.03572500000001
 20
238.69068100000001
 30
0.0
  0
LINE
  5
C5
  8
SIZE
  6
CONTINUOUS
 62
    30
 10
65.234356000000005
 20
-298.43282999999991
 30
0.0
 11
65.234356000000005
 21
-483.83746200000002
 31
0.0
  0
LINE
  5
C6
  8
SIZE
  6
CONTINUOUS
 62
    30
 10
-65.765643999999995
 20
-298.43282999999991
 30
0.0
 11
-65.765643999999995
 21
-483.83746200000002
 31
0.0
  0
LINE
  5
C7
  8
SIZE
  6
CONTINUOUS
 62
    30
 10
63.234355999999998
 20
-453.8374619999999
 30
0.0
 11
-63.765643999999988
 21
-453.8374619999999
 31
0.0
  0
LINE
  5
C8
  8
SIZE
  6
CONTINUOUS
 62
    30
 10
-65.765643999999995
 20
-453.8374619999999
 30
0.0
 11
-282.33707299999998
 21
-453.8374619999999
 31
0.0
  0
CIRCLE
  5
C9
  8
SIZE
  6
CONTINUOUS
 62
    30
 10
65.234356000000005
 20
-453.8374619999999
 30
0.0
 40
6.0
  0
CIRCLE
  5
CA
  8
SIZE
  6
CONTINUOUS
 62
    30
 10
-65.765643999999995
 20
-453.8374619999999
 30
0.0
 40
6.0
  0
TEXT
  5
CB
  8
SIZE
  6
CONTINUOUS
 62
    30
 10
-271.59993042857138
 20
-428.8374619999999
 30
0.0
 40
64.0
  1
φ131
 41
0.9
 72
     1
 11
-175.05135899999999
 21
-428.8374619999999
 31
0.0
  0
POINT
  5
CC
  8
DEFPOINTS
  6
CONTINUOUS
 62
    30
 10
65.234356000000005
 20
-278.43283000000002
 30
0.0
  0
POINT
  5
CD
  8
DEFPOINTS
  6
CONTINUOUS
 62
    30
 10
-65.765643999999995
 20
-278.43283000000002
 30
0.0
  0
POINT
  5
CE
  8
DEFPOINTS
  6
CONTINUOUS
 62
    30
 10
-65.765643999999995
 20
-453.8374619999999
 30
0.0
  0
LINE
  5
CF
  8
DETAIL
  6
CONTINUOUS
 62
     5
 10
287.47938399999998
 20
-20.103452999999998
 30
0.0
 11
0.0
 21
-20.103452999999998
 31
0.0
  0
LINE
  5
D0
  8
DETAIL
  6
CONTINUOUS
 62
     5
 10
224.60158200000001
 20
-89.460367999999988
 30
0.0
 11
0.0
 21
-89.460367999999988
 31
0.0
  0
LINE
  5
D1
  8
DETAIL
  6
CONTINUOUS
 62
     5
 10
224.60158200000001
 20
-95.491320000000002
 30
0.0
 11
0.0
 21
-95.491320000000002
 31
0.0
  0
LINE
  5
D2
  8
DETAIL
  6
CONTINUOUS
 62
     5
 10
303.76318100000009
 20
-10.051727
 30
0.0
 11
0.0
 21
-10.051727
 31
0.0
  0
LINE
  5
D3
  8
DETAIL
  6
CONTINUOUS
 62
     5
 10
309.10064899999998
 20
-7.7398300000000004
 30
0.0
 11
0.0
 21
-7.7398300000000004
 31
0.0
  0
LINE
  5
D4
  8
DETAIL
  6
CONTINUOUS
 62
     5
 10
309.291631
 20
0.0
 30
0.0
 11
0.0
 21
0.0
 31
0.0
  0
LINE
  5
D5
  8
OUTLINE
  6
CONTINUOUS
 62
     3
 10
309.291631
 20
0.0
 30
0.0
 11
0.0
 21
0.0
 31
0.0
  0
LINE
  5
D6
  8
OUTLINE
  6
CONTINUOUS
 62
     3
 10
309.10064899999998
 20
-7.7398300000000004
 30
0.0
 11
0.0
 21
-7.7398300000000004
 31
0.0
  0
LINE
  5
D7
  8
OUTLINE
  6
CONTINUOUS
 62
     3
 10
303.76318100000009
 20
-10.051727
 30
0.0
 11
0.0
 21
-10.051727
 31
0.0
  0
LINE
  5
D8
  8
OUTLINE
  6
CONTINUOUS
 62
     3
 10
224.60158200000001
 20
-95.491320000000002
 30
0.0
 11
0.0
 21
-95.491320000000002
 31
0.0
  0
LINE
  5
D9
  8
OUTLINE
  6
CONTINUOUS
 62
     3
 10
224.60158200000001
 20
-89.460367999999988
 30
0.0
 11
0.0
 21
-89.460367999999988
 31
0.0
  0
LINE
  5
DA
  8
OUTLINE
  6
CONTINUOUS
 62
     3
 10
287.47938399999998
 20
-20.103452999999998
 30
0.0
 11
0.0
 21
-20.103452999999998
 31
0.0
  0
LINE
  5
DB
  8
DETAIL
  6
CONTINUOUS
 62
     5
 10
0.0
 20
-219.127622
 30
0.0
 11
81.821039999999996
 21
-219.127622
 31
0.0
  0
LINE
  5
DC
  8
DETAIL
  6
CONTINUOUS
 62
     5
 10
0.0
 20
-178.920716
 30
0.0
 11
81.821039999999996
 21
-178.920716
 31
0.0
  0
LINE
  5
DD
  8
DETAIL
  6
CONTINUOUS
 62
     5
 10
72.372431999999989
 20
-219.127622
 30
0.0
 11
0.0
 21
-219.127622
 31
0.0
  0
LINE
  5
DE
  8
OUTLINE
  6
CONTINUOUS
 62
     3
 10
72.372431999999989
 20
-219.127622
 30
0.0
 11
0.0
 21
-219.127622
 31
0.0
  0
LINE
  5
DF
  8
OUTLINE
  6
CONTINUOUS
 62
     3
 10
0.0
 20
-219.127622
 30
0.0
 11
81.821039999999996
 21
-219.127622
 31
0.0
  0
LINE
  5
E0
  8
DETAIL
  6
CONTINUOUS
 62
     5
 10
0.0
 20
-221.137968
 30
0.0
 11
85.942262999999997
 21
-221.137968
 31
0.0
  0
LINE
  5
E1
  8
DETAIL
  6
CONTINUOUS
 62
     5
 10
0.0
 20
-223.14833300000001
 30
0.0
 11
90.465632999999997
 21
-223.14833300000001
 31
0.0
  0
LINE
  5
E2
  8
DETAIL
  6
CONTINUOUS
 62
     5
 10
154.23949500000001
 20
-228.17419699999999
 30
0.0
 11
0.0
 21
-228.17419699999999
 31
0.0
  0
LINE
  5
E3
  8
OUTLINE
  6
CONTINUOUS
 62
     3
 10
154.23949500000001
 20
-228.17419699999999
 30
0.0
 11
0.0
 21
-228.17419699999999
 31
0.0
  0
LINE
  5
E4
  8
OUTLINE
  6
CONTINUOUS
 62
     3
 10
0.0
 20
-223.14833300000001
 30
0.0
 11
90.465632999999997
 21
-223.14833300000001
 31
0.0
  0
LINE
  5
E5
  8
OUTLINE
  6
CONTINUOUS
 62
     3
 10
0.0
 20
-221.137968
 30
0.0
 11
85.942262999999997
 21
-221.137968
 31
0.0
  0
LINE
  5
E6
  8
DETAIL
  6
CONTINUOUS
 62
     5
 10
0.0
 20
-264.36041299999999
 30
0.0
 11
95.189894999999993
 21
-264.36041299999999
 31
0.0
  0
LINE
  5
E7
  8
DETAIL
  6
CONTINUOUS
 62
     5
 10
149.083021
 20
-260.33972199999999
 30
0.0
 11
0.0
 21
-260.33972199999999
 31
0.0
  0
LINE
  5
E8
  8
OUTLINE
  6
CONTINUOUS
 62
     3
 10
149.083021
 20
-260.33972199999999
 30
0.0
 11
0.0
 21
-260.33972199999999
 31
0.0
  0
LINE
  5
E9
  8
OUTLINE
  6
CONTINUOUS
 62
     3
 10
0.0
 20
-264.36041299999999
 30
0.0
 11
95.189894999999993
 21
-264.36041299999999
 31
0.0
  0
ARC
  5
EA
  8
DETAIL
  6
CONTINUOUS
 62
     5
 10
-309.291631
 20
-2.3118970000000001
 30
0.0
 40
2.3118970000000001
 50
90.0
 51
196.754805
  0
ARC
  5
EB
  8
OUTLINE
  6
CONTINUOUS
 62
     3
 10
-309.291631
 20
-2.3118970000000001
 30
0.0
 40
2.3118970000000001
 50
90.0
 51
196.754805
  0
LINE
  5
EC
  8
NOTE
  6
CONTINUOUS
 62
     4
 10
-300.0
 20
0.0
 30
0.0
 11
-260.0
 21
0.0
 31
0.0
  0
LINE
  5
ED
  8
NOTE
  6
CONTINUOUS
 62
     4
 10
-280.0
 20
20.0
 30
0.0
 11
-280.0
 21
-20.0
 31
0.0
  0
LINE
  5
EE
  8
SIZE
  6
CONTINUOUS
 62
    30
 10
-316.13068099999998
 20
0.0
 30
0.0
 11
-696.48052999999993
 21
0.0
 31
0.0
  0
LINE
  5
EF
  8
SIZE
  6
CONTINUOUS
 62
    30
 10
-73.703571999999994
 20
-287.0
 30
0.0
 11
-696.48052999999993
 21
-287.0
 31
0.0
  0
LINE
  5
F0
  8
SIZE
  6
CONTINUOUS
 62
    30
 10
-666.48052999999993
 20
-2.0
 30
0.0
 11
-666.48052999999993
 21
-285.0
 31
0.0
  0
CIRCLE
  5
F1
  8
SIZE
  6
CONTINUOUS
 62
    30
 10
-666.48052999999993
 20
0.0
 30
0.0
 40
6.0
  0
CIRCLE
  5
F2
  8
SIZE
  6
CONTINUOUS
 62
    30
 10
-666.48052999999993
 20
-287.0
 30
0.0
 40
6.0
  0
TEXT
  5
F3
  8
SIZE
  6
CONTINUOUS
 62
    30
 10
-691.48052999999993
 20
-218.8020078571428
 30
0.0
 40
64.0
  1
287
 50
90.0
 41
0.9
 72
     1
 11
-691.48052999999993
 21
-144.744865
 31
0.0
  0
POINT
  5
F4
  8
DEFPOINTS
  6
CONTINUOUS
 62
    30
 10
-296.13068099999998
 20
0.0
 30
0.0
  0
POINT
  5
F5
  8
DEFPOINTS
  6
CONTINUOUS
 62
    30
 10
-53.703571999999987
 20
-287.0
 30
0.0
  0
POINT
  5
F6
  8
DEFPOINTS
  6
CONTINUOUS
 62
    30
 10
-666.48052999999993
 20
-287.0
 30
0.0
  0
LINE
  5
F7
  8
SIZE
  6
CONTINUOUS
 62
    30
 10
-320.0
 20
0.0
 30
0.0
 11
-565.52584399999989
 21
0.0
 31
0.0
  0
LINE
  5
F8
  8
SIZE
  6
CONTINUOUS
 62
    30
 10
-306.09560599999998
 20
-94.997838000000016
 30
0.0
 11
-565.52584399999989
 21
-94.997838000000016
 31
0.0
  0
LINE
  5
F9
  8
SIZE
  6
CONTINUOUS
 62
    30
 10
-535.52584400000001
 20
-92.997838000000002
 30
0.0
 11
-535.52584400000001
 21
-2.0
 31
0.0
  0
LINE
  5
FA
  8
SIZE
  6
CONTINUOUS
 62
    30
 10
-535.52584400000001
 20
0.0
 30
0.0
 11
-535.52584400000001
 21
145.25714300000001
 31
0.0
  0
CIRCLE
  5
FB
  8
SIZE
  6
CONTINUOUS
 62
    30
 10
-535.52584400000001
 20
-94.997838000000016
 30
0.0
 40
6.0
  0
CIRCLE
  5
FC
  8
SIZE
  6
CONTINUOUS
 62
    30
 10
-535.52584400000001
 20
0.0
 30
0.0
 40
6.0
  0
TEXT
  5
FD
  8
SIZE
  6
CONTINUOUS
 62
    30
 10
-560.52584400000001
 20
27.000000571428568
 30
0.0
 40
64.0
  1
95
 50
90.0
 41
0.9
 72
     1
 11
-560.52584400000001
 21
73.628571999999991
 31
0.0
  0
POINT
  5
FE
  8
DEFPOINTS
  6
CONTINUOUS
 62
    30
 10
-300.0
 20
0.0
 30
0.0
  0
POINT
  5
FF
  8
DEFPOINTS
  6
CONTINUOUS
 62
    30
 10
-286.09560599999998
 20
-94.997838000000016
 30
0.0
  0
POINT
  5
100
  8
DEFPOINTS
  6
CONTINUOUS
 62
    30
 10
-535.52584400000001
 20
-94.997838000000016
 30
0.0
  0
LINE
  5
101
  8
SIZE
  6
CONTINUOUS
 62
    30
 10
-299.999999
 20
0.002994
 30
0.0
 11
-442.57686100000001
 21
0.024333
 31
0.0
  0
LINE
  5
102
  8
SIZE
  6
CONTINUOUS
 62
    30
 10
-313.950264
 20
-9.9976739999999982
 30
0.0
 11
-442.57835799999998
 21
-9.9784220000000001
 31
0.0
  0
LINE
  5
103
  8
SIZE
  6
CONTINUOUS
 62
    30
 10
-412.57865699999991
 20
-11.982912000000001
 30
0.0
 11
-412.578957
 21
-13.982912000000001
 31
0.0
  0
LINE
  5
104
  8
SIZE
  6
CONTINUOUS
 62
    30
 10
-412.57656200000002
 20
2.0198429999999989
 30
0.0
 11
-412.54618399999993
 21
204.98265900000001
 31
0.0
  0
LINE
  5
105
  8
SIZE
  6
CONTINUOUS
 62
    30
 10
-412.57835799999998
 20
-9.9829119999999971
 30
0.0
 11
-412.57686099999989
 21
0.019843
 31
0.0
  0
CIRCLE
  5
106
  8
SIZE
  6
CONTINUOUS
 62
    30
 10
-412.57835799999998
 20
-9.9829119999999971
 30
0.0
 40
6.0
  0
CIRCLE
  5
107
  8
SIZE
  6
CONTINUOUS
 62
    30
 10
-412.57686099999989
 20
0.019843
 30
0.0
 40
6.0
  0
TEXT
  5
108
  8
SIZE
  6
CONTINUOUS
 62
    30
 10
-437.56225416506601
 20
97.700677319960477
 30
0.0
 40
64.0
  1
10
 50
89.991406000000026
 41
0.9
 72
     1
 11
-437.556083
 21
138.84353400000001
 31
0.0
  0
POINT
  5
109
  8
DEFPOINTS
  6
CONTINUOUS
 62
    30
 10
-280.0
 20
0.0
 30
0.0
  0
POINT
  5
10A
  8
DEFPOINTS
  6
CONTINUOUS
 62
    30
 10
-293.950265
 20
-10.000667
 30
0.0
  0
POINT
  5
10B
  8
DEFPOINTS
  6
CONTINUOUS
 62
    30
 10
-412.57835799999998
 20
-9.9829119999999971
 30
0.0
  0
LINE
  5
10C
  8
SIZE
  6
CONTINUOUS
 62
    30
 10
-313.950244
 20
-10.000667
 30
0.0
 11
-442.57865700000002
 21
-10.000667
 31
0.0
  0
LINE
  5
10D
  8
SIZE
  6
CONTINUOUS
 62
    30
 10
-300.0
 20
-20.0
 30
0.0
 11
-442.57865700000002
 21
-20.0
 31
0.0
  0
LINE
  5
10E
  8
SIZE
  6
CONTINUOUS
 62
    30
 10
-412.57865699999991
 20
-8.0006669999999982
 30
0.0
 11
-412.57865699999991
 21
-6.0006669999999991
 31
0.0
  0
LINE
  5
10F
  8
SIZE
  6
CONTINUOUS
 62
    30
 10
-412.57865699999991
 20
-22.0
 30
0.0
 11
-412.57865699999991
 21
-156.28571400000001
 31
0.0
  0
LINE
  5
110
  8
SIZE
  6
CONTINUOUS
 62
    30
 10
-412.57865699999991
 20
-10.000667
 30
0.0
 11
-412.57865699999991
 21
-20.0
 31
0.0
  0
CIRCLE
  5
111
  8
SIZE
  6
CONTINUOUS
 62
    30
 10
-412.57865699999991
 20
-10.000667
 30
0.0
 40
6.0
  0
CIRCLE
  5
112
  8
SIZE
  6
CONTINUOUS
 62
    30
 10
-412.57865699999991
 20
-20.0
 30
0.0
 40
6.0
  0
TEXT
  5
113
  8
SIZE
  6
CONTINUOUS
 62
    30
 10
-437.57865700000002
 20
-131.2857141428571
 30
0.0
 40
64.0
  1
10
 50
90.0
 41
0.9
 72
     1
 11
-437.57865700000002
 21
-90.142857000000006
 31
0.0
  0
POINT
  5
114
  8
DEFPOINTS
  6
CONTINUOUS
 62
    30
 10
-293.950244
 20
-10.000667
 30
0.0
  0
POINT
  5
115
  8
DEFPOINTS
  6
CONTINUOUS
 62
    30
 10
-280.0
 20
-20.0
 30
0.0
  0
POINT
  5
116
  8
DEFPOINTS
  6
CONTINUOUS
 62
    30
 10
-412.57865699999991
 20
-20.0
 30
0.0
  0
LINE
  5
117
  8
DETAIL
  6
CONTINUOUS
 62
     5
 10
-282.17344700000001
 20
-26.134488999999999
 30
0.0
 11
-194.038669
 21
-26.134488999999999
 31
0.0
  0
LINE
  5
118
  8
DETAIL
  6
CONTINUOUS
 62
     5
 10
-272.93355500000001
 20
-20.103452999999998
 30
0.0
 11
-203.27864700000001
 21
-20.103452999999998
 31
0.0
  0
LINE
  5
119
  8
OUTLINE
  6
CONTINUOUS
 62
     3
 10
-272.93355500000001
 20
-20.103452999999998
 30
0.0
 11
-203.27864700000001
 21
-20.103452999999998
 31
0.0
  0
LINE
  5
11A
  8
OUTLINE
  6
CONTINUOUS
 62
     3
 10
-282.17344700000001
 20
-26.134488999999999
 30
0.0
 11
-194.038669
 21
-26.134488999999999
 31
0.0
  0
LINE
  5
11B
  8
DETAIL
  6
CONTINUOUS
 62
     5
 10
-287.47938399999998
 20
-20.103452999999998
 30
0.0
 11
0.0
 21
-20.103452999999998
 31
0.0
  0
LINE
  5
11C
  8
DETAIL
  6
CONTINUOUS
 62
     5
 10
-309.291631
 20
0.0
 30
0.0
 11
0.0
 21
0.0
 31
0.0
  0
LINE
  5
11D
  8
DETAIL
  6
CONTINUOUS
 62
     5
 10
-309.10064899999998
 20
-7.7398300000000004
 30
0.0
 11
0.0
 21
-7.7398300000000004
 31
0.0
  0
LINE
  5
11E
  8
DETAIL
  6
CONTINUOUS
 62
     5
 10
-303.76318100000009
 20
-10.051727
 30
0.0
 11
0.0
 21
-10.051727
 31
0.0
  0
LINE
  5
11F
  8
OUTLINE
  6
CONTINUOUS
 62
     3
 10
-303.76318100000009
 20
-10.051727
 30
0.0
 11
0.0
 21
-10.051727
 31
0.0
  0
LINE
  5
120
  8
OUTLINE
  6
CONTINUOUS
 62
     3
 10
-309.10064899999998
 20
-7.7398300000000004
 30
0.0
 11
0.0
 21
-7.7398300000000004
 31
0.0
  0
LINE
  5
121
  8
OUTLINE
  6
CONTINUOUS
 62
     3
 10
-309.291631
 20
0.0
 30
0.0
 11
0.0
 21
0.0
 31
0.0
  0
LINE
  5
122
  8
OUTLINE
  6
CONTINUOUS
 62
     3
 10
-287.47938399999998
 20
-20.103452999999998
 30
0.0
 11
0.0
 21
-20.103452999999998
 31
0.0
  0
ARC
  5
123
  8
DETAIL
  6
CONTINUOUS
 62
     5
 10
-154.23949500000001
 20
-157.81210999999999
 30
0.0
 40
70.362087000000002
 50
180.0
 51
270.0
  0
ARC
  5
124
  8
DETAIL
  6
CONTINUOUS
 62
     5
 10
-144.818434
 20
-157.81210999999999
 30
0.0
 40
102.527613
 50
180.0
 51
270.0
  0
ARC
  5
125
  8
DETAIL
  6
CONTINUOUS
 62
     5
 10
-149.083021
 20
-157.81210999999999
 30
0.0
 40
102.527613
 50
180.0
 51
270.0
  0
ARC
  5
126
  8
OUTLINE
  6
CONTINUOUS
 62
     3
 10
-149.083021
 20
-157.81210999999999
 30
0.0
 40
102.527613
 50
180.0
 51
270.0
  0
ARC
  5
127
  8
OUTLINE
  6
CONTINUOUS
 62
     3
 10
-144.818434
 20
-157.81210999999999
 30
0.0
 40
102.527613
 50
180.0
 51
270.0
  0
ARC
  5
128
  8
OUTLINE
  6
CONTINUOUS
 62
     3
 10
-154.23949500000001
 20
-157.81210999999999
 30
0.0
 40
70.362087000000002
 50
180.0
 51
270.0
  0
LINE
  5
129
  8
DETAIL
  6
CONTINUOUS
 62
     5
 10
-247.346047
 20
-157.81210999999999
 30
0.0
 11
-247.346047
 21
-26.134488999999999
 31
0.0
  0
LINE
  5
12A
  8
DETAIL
  6
CONTINUOUS
 62
     5
 10
-251.610634
 20
-157.81210999999999
 30
0.0
 11
-251.610634
 21
-26.134488999999999
 31
0.0
  0
LINE
  5
12B
  8
OUTLINE
  6
CONTINUOUS
 62
     3
 10
-251.610634
 20
-157.81210999999999
 30
0.0
 11
-251.610634
 21
-26.134488999999999
 31
0.0
  0
LINE
  5
12C
  8
OUTLINE
  6
CONTINUOUS
 62
     3
 10
-247.346047
 20
-157.81210999999999
 30
0.0
 11
-247.346047
 21
-26.134488999999999
 31
0.0
  0
ARC
  5
12D
  8
DETAIL
  6
CONTINUOUS
 62
     5
 10
-307.38180299999999
 20
-44.829180999999998
 30
0.0
 40
50.258634000000001
 50
297.32044400000001
 51
0.0
  0
ARC
  5
12E
  8
OUTLINE
  6
CONTINUOUS
 62
     3
 10
-307.38180299999999
 20
-44.829180999999998
 30
0.0
 40
50.258634000000001
 50
297.32044400000001
 51
0.0
  0
LINE
  5
12F
  8
DETAIL
  6
CONTINUOUS
 62
     5
 10
-301.049215
 20
-89.460367999999988
 30
0.0
 11
-251.610634
 21
-89.460367999999988
 31
0.0
  0
LINE
  5
130
  8
DETAIL
  6
CONTINUOUS
 62
     5
 10
-301.071708
 20
-95.491320000000002
 30
0.0
 11
-251.610634
 21
-95.491320000000002
 31
0.0
  0
LINE
  5
131
  8
OUTLINE
  6
CONTINUOUS
 62
     3
 10
-301.071708
 20
-95.491320000000002
 30
0.0
 11
-251.610634
 21
-95.491320000000002
 31
0.0
  0
LINE
  5
132
  8
OUTLINE
  6
CONTINUOUS
 62
     3
 10
-301.049215
 20
-89.460367999999988
 30
0.0
 11
-251.610634
 21
-89.460367999999988
 31
0.0
  0
ARC
  5
133
  8
DETAIL
  6
CONTINUOUS
 62
     5
 10
-301.049215
 20
-92.475886000000003
 30
0.0
 40
3.0155180000000001
 50
90.0
 51
269.57263699999999
  0
ARC
  5
134
  8
OUTLINE
  6
CONTINUOUS
 62
     3
 10
-301.049215
 20
-92.475886000000003
 30
0.0
 40
3.0155180000000001
 50
90.0
 51
269.57263699999999
  0
ARC
  5
135
  8
DETAIL
  6
CONTINUOUS
 62
     5
 10
-294.2917490000001
 20
-14.072417
 30
0.0
 40
4.0206910000000002
 50
0.0
 51
90.0
  0
ARC
  5
136
  8
OUTLINE
  6
CONTINUOUS
 62
     3
 10
-294.2917490000001
 20
-14.072417
 30
0.0
 40
4.0206910000000002
 50
0.0
 51
90.0
  0
ARC
  5
137
  8
DETAIL
  6
CONTINUOUS
 62
     5
 10
-286.25036699999998
 20
-16.082763
 30
0.0
 40
4.0206910000000002
 50
180.0
 51
269.999999
  0
ARC
  5
138
  8
DETAIL
  6
CONTINUOUS
 62
     5
 10
-287.47938399999998
 20
-16.082763
 30
0.0
 40
4.0206910000000002
 50
180.0
 51
270.0
  0
ARC
  5
139
  8
OUTLINE
  6
CONTINUOUS
 62
     3
 10
-287.47938399999998
 20
-16.082763
 30
0.0
 40
4.0206910000000002
 50
180.0
 51
270.0
  0
ARC
  5
13A
  8
OUTLINE
  6
CONTINUOUS
 62
     3
 10
-286.25036699999998
 20
-16.082763
 30
0.0
 40
4.0206910000000002
 50
180.0
 51
269.999999
  0
ARC
  5
13B
  8
DETAIL
  6
CONTINUOUS
 62
     5
 10
-303.76318199999997
 20
-6.0310360000000003
 30
0.0
 40
4.0206910000000002
 50
205.19493300000011
 51
270.0
  0
ARC
  5
13C
  8
OUTLINE
  6
CONTINUOUS
 62
     3
 10
-303.76318199999997
 20
-6.0310360000000003
 30
0.0
 40
4.0206910000000002
 50
205.19493300000011
 51
270.0
  0
ARC
  5
13D
  8
DETAIL
  6
CONTINUOUS
 62
     5
 10
-295.52076600000009
 20
-14.072417
 30
0.0
 40
4.0206910000000002
 50
0.0
 51
90.0
  0
LINE
  5
13E
  8
DETAIL
  6
CONTINUOUS
 62
     5
 10
-291.50007499999998
 20
-16.082763
 30
0.0
 11
-291.50007499999998
 21
-14.072417
 31
0.0
  0
LINE
  5
13F
  8
DETAIL
  6
CONTINUOUS
 62
     5
 10
-290.27105799999998
 20
-14.072417
 30
0.0
 11
-290.27105799999998
 21
-16.082763
 31
0.0
  0
LINE
  5
140
  8
OUTLINE
  6
CONTINUOUS
 62
     3
 10
-290.27105799999998
 20
-14.072417
 30
0.0
 11
-290.27105799999998
 21
-16.082763
 31
0.0
  0
LINE
  5
141
  8
OUTLINE
  6
CONTINUOUS
 62
     3
 10
-291.50007499999998
 20
-16.082763
 30
0.0
 11
-291.50007499999998
 21
-14.072417
 31
0.0
  0
ARC
  5
142
  8
OUTLINE
  6
CONTINUOUS
 62
     3
 10
-295.52076600000009
 20
-14.072417
 30
0.0
 40
4.0206910000000002
 50
0.0
 51
90.0
  0
ARC
  5
143
  8
DETAIL
  6
CONTINUOUS
 62
     5
 10
-309.10064899999998
 20
-6.4331050000000003
 30
0.0
 40
1.3067239999999991
 50
196.754805
 51
270.0
  0
LINE
  5
144
  8
DETAIL
  6
CONTINUOUS
 62
     5
 10
-311.505382
 20
-2.9783629999999999
 30
0.0
 11
-310.351899
 21
-6.8098029999999987
 31
0.0
  0
LINE
  5
145
  8
OUTLINE
  6
CONTINUOUS
 62
     3
 10
-311.505382
 20
-2.9783629999999999
 30
0.0
 11
-310.351899
 21
-6.8098029999999987
 31
0.0
  0
ARC
  5
146
  8
OUTLINE
  6
CONTINUOUS
 62
     3
 10
-309.10064899999998
 20
-6.4331050000000003
 30
0.0
 40
1.3067239999999991
 50
196.754805
 51
270.0
  0
LINE
  5
147
  8
DETAIL
  6
DASHED
 62
     5
 10
-250.84934699999999
 20
-10.051727
 30
0.0
 11
-260.901073
 21
-10.051727
 31
0.0
  0
LINE
  5
148
  8
OUTLINE
  6
DASHED
 62
     3
 10
-250.84934699999999
 20
-10.051727
 30
0.0
 11
-260.901073
 21
-10.051727
 31
0.0
  0
ARC
  5
149
  8
DETAIL
  6
CONTINUOUS
 62
     5
 10
-277.22662300000002
 20
-40.206907000000001
 30
0.0
 40
20.103452999999998
 50
0.0
 51
17.457619999999999
  0
LINE
  5
14A
  8
DETAIL
  6
CONTINUOUS
 62
     5
 10
-257.12317000000002
 20
-44.829180999999998
 30
0.0
 11
-257.12317000000002
 21
-40.206907000000001
 31
0.0
  0
LINE
  5
14B
  8
DETAIL
  6
CONTINUOUS
 62
     5
 10
-264.16789399999999
 20
-34.175865000000002
 30
0.0
 11
-251.610634
 21
-34.175865000000002
 31
0.0
  0
ARC
  5
14C
  8
DETAIL
  6
CONTINUOUS
 62
     5
 10
-255.87521000000001
 20
-20.315645
 30
0.0
 40
13.86022
 50
249.18466100000001
 51
287.91974800000003
  0
LINE
  5
14D
  8
DETAIL
  6
CONTINUOUS
 62
     5
 10
-272.93355500000001
 20
-20.103452999999998
 30
0.0
 11
-272.93355500000001
 21
-26.134488999999999
 31
0.0
  0
LINE
  5
14E
  8
DETAIL
  6
CONTINUOUS
 62
     5
 10
-282.17344700000001
 20
-20.103452999999998
 30
0.0
 11
-282.17344700000001
 21
-26.134488999999999
 31
0.0
  0
ARC
  5
14F
  8
DETAIL
  6
CONTINUOUS
 62
     5
 10
-263.26322699999997
 20
-30.37154000000001
 30
0.0
 40
3.8043219999999991
 50
270.00001800000001
 51
310.3409759999999
  0
LINE
  5
150
  8
DETAIL
  6
CONTINUOUS
 62
     5
 10
-260.80055499999997
 20
-26.13449
 30
0.0
 11
-260.80055499999997
 21
-33.271214999999998
 31
0.0
  0
LINE
  5
151
  8
DETAIL
  6
CONTINUOUS
 62
     5
 10
-265.72590200000002
 20
-33.271214999999998
 30
0.0
 11
-265.72590200000002
 21
-26.134488999999999
 31
0.0
  0
LINE
  5
152
  8
DETAIL
  6
CONTINUOUS
 62
     5
 10
-264.167888
 20
-34.175877
 30
0.0
 11
-265.72590600000001
 21
-33.271222000000002
 31
0.0
  0
ARC
  5
153
  8
DETAIL
  6
CONTINUOUS
 62
     5
 10
-277.22662300000002
 20
-40.206907000000001
 30
0.0
 40
20.103452999999998
 50
77.669599000000005
 51
90.0
  0
ARC
  5
154
  8
OUTLINE
  6
CONTINUOUS
 62
     3
 10
-277.22662300000002
 20
-40.206907000000001
 30
0.0
 40
20.103452999999998
 50
0.0
 51
17.457619999999999
  0
LINE
  5
155
  8
OUTLINE
  6
CONTINUOUS
 62
     3
 10
-257.12317000000002
 20
-44.829180999999998
 30
0.0
 11
-257.12317000000002
 21
-40.206907000000001
 31
0.0
  0
ARC
  5
156
  8
OUTLINE
  6
CONTINUOUS
 62
     3
 10
-277.22662300000002
 20
-40.206907000000001
 30
0.0
 40
20.103452999999998
 50
77.669599000000005
 51
90.0
  0
LINE
  5
157
  8
OUTLINE
  6
CONTINUOUS
 62
     3
 10
-264.167888
 20
-34.175877
 30
0.0
 11
-265.72590600000001
 21
-33.271222000000002
 31
0.0
  0
LINE
  5
158
  8
OUTLINE
  6
CONTINUOUS
 62
     3
 10
-265.72590200000002
 20
-33.271214999999998
 30
0.0
 11
-265.72590200000002
 21
-26.134488999999999
 31
0.0
  0
LINE
  5
159
  8
OUTLINE
  6
CONTINUOUS
 62
     3
 10
-260.80055499999997
 20
-26.13449
 30
0.0
 11
-260.80055499999997
 21
-33.271214999999998
 31
0.0
  0
ARC
  5
15A
  8
OUTLINE
  6
CONTINUOUS
 62
     3
 10
-263.26322699999997
 20
-30.37154000000001
 30
0.0
 40
3.8043219999999991
 50
270.00001800000001
 51
310.3409759999999
  0
LINE
  5
15B
  8
OUTLINE
  6
CONTINUOUS
 62
     3
 10
-282.17344700000001
 20
-20.103452999999998
 30
0.0
 11
-282.17344700000001
 21
-26.134488999999999
 31
0.0
  0
LINE
  5
15C
  8
OUTLINE
  6
CONTINUOUS
 62
     3
 10
-272.93355500000001
 20
-20.103452999999998
 30
0.0
 11
-272.93355500000001
 21
-26.134488999999999
 31
0.0
  0
ARC
  5
15D
  8
OUTLINE
  6
CONTINUOUS
 62
     3
 10
-255.87521000000001
 20
-20.315645
 30
0.0
 40
13.86022
 50
249.18466100000001
 51
287.91974800000003
  0
LINE
  5
15E
  8
OUTLINE
  6
CONTINUOUS
 62
     3
 10
-264.16789399999999
 20
-34.175865000000002
 30
0.0
 11
-251.610634
 21
-34.175865000000002
 31
0.0
  0
LINE
  5
15F
  8
DETAIL
  6
CONTINUOUS
 62
     5
 10
-265.72590200000002
 20
-26.134488999999999
 30
0.0
 11
-246.024518
 21
-26.134488999999999
 31
0.0
  0
LINE
  5
160
  8
OUTLINE
  6
CONTINUOUS
 62
     3
 10
-265.72590200000002
 20
-26.134488999999999
 30
0.0
 11
-246.024518
 21
-26.134488999999999
 31
0.0
  0
LINE
  5
161
  8
DETAIL
  6
CONTINUOUS
 62
     5
 10
-65.827194999999989
 20
-166.55709200000001
 30
0.0
 11
-65.827194999999989
 21
-157.10846900000001
 31
0.0
  0
LINE
  5
162
  8
DETAIL
  6
CONTINUOUS
 62
     5
 10
-65.537257999999994
 20
-157.10846900000001
 30
0.0
 11
-65.537257999999994
 21
-166.55709200000001
 31
0.0
  0
ARC
  5
163
  8
DETAIL
  6
CONTINUOUS
 62
     5
 10
-61.918635999999999
 20
-161.83278000000001
 30
0.0
 40
6.1315540000000004
 50
129.60196500000001
 51
230.39801700000001
  0
LINE
  5
164
  8
DETAIL
  6
CONTINUOUS
 62
     5
 10
-65.537257999999994
 20
-152.786226
 30
0.0
 11
-65.537257999999994
 21
-178.920716
 31
0.0
  0
LINE
  5
165
  8
DETAIL
  6
CONTINUOUS
 62
     5
 10
-154.23949500000001
 20
-228.17419699999999
 30
0.0
 11
0.0
 21
-228.17419699999999
 31
0.0
  0
LINE
  5
166
  8
DETAIL
  6
CONTINUOUS
 62
     5
 10
-149.083021
 20
-260.33972199999999
 30
0.0
 11
0.0
 21
-260.33972199999999
 31
0.0
  0
LINE
  5
167
  8
OUTLINE
  6
CONTINUOUS
 62
     3
 10
-149.083021
 20
-260.33972199999999
 30
0.0
 11
0.0
 21
-260.33972199999999
 31
0.0
  0
LINE
  5
168
  8
OUTLINE
  6
CONTINUOUS
 62
     3
 10
-154.23949500000001
 20
-228.17419699999999
 30
0.0
 11
0.0
 21
-228.17419699999999
 31
0.0
  0
LINE
  5
169
  8
DETAIL
  6
CONTINUOUS
 62
     5
 10
-58.025815000000001
 20
-285.49224099999998
 30
0.0
 11
-56.518056000000009
 21
-287.0
 31
0.0
  0
LINE
  5
16A
  8
OUTLINE
  6
CONTINUOUS
 62
     3
 10
-58.025815000000001
 20
-285.49224099999998
 30
0.0
 11
-56.518056000000009
 21
-287.0
 31
0.0
  0
LINE
  5
16B
  8
DETAIL
  6
CONTINUOUS
 62
     5
 10
-0.228386
 20
-285.49224099999998
 30
0.0
 11
-58.729436
 21
-285.49224099999998
 31
0.0
  0
LINE
  5
16C
  8
OUTLINE
  6
CONTINUOUS
 62
     3
 10
-0.228386
 20
-285.49224099999998
 30
0.0
 11
-58.729436
 21
-285.49224099999998
 31
0.0
  0
LINE
  5
16D
  8
DETAIL
  6
CONTINUOUS
 62
     5
 10
0.0
 20
-264.36041299999999
 30
0.0
 11
-95.189894999999993
 21
-264.36041299999999
 31
0.0
  0
LINE
  5
16E
  8
OUTLINE
  6
CONTINUOUS
 62
     3
 10
0.0
 20
-264.36041299999999
 30
0.0
 11
-95.189894999999993
 21
-264.36041299999999
 31
0.0
  0
LINE
  5
16F
  8
DETAIL
  6
CONTINUOUS
 62
     5
 10
-95.189894999999993
 20
-260.33972199999999
 30
0.0
 11
-95.189894999999993
 21
-264.36041299999999
 31
0.0
  0
LINE
  5
170
  8
OUTLINE
  6
CONTINUOUS
 62
     3
 10
-95.189894999999993
 20
-260.33972199999999
 30
0.0
 11
-95.189894999999993
 21
-264.36041299999999
 31
0.0
  0
LINE
  5
171
  8
DETAIL
  6
CONTINUOUS
 62
     5
 10
-65.537257999999994
 20
-264.66196500000001
 30
0.0
 11
-65.827194999999989
 21
-264.66196500000001
 31
0.0
  0
LINE
  5
172
  8
OUTLINE
  6
CONTINUOUS
 62
     3
 10
-65.537257999999994
 20
-264.66196500000001
 30
0.0
 11
-65.827194999999989
 21
-264.66196500000001
 31
0.0
  0
ARC
  5
173
  8
DETAIL
  6
CONTINUOUS
 62
     5
 10
-58.729436
 20
-278.43283000000002
 30
0.0
 40
7.0362089999999986
 50
180.0
 51
270.0
  0
ARC
  5
174
  8
OUTLINE
  6
CONTINUOUS
 62
     3
 10
-58.729436
 20
-278.43283000000002
 30
0.0
 40
7.0362089999999986
 50
180.0
 51
270.0
  0
LINE
  5
175
  8
DETAIL
  6
CONTINUOUS
 62
     5
 10
-65.765644999999992
 20
-274.11058800000001
 30
0.0
 11
-66.055582000000001
 21
-274.11058800000001
 31
0.0
  0
LINE
  5
176
  8
OUTLINE
  6
CONTINUOUS
 62
     3
 10
-65.765644999999992
 20
-274.11058800000001
 30
0.0
 11
-66.055582000000001
 21
-274.11058800000001
 31
0.0
  0
ARC
  5
177
  8
DETAIL
  6
CONTINUOUS
 62
     5
 10
-62.14702299999999
 20
-269.38627600000001
 30
0.0
 40
6.1315540000000004
 50
129.60196500000001
 51
230.39801700000001
  0
LINE
  5
178
  8
DETAIL
  6
CONTINUOUS
 62
     5
 10
-65.765644999999992
 20
-264.36041299999999
 30
0.0
 11
-65.765644999999992
 21
-278.43283000000002
 31
0.0
  0
LINE
  5
179
  8
DETAIL
  6
CONTINUOUS
 62
     5
 10
-65.765644999999992
 20
-264.66196500000001
 30
0.0
 11
-65.765644999999992
 21
-274.11058800000001
 31
0.0
  0
LINE
  5
17A
  8
DETAIL
  6
CONTINUOUS
 62
     5
 10
-66.055582000000001
 20
-274.11058800000001
 30
0.0
 11
-66.055582000000001
 21
-264.66196500000001
 31
0.0
  0
LINE
  5
17B
  8
OUTLINE
  6
CONTINUOUS
 62
     3
 10
-66.055582000000001
 20
-274.11058800000001
 30
0.0
 11
-66.055582000000001
 21
-264.66196500000001
 31
0.0
  0
LINE
  5
17C
  8
OUTLINE
  6
CONTINUOUS
 62
     3
 10
-65.765644999999992
 20
-264.66196500000001
 30
0.0
 11
-65.765644999999992
 21
-274.11058800000001
 31
0.0
  0
LINE
  5
17D
  8
OUTLINE
  6
CONTINUOUS
 62
     3
 10
-65.765644999999992
 20
-264.36041299999999
 30
0.0
 11
-65.765644999999992
 21
-278.43283000000002
 31
0.0
  0
ARC
  5
17E
  8
OUTLINE
  6
CONTINUOUS
 62
     3
 10
-62.14702299999999
 20
-269.38627600000001
 30
0.0
 40
6.1315540000000004
 50
129.60196500000001
 51
230.39801700000001
  0
LINE
  5
17F
  8
DETAIL
  6
CONTINUOUS
 62
     5
 10
-31.68192100000001
 20
-286.20576799999998
 30
0.0
 11
-32.851444000000001
 21
-285.46903900000001
 31
0.0
  0
ARC
  5
180
  8
DETAIL
  6
CONTINUOUS
 62
     5
 10
-28.875807999999999
 20
-283.934482
 30
0.0
 40
4.7511159999999997
 50
198.843774
 51
320.18303100000003
  0
LINE
  5
181
  8
DETAIL
  6
CONTINUOUS
 62
     5
 10
-44.254950000000001
 20
-287.0
 30
0.0
 11
-44.254950000000001
 21
-287.28993700000001
 31
0.0
  0
LINE
  5
182
  8
DETAIL
  6
CONTINUOUS
 62
     5
 10
-33.885567999999999
 20
-285.49224099999998
 30
0.0
 11
-35.410693999999999
 21
-286.73055099999999
 31
0.0
  0
LINE
  5
183
  8
DETAIL
  6
CONTINUOUS
 62
     5
 10
-35.404798999999997
 20
-286.72573699999998
 30
0.0
 11
-35.740631
 21
-287.0
 31
0.0
  0
LINE
  5
184
  8
DETAIL
  6
CONTINUOUS
 62
     5
 10
-30.445851000000001
 20
-287.0
 30
0.0
 11
-0.228386
 21
-287.0
 31
0.0
  0
LINE
  5
185
  8
DETAIL
  6
CONTINUOUS
 62
     5
 10
-30.445903999999999
 20
-287.0
 30
0.0
 11
-31.685862
 21
-286.20330999999999
 31
0.0
  0
LINE
  5
186
  8
OUTLINE
  6
CONTINUOUS
 62
     3
 10
-30.445903999999999
 20
-287.0
 30
0.0
 11
-31.685862
 21
-286.20330999999999
 31
0.0
  0
LINE
  5
187
  8
OUTLINE
  6
CONTINUOUS
 62
     3
 10
-30.445851000000001
 20
-287.0
 30
0.0
 11
-0.228386
 21
-287.0
 31
0.0
  0
LINE
  5
188
  8
OUTLINE
  6
CONTINUOUS
 62
     3
 10
-35.404798999999997
 20
-286.72573699999998
 30
0.0
 11
-35.740631
 21
-287.0
 31
0.0
  0
LINE
  5
189
  8
OUTLINE
  6
CONTINUOUS
 62
     3
 10
-33.885567999999999
 20
-285.49224099999998
 30
0.0
 11
-35.410693999999999
 21
-286.73055099999999
 31
0.0
  0
LINE
  5
18A
  8
OUTLINE
  6
CONTINUOUS
 62
     3
 10
-44.254950000000001
 20
-287.0
 30
0.0
 11
-44.254950000000001
 21
-287.28993700000001
 31
0.0
  0
ARC
  5
18B
  8
OUTLINE
  6
CONTINUOUS
 62
     3
 10
-28.875807999999999
 20
-283.934482
 30
0.0
 40
4.7511159999999997
 50
198.843774
 51
320.18303100000003
  0
LINE
  5
18C
  8
OUTLINE
  6
CONTINUOUS
 62
     3
 10
-31.68192100000001
 20
-286.20576799999998
 30
0.0
 11
-32.851444000000001
 21
-285.46903900000001
 31
0.0
  0
LINE
  5
18D
  8
DETAIL
  6
CONTINUOUS
 62
     5
 10
-53.703571999999987
 20
-287.0
 30
0.0
 11
-53.703571999999987
 21
-287.28993700000001
 31
0.0
  0
LINE
  5
18E
  8
OUTLINE
  6
CONTINUOUS
 62
     3
 10
-53.703571999999987
 20
-287.0
 30
0.0
 11
-53.703571999999987
 21
-287.28993700000001
 31
0.0
  0
LINE
  5
18F
  8
DETAIL
  6
CONTINUOUS
 62
     5
 10
-53.703571999999987
 20
-286.97679799999997
 30
0.0
 11
-44.254950000000001
 21
-286.97679799999997
 31
0.0
  0
LINE
  5
190
  8
DETAIL
  6
CONTINUOUS
 62
     5
 10
-56.518056000000009
 20
-287.0
 30
0.0
 11
-35.740631
 21
-287.0
 31
0.0
  0
ARC
  5
191
  8
DETAIL
  6
CONTINUOUS
 62
     5
 10
-48.979261000000001
 20
-283.38137799999998
 30
0.0
 40
6.1315540000000004
 50
219.60196500000001
 51
320.39801699999998
  0
LINE
  5
192
  8
DETAIL
  6
CONTINUOUS
 62
     5
 10
-44.254950000000001
 20
-287.28993700000001
 30
0.0
 11
-53.703571999999987
 21
-287.28993700000001
 31
0.0
  0
LINE
  5
193
  8
OUTLINE
  6
CONTINUOUS
 62
     3
 10
-44.254950000000001
 20
-287.28993700000001
 30
0.0
 11
-53.703571999999987
 21
-287.28993700000001
 31
0.0
  0
ARC
  5
194
  8
OUTLINE
  6
CONTINUOUS
 62
     3
 10
-48.979261000000001
 20
-283.38137799999998
 30
0.0
 40
6.1315540000000004
 50
219.60196500000001
 51
320.39801699999998
  0
LINE
  5
195
  8
OUTLINE
  6
CONTINUOUS
 62
     3
 10
-56.518056000000009
 20
-287.0
 30
0.0
 11
-35.740631
 21
-287.0
 31
0.0
  0
LINE
  5
196
  8
OUTLINE
  6
CONTINUOUS
 62
     3
 10
-53.703571999999987
 20
-286.97679799999997
 30
0.0
 11
-44.254950000000001
 21
-286.97679799999997
 31
0.0
  0
LINE
  5
197
  8
DETAIL
  6
CONTINUOUS
 62
     5
 10
0.0
 20
-178.920716
 30
0.0
 11
-81.821039999999996
 21
-178.920716
 31
0.0
  0
LINE
  5
198
  8
DETAIL
  6
CONTINUOUS
 62
     5
 10
-62.267632999999996
 20
-219.127622
 30
0.0
 11
-47.190043000000003
 21
-219.127622
 31
0.0
  0
LINE
  5
199
  8
DETAIL
  6
CONTINUOUS
 62
     5
 10
-48.446508000000001
 20
-212.59399999999999
 30
0.0
 11
-61.011167000000007
 21
-212.59399999999999
 31
0.0
  0
LINE
  5
19A
  8
OUTLINE
  6
CONTINUOUS
 62
     3
 10
-48.446508000000001
 20
-212.59399999999999
 30
0.0
 11
-61.011167000000007
 21
-212.59399999999999
 31
0.0
  0
LINE
  5
19B
  8
OUTLINE
  6
CONTINUOUS
 62
     3
 10
-62.267632999999996
 20
-219.127622
 30
0.0
 11
-47.190043000000003
 21
-219.127622
 31
0.0
  0
LINE
  5
19C
  8
DETAIL
  6
CONTINUOUS
 62
     5
 10
0.0
 20
-223.14833300000001
 30
0.0
 11
-90.465632999999997
 21
-223.14833300000001
 31
0.0
  0
LINE
  5
19D
  8
DETAIL
  6
CONTINUOUS
 62
     5
 10
0.0
 20
-219.127622
 30
0.0
 11
-81.821039999999996
 21
-219.127622
 31
0.0
  0
LINE
  5
19E
  8
DETAIL
  6
CONTINUOUS
 62
     5
 10
0.0
 20
-221.137968
 30
0.0
 11
-85.942262999999997
 21
-221.137968
 31
0.0
  0
LINE
  5
19F
  8
DETAIL
  6
CONTINUOUS
 62
     5
 10
-72.372431999999989
 20
-219.127622
 30
0.0
 11
0.0
 21
-219.127622
 31
0.0
  0
LINE
  5
1A0
  8
OUTLINE
  6
CONTINUOUS
 62
     3
 10
0.0
 20
-221.137968
 30
0.0
 11
-85.942262999999997
 21
-221.137968
 31
0.0
  0
LINE
  5
1A1
  8
OUTLINE
  6
CONTINUOUS
 62
     3
 10
0.0
 20
-219.127622
 30
0.0
 11
-81.821039999999996
 21
-219.127622
 31
0.0
  0
LINE
  5
1A2
  8
OUTLINE
  6
CONTINUOUS
 62
     3
 10
0.0
 20
-223.14833300000001
 30
0.0
 11
-90.465632999999997
 21
-223.14833300000001
 31
0.0
  0
LINE
  5
1A3
  8
OUTLINE
  6
CONTINUOUS
 62
     3
 10
-72.372431999999989
 20
-219.127622
 30
0.0
 11
0.0
 21
-219.127622
 31
0.0
  0
ARC
  5
1A4
  8
DETAIL
  6
CONTINUOUS
 62
     5
 10
-54.728838000000003
 20
-223.04242099999999
 30
0.0
 40
10.448414
 50
68.852896999999999
 51
111.147177
  0
LINE
  5
1A5
  8
DETAIL
  6
CONTINUOUS
 62
     5
 10
-58.749527999999998
 20
-208.82460900000001
 30
0.0
 11
-50.70814699999999
 21
-208.82460900000001
 31
0.0
  0
ARC
  5
1A6
  8
OUTLINE
  6
CONTINUOUS
 62
     3
 10
-54.728838000000003
 20
-223.04242099999999
 30
0.0
 40
10.448414
 50
68.852896999999999
 51
111.147177
  0
LINE
  5
1A7
  8
OUTLINE
  6
CONTINUOUS
 62
     3
 10
-58.749527999999998
 20
-208.82460900000001
 30
0.0
 11
-50.70814699999999
 21
-208.82460900000001
 31
0.0
  0
LINE
  5
1A8
  8
DETAIL
  6
CONTINUOUS
 62
     5
 10
-65.537257999999994
 20
-166.55709200000001
 30
0.0
 11
-65.827194999999989
 21
-166.55709200000001
 31
0.0
  0
ARC
  5
1A9
  8
DETAIL
  6
CONTINUOUS
 62
     5
 10
-60.382932999999987
 20
-215.46995799999999
 30
0.0
 40
2.8759579999999998
 50
49.05541199999999
 51
89.999981999999974
  0
ARC
  5
1AA
  8
OUTLINE
  6
CONTINUOUS
 62
     3
 10
-60.382932999999987
 20
-215.46995799999999
 30
0.0
 40
2.8759579999999998
 50
49.05541199999999
 51
89.999981999999974
  0
LINE
  5
1AB
  8
DETAIL
  6
CONTINUOUS
 62
     5
 10
-58.498233999999997
 20
-219.127622
 30
0.0
 11
-58.498233999999997
 21
-213.29762099999999
 31
0.0
  0
LINE
  5
1AC
  8
DETAIL
  6
CONTINUOUS
 62
     5
 10
-58.246941999999997
 20
-208.82460900000001
 30
0.0
 11
-58.246941999999997
 21
-212.594007
 31
0.0
  0
LINE
  5
1AD
  8
DETAIL
  6
CONTINUOUS
 62
     5
 10
-58.749527999999998
 20
-208.82460900000001
 30
0.0
 11
-58.749527999999998
 21
-212.594007
 31
0.0
  0
LINE
  5
1AE
  8
OUTLINE
  6
CONTINUOUS
 62
     3
 10
-58.749527999999998
 20
-208.82460900000001
 30
0.0
 11
-58.749527999999998
 21
-212.594007
 31
0.0
  0
LINE
  5
1AF
  8
OUTLINE
  6
CONTINUOUS
 62
     3
 10
-58.246941999999997
 20
-208.82460900000001
 30
0.0
 11
-58.246941999999997
 21
-212.594007
 31
0.0
  0
LINE
  5
1B0
  8
OUTLINE
  6
CONTINUOUS
 62
     3
 10
-58.498233999999997
 20
-219.127622
 30
0.0
 11
-58.498233999999997
 21
-213.29762099999999
 31
0.0
  0
ARC
  5
1B1
  8
DETAIL
  6
CONTINUOUS
 62
     5
 10
-90.465632999999997
 20
-228.17419699999999
 30
0.0
 40
5.0258629999999993
 50
89.999964000000006
 51
180.0
  0
ARC
  5
1B2
  8
OUTLINE
  6
CONTINUOUS
 62
     3
 10
-90.465632999999997
 20
-228.17419699999999
 30
0.0
 40
5.0258629999999993
 50
89.999964000000006
 51
180.0
  0
LINE
  5
1B3
  8
DETAIL
  6
CONTINUOUS
 62
     5
 10
-85.942262999999997
 20
-219.127622
 30
0.0
 11
-85.942262999999997
 21
-223.148313
 31
0.0
  0
LINE
  5
1B4
  8
OUTLINE
  6
CONTINUOUS
 62
     3
 10
-85.942262999999997
 20
-219.127622
 30
0.0
 11
-85.942262999999997
 21
-223.148313
 31
0.0
  0
LINE
  5
1B5
  8
DETAIL
  6
CONTINUOUS
 62
     5
 10
-62.267631999999992
 20
-213.29762099999999
 30
0.0
 11
-62.267631999999992
 21
-219.127622
 31
0.0
  0
LINE
  5
1B6
  8
DETAIL
  6
CONTINUOUS
 62
     5
 10
-63.272827999999997
 20
-219.127622
 30
0.0
 11
-63.272827999999997
 21
-223.148313
 31
0.0
  0
LINE
  5
1B7
  8
DETAIL
  6
CONTINUOUS
 62
     5
 10
-61.011167999999998
 20
-212.593996
 30
0.0
 11
-62.267634999999999
 21
-213.297617
 31
0.0
  0
LINE
  5
1B8
  8
OUTLINE
  6
CONTINUOUS
 62
     3
 10
-61.011167999999998
 20
-212.593996
 30
0.0
 11
-62.267634999999999
 21
-213.297617
 31
0.0
  0
LINE
  5
1B9
  8
OUTLINE
  6
CONTINUOUS
 62
     3
 10
-63.272827999999997
 20
-219.127622
 30
0.0
 11
-63.272827999999997
 21
-223.148313
 31
0.0
  0
LINE
  5
1BA
  8
OUTLINE
  6
CONTINUOUS
 62
     3
 10
-62.267631999999992
 20
-213.29762099999999
 30
0.0
 11
-62.267631999999992
 21
-219.127622
 31
0.0
  0
LINE
  5
1BB
  8
DETAIL
  6
CONTINUOUS
 62
     5
 10
-85.942207999999994
 20
-219.127622
 30
0.0
 11
-70.362087000000002
 21
-219.127622
 31
0.0
  0
LINE
  5
1BC
  8
OUTLINE
  6
CONTINUOUS
 62
     3
 10
-85.942207999999994
 20
-219.127622
 30
0.0
 11
-70.362087000000002
 21
-219.127622
 31
0.0
  0
LINE
  5
1BD
  8
DETAIL
  6
CONTINUOUS
 62
     5
 10
-58.710012999999996
 20
-178.920716
 30
0.0
 11
-58.710012999999996
 21
-208.82460900000001
 31
0.0
  0
LINE
  5
1BE
  8
DETAIL
  6
CONTINUOUS
 62
     5
 10
-81.821039999999996
 20
-219.127622
 30
0.0
 11
-81.821039999999996
 21
-178.920716
 31
0.0
  0
LINE
  5
1BF
  8
DETAIL
  6
CONTINUOUS
 62
     5
 10
-75.814681999999991
 20
-178.920716
 30
0.0
 11
-75.814681999999991
 21
-219.127622
 31
0.0
  0
LINE
  5
1C0
  8
DETAIL
  6
CONTINUOUS
 62
     5
 10
-60.488560999999997
 20
-178.920716
 30
0.0
 11
-60.488560999999997
 21
-212.59399999999999
 31
0.0
  0
LINE
  5
1C1
  8
DETAIL
  6
CONTINUOUS
 62
     5
 10
-50.959440999999998
 20
-219.127623
 30
0.0
 11
-50.959440999999998
 21
-213.29762099999999
 31
0.0
  0
LINE
  5
1C2
  8
DETAIL
  6
CONTINUOUS
 62
     5
 10
-47.190044
 20
-219.127623
 30
0.0
 11
-47.190044
 21
-213.29762099999999
 31
0.0
  0
ARC
  5
1C3
  8
DETAIL
  6
CONTINUOUS
 62
     5
 10
-49.074742000000001
 20
-215.46995799999999
 30
0.0
 40
2.8759579999999998
 50
89.999981999999974
 51
130.94450699999999
  0
LINE
  5
1C4
  8
DETAIL
  6
CONTINUOUS
 62
     5
 10
-47.190040000000003
 20
-213.297617
 30
0.0
 11
-48.446506999999997
 21
-212.593996
 31
0.0
  0
LINE
  5
1C5
  8
DETAIL
  6
CONTINUOUS
 62
     5
 10
-51.210732999999998
 20
-208.82460900000001
 30
0.0
 11
-51.210732999999998
 21
-212.594007
 31
0.0
  0
LINE
  5
1C6
  8
DETAIL
  6
CONTINUOUS
 62
     5
 10
-50.70814699999999
 20
-208.82460900000001
 30
0.0
 11
-50.70814699999999
 21
-212.594007
 31
0.0
  0
LINE
  5
1C7
  8
OUTLINE
  6
CONTINUOUS
 62
     3
 10
-50.70814699999999
 20
-208.82460900000001
 30
0.0
 11
-50.70814699999999
 21
-212.594007
 31
0.0
  0
LINE
  5
1C8
  8
OUTLINE
  6
CONTINUOUS
 62
     3
 10
-51.210732999999998
 20
-208.82460900000001
 30
0.0
 11
-51.210732999999998
 21
-212.594007
 31
0.0
  0
LINE
  5
1C9
  8
OUTLINE
  6
CONTINUOUS
 62
     3
 10
-47.190040000000003
 20
-213.297617
 30
0.0
 11
-48.446506999999997
 21
-212.593996
 31
0.0
  0
ARC
  5
1CA
  8
OUTLINE
  6
CONTINUOUS
 62
     3
 10
-49.074742000000001
 20
-215.46995799999999
 30
0.0
 40
2.8759579999999998
 50
89.999981999999974
 51
130.94450699999999
  0
LINE
  5
1CB
  8
OUTLINE
  6
CONTINUOUS
 62
     3
 10
-47.190044
 20
-219.127623
 30
0.0
 11
-47.190044
 21
-213.29762099999999
 31
0.0
  0
LINE
  5
1CC
  8
OUTLINE
  6
CONTINUOUS
 62
     3
 10
-50.959440999999998
 20
-219.127623
 30
0.0
 11
-50.959440999999998
 21
-213.29762099999999
 31
0.0
  0
LINE
  5
1CD
  8
DETAIL
  6
CONTINUOUS
 62
     5
 10
-45.088512000000001
 20
-178.920716
 30
0.0
 11
-45.088512000000001
 21
-219.127622
 31
0.0
  0
LINE
  5
1CE
  8
DETAIL
  6
CONTINUOUS
 62
     5
 10
-22.824149999999999
 20
-178.920716
 30
0.0
 11
-22.824149999999999
 21
-219.127622
 31
0.0
  0
LINE
  5
1CF
  8
DETAIL
  6
CONTINUOUS
 62
     5
 10
-33.111055999999998
 20
-178.920716
 30
0.0
 11
-33.111055999999998
 21
-219.127622
 31
0.0
  0
LINE
  5
1D0
  8
DETAIL
  6
CONTINUOUS
 62
     5
 10
-2.9149949999999998
 20
-178.920716
 30
0.0
 11
-2.9149949999999998
 21
-219.127622
 31
0.0
  0
LINE
  5
1D1
  8
DETAIL
  6
CONTINUOUS
 62
     5
 10
-121.248412
 20
-107.077811
 30
0.0
 11
-55.169787999999997
 21
-95.491320000000002
 31
0.0
  0
ARC
  5
1D2
  8
DETAIL
  6
CONTINUOUS
 62
     5
 10
-87.399377000000001
 20
-287.94732399999998
 30
0.0
 40
178.51866699999999
 50
90.0
 51
120.93227899999999
  0
LINE
  5
1D3
  8
DETAIL
  6
CONTINUOUS
 62
     5
 10
-224.60158200000001
 20
-95.491320000000002
 30
0.0
 11
0.0
 21
-95.491320000000002
 31
0.0
  0
LINE
  5
1D4
  8
DETAIL
  6
CONTINUOUS
 62
     5
 10
-224.60158200000001
 20
-89.460367999999988
 30
0.0
 11
0.0
 21
-89.460367999999988
 31
0.0
  0
LINE
  5
1D5
  8
OUTLINE
  6
CONTINUOUS
 62
     3
 10
-224.60158200000001
 20
-89.460367999999988
 30
0.0
 11
0.0
 21
-89.460367999999988
 31
0.0
  0
LINE
  5
1D6
  8
OUTLINE
  6
CONTINUOUS
 62
     3
 10
-224.60158200000001
 20
-95.491320000000002
 30
0.0
 11
0.0
 21
-95.491320000000002
 31
0.0
  0
LINE
  5
1D7
  8
DETAIL
  6
CONTINUOUS
 62
     5
 10
-224.60158200000001
 20
-157.81210999999999
 30
0.0
 11
-224.60158200000001
 21
-34.175865000000002
 31
0.0
  0
LINE
  5
1D8
  8
OUTLINE
  6
CONTINUOUS
 62
     3
 10
-224.60158200000001
 20
-157.81210999999999
 30
0.0
 11
-224.60158200000001
 21
-34.175865000000002
 31
0.0
  0
ARC
  5
1D9
  8
DETAIL
  6
CONTINUOUS
 62
     5
 10
-182.262461
 20
-129.64511999999999
 30
0.0
 40
6.0310360000000003
 50
237.55945399999999
 51
300.93227899999999
  0
ARC
  5
1DA
  8
DETAIL
  6
CONTINUOUS
 62
     5
 10
-146.407805
 20
-56.680186999999997
 30
0.0
 40
87.295880999999994
 50
206.397299
 51
243.398293
  0
ARC
  5
1DB
  8
DETAIL
  6
CONTINUOUS
 62
     5
 10
-122.99387400000001
 20
-97.178753999999998
 30
0.0
 40
10.051726
 50
215.37276499999999
 51
279.99996099999998
  0
ARC
  5
1DC
  8
DETAIL
  6
CONTINUOUS
 62
     5
 10
-90.442464999999984
 20
-74.069152000000003
 30
0.0
 40
49.972265999999998
 50
205.38389100000001
 51
215.372581
  0
LINE
  5
1DD
  8
DETAIL
  6
DASHED
 62
     5
 10
-215.31113199999999
 20
-10.051727
 30
0.0
 11
-225.36285899999999
 21
-10.051727
 31
0.0
  0
LINE
  5
1DE
  8
OUTLINE
  6
DASHED
 62
     3
 10
-215.31113199999999
 20
-10.051727
 30
0.0
 11
-225.36285899999999
 21
-10.051727
 31
0.0
  0
ARC
  5
1DF
  8
DETAIL
  6
CONTINUOUS
 62
     5
 10
-220.336995
 20
-20.315645
 30
0.0
 40
13.86022
 50
249.18466100000001
 51
290.81542899999999
  0
ARC
  5
1E0
  8
OUTLINE
  6
CONTINUOUS
 62
     3
 10
-220.336995
 20
-20.315645
 30
0.0
 40
13.86022
 50
249.18466100000001
 51
290.81542899999999
  0
LINE
  5
1E1
  8
DETAIL
  6
CONTINUOUS
 62
     5
 10
-218.20465999999999
 20
-26.134488999999999
 30
0.0
 11
-218.20465999999999
 21
-20.103452999999998
 31
0.0
  0
ARC
  5
1E2
  8
DETAIL
  6
CONTINUOUS
 62
     5
 10
-212.94897900000001
 20
-30.37154000000001
 30
0.0
 40
3.8043219999999991
 50
229.659063
 51
270.00001800000001
  0
LINE
  5
1E3
  8
DETAIL
  6
CONTINUOUS
 62
     5
 10
-215.41165100000001
 20
-26.134488999999999
 30
0.0
 11
-215.41165100000001
 21
-33.271214999999998
 31
0.0
  0
LINE
  5
1E4
  8
DETAIL
  6
CONTINUOUS
 62
     5
 10
-210.486299
 20
-33.271222000000002
 30
0.0
 11
-212.04431700000001
 21
-34.175877
 31
0.0
  0
LINE
  5
1E5
  8
DETAIL
  6
CONTINUOUS
 62
     5
 10
-210.48630299999999
 20
-26.134488999999999
 30
0.0
 11
-210.48630299999999
 21
-33.271214999999998
 31
0.0
  0
LINE
  5
1E6
  8
OUTLINE
  6
CONTINUOUS
 62
     3
 10
-210.48630299999999
 20
-26.134488999999999
 30
0.0
 11
-210.48630299999999
 21
-33.271214999999998
 31
0.0
  0
LINE
  5
1E7
  8
OUTLINE
  6
CONTINUOUS
 62
     3
 10
-210.486299
 20
-33.271222000000002
 30
0.0
 11
-212.04431700000001
 21
-34.175877
 31
0.0
  0
LINE
  5
1E8
  8
OUTLINE
  6
CONTINUOUS
 62
     3
 10
-215.41165100000001
 20
-26.134488999999999
 30
0.0
 11
-215.41165100000001
 21
-33.271214999999998
 31
0.0
  0
ARC
  5
1E9
  8
OUTLINE
  6
CONTINUOUS
 62
     3
 10
-212.94897900000001
 20
-30.37154000000001
 30
0.0
 40
3.8043219999999991
 50
229.659063
 51
270.00001800000001
  0
LINE
  5
1EA
  8
OUTLINE
  6
CONTINUOUS
 62
     3
 10
-218.20465999999999
 20
-26.134488999999999
 30
0.0
 11
-218.20465999999999
 21
-20.103452999999998
 31
0.0
  0
LINE
  5
1EB
  8
DETAIL
  6
CONTINUOUS
 62
     5
 10
-225.26233999999999
 20
-26.13449
 30
0.0
 11
-225.26233999999999
 21
-33.271214999999998
 31
0.0
  0
LINE
  5
1EC
  8
OUTLINE
  6
CONTINUOUS
 62
     3
 10
-225.26233999999999
 20
-26.13449
 30
0.0
 11
-225.26233999999999
 21
-33.271214999999998
 31
0.0
  0
LINE
  5
1ED
  8
DETAIL
  6
CONTINUOUS
 62
     5
 10
-229.57688899999999
 20
-26.134488999999999
 30
0.0
 11
-229.57688899999999
 21
-20.103452999999998
 31
0.0
  0
LINE
  5
1EE
  8
DETAIL
  6
CONTINUOUS
 62
     5
 10
-230.18768800000001
 20
-33.271214999999998
 30
0.0
 11
-230.18768800000001
 21
-26.134488999999999
 31
0.0
  0
LINE
  5
1EF
  8
DETAIL
  6
CONTINUOUS
 62
     5
 10
-228.62967399999999
 20
-34.175877
 30
0.0
 11
-230.187692
 21
-33.271222000000002
 31
0.0
  0
LINE
  5
1F0
  8
OUTLINE
  6
CONTINUOUS
 62
     3
 10
-228.62967399999999
 20
-34.175877
 30
0.0
 11
-230.187692
 21
-33.271222000000002
 31
0.0
  0
LINE
  5
1F1
  8
OUTLINE
  6
CONTINUOUS
 62
     3
 10
-230.18768800000001
 20
-33.271214999999998
 30
0.0
 11
-230.18768800000001
 21
-26.134488999999999
 31
0.0
  0
LINE
  5
1F2
  8
OUTLINE
  6
CONTINUOUS
 62
     3
 10
-229.57688899999999
 20
-26.134488999999999
 30
0.0
 11
-229.57688899999999
 21
-20.103452999999998
 31
0.0
  0
LINE
  5
1F3
  8
DETAIL
  6
CONTINUOUS
 62
     5
 10
-228.62968000000001
 20
-34.175865000000002
 30
0.0
 11
-212.04431099999999
 21
-34.175865000000002
 31
0.0
  0
LINE
  5
1F4
  8
DETAIL
  6
CONTINUOUS
 62
     5
 10
-230.18768800000001
 20
-26.134488999999999
 30
0.0
 11
-210.48630299999999
 21
-26.134488999999999
 31
0.0
  0
LINE
  5
1F5
  8
OUTLINE
  6
CONTINUOUS
 62
     3
 10
-230.18768800000001
 20
-26.134488999999999
 30
0.0
 11
-210.48630299999999
 21
-26.134488999999999
 31
0.0
  0
LINE
  5
1F6
  8
OUTLINE
  6
CONTINUOUS
 62
     3
 10
-228.62968000000001
 20
-34.175865000000002
 30
0.0
 11
-212.04431099999999
 21
-34.175865000000002
 31
0.0
  0
ARC
  5
1F7
  8
DETAIL
  6
CONTINUOUS
 62
     5
 10
-227.72501199999999
 20
-30.37154000000001
 30
0.0
 40
3.8043219999999991
 50
270.00001800000001
 51
310.3409759999999
  0
ARC
  5
1F8
  8
OUTLINE
  6
CONTINUOUS
 62
     3
 10
-227.72501199999999
 20
-30.37154000000001
 30
0.0
 40
3.8043219999999991
 50
270.00001800000001
 51
310.3409759999999
  0
LINE
  5
1F9
  8
DETAIL
  6
CONTINUOUS
 62
     5
 10
-87.399377000000001
 20
-109.428658
 30
0.0
 11
-49.195709999999998
 21
-105.115858
 31
0.0
  0
LINE
  5
1FA
  8
DETAIL
  6
CONTINUOUS
 62
     5
 10
0.0
 20
-145.75001700000001
 30
0.0
 11
-58.501049999999999
 21
-145.75001700000001
 31
0.0
  0
ARC
  5
1FB
  8
DETAIL
  6
CONTINUOUS
 62
     5
 10
-58.501049999999999
 20
-152.786226
 30
0.0
 40
7.0362089999999986
 50
90.0
 51
180.0
  0
LINE
  5
1FC
  8
DETAIL
  6
CONTINUOUS
 62
     5
 10
-65.537257999999994
 20
-157.10846900000001
 30
0.0
 11
-65.827194999999989
 21
-157.10846900000001
 31
0.0
  0
LINE
  5
1FD
  8
DETAIL
  6
CONTINUOUS
 62
     5
 10
-18.595694000000002
 20
-95.491320000000002
 30
0.0
 11
-18.595694000000002
 21
-97.105461000000005
 31
0.0
  0
LINE
  5
1FE
  8
DETAIL
  6
CONTINUOUS
 62
     5
 10
-18.595694000000002
 20
-97.105461000000005
 30
0.0
 11
-42.940810999999989
 21
-97.105461000000005
 31
0.0
  0
ARC
  5
1FF
  8
DETAIL
  6
CONTINUOUS
 62
     5
 10
-42.940810999999989
 20
-109.16753300000001
 30
0.0
 40
12.062072000000001
 50
90.0
 51
100.00039599999999
  0
LINE
  5
200
  8
DETAIL
  6
CONTINUOUS
 62
     5
 10
0.0
 20
-97.105461000000005
 30
0.0
 11
-18.595694000000002
 21
-97.105461000000005
 31
0.0
  0
LINE
  5
201
  8
DETAIL
  6
CONTINUOUS
 62
     5
 10
-12.336275000000001
 20
-143.26442800000001
 30
0.0
 11
-11.358445
 21
-144.24225799999999
 31
0.0
  0
LINE
  5
202
  8
DETAIL
  6
CONTINUOUS
 62
     5
 10
-32.62305700000001
 20
-145.75001700000001
 30
0.0
 11
-31.449313
 21
-145.01062899999999
 31
0.0
  0
LINE
  5
203
  8
DETAIL
  6
CONTINUOUS
 62
     5
 10
-31.453543
 20
-145.013293
 30
0.0
 11
-30.217517999999998
 21
-144.24225799999999
 31
0.0
  0
LINE
  5
204
  8
DETAIL
  6
CONTINUOUS
 62
     5
 10
-34.360540999999998
 20
-145.18044800000001
 30
0.0
 11
-33.657204999999998
 21
-145.75001700000001
 31
0.0
  0
LINE
  5
205
  8
DETAIL
  6
CONTINUOUS
 62
     5
 10
-35.512267999999999
 20
-144.24225799999999
 30
0.0
 11
-34.356102
 21
-145.18404200000001
 31
0.0
  0
LINE
  5
206
  8
DETAIL
  6
CONTINUOUS
 62
     5
 10
-26.038882999999998
 20
-141.95619500000001
 30
0.0
 11
-25.203735999999999
 21
-132.61133599999999
 31
0.0
  0
ARC
  5
207
  8
DETAIL
  6
CONTINUOUS
 62
     5
 10
-11.056899
 20
-141.985052
 30
0.0
 40
1.8093109999999999
 50
184.63955300000001
 51
225.0
  0
LINE
  5
208
  8
DETAIL
  6
CONTINUOUS
 62
     5
 10
-8.5439679999999996
 20
-127.55640099999999
 30
0.0
 11
-8.5439679999999996
 21
-125.546047
 31
0.0
  0
LINE
  5
209
  8
DETAIL
  6
CONTINUOUS
 62
     5
 10
-20.635031000000001
 20
-128.04261700000001
 30
0.0
 11
-15.077541
 21
-127.55640200000001
 31
0.0
  0
LINE
  5
20A
  8
DETAIL
  6
CONTINUOUS
 62
     5
 10
-14.072417
 20
-123.535701
 30
0.0
 11
-14.072417
 21
-121.02276999999999
 31
0.0
  0
LINE
  5
20B
  8
DETAIL
  6
CONTINUOUS
 62
     5
 10
-14.072417
 20
-125.546047
 30
0.0
 11
-14.072417
 21
-123.535701
 31
0.0
  0
LINE
  5
20C
  8
DETAIL
  6
CONTINUOUS
 62
     5
 10
-13.067245
 20
-121.02276999999999
 30
0.0
 11
-14.072417
 21
-120.01759699999999
 31
0.0
  0
ARC
  5
20D
  8
DETAIL
  6
CONTINUOUS
 62
     5
 10
-20.196991000000001
 20
-133.04936699999999
 30
0.0
 40
5.0258620000000001
 50
94.999989999999997
 51
175.00002900000001
  0
LINE
  5
20E
  8
DETAIL
  6
CONTINUOUS
 62
     5
 10
0.0
 20
-144.24225799999999
 30
0.0
 11
-30.217099999999999
 21
-144.24225799999999
 31
0.0
  0
LINE
  5
20F
  8
DETAIL
  6
CONTINUOUS
 62
     5
 10
-15.077536
 20
-127.55640099999999
 30
0.0
 11
0.0
 21
-127.55640099999999
 31
0.0
  0
LINE
  5
210
  8
DETAIL
  6
CONTINUOUS
 62
     5
 10
0.0
 20
-125.546047
 30
0.0
 11
-14.072417
 21
-125.546047
 31
0.0
  0
LINE
  5
211
  8
DETAIL
  6
CONTINUOUS
 62
     5
 10
0.0
 20
-121.02276999999999
 30
0.0
 11
-14.072417
 21
-121.02276999999999
 31
0.0
  0
LINE
  5
212
  8
DETAIL
  6
CONTINUOUS
 62
     5
 10
0.0
 20
-123.535701
 30
0.0
 11
-14.072417
 21
-123.535701
 31
0.0
  0
LINE
  5
213
  8
DETAIL
  6
CONTINUOUS
 62
     5
 10
-13.067245
 20
-121.02276999999999
 30
0.0
 11
0.0
 21
-121.02276999999999
 31
0.0
  0
LINE
  5
214
  8
DETAIL
  6
CONTINUOUS
 62
     5
 10
-14.072417
 20
-120.01759699999999
 30
0.0
 11
0.0
 21
-120.01759699999999
 31
0.0
  0
LINE
  5
215
  8
DETAIL
  6
CONTINUOUS
 62
     5
 10
0.0
 20
-143.739666
 30
0.0
 11
-11.861038000000001
 21
-143.739666
 31
0.0
  0
LINE
  5
216
  8
DETAIL
  6
CONTINUOUS
 62
     5
 10
0.0
 20
-142.13140200000001
 30
0.0
 11
-26.054212
 21
-142.13140200000001
 31
0.0
  0
LINE
  5
217
  8
DETAIL
  6
CONTINUOUS
 62
     5
 10
-14.072417
 20
-99.115807000000004
 30
0.0
 11
-14.072417
 21
-120.01759699999999
 31
0.0
  0
LINE
  5
218
  8
DETAIL
  6
CONTINUOUS
 62
     5
 10
-56.289669999999987
 20
-144.24225799999999
 30
0.0
 11
-57.797429000000001
 21
-145.75001700000001
 31
0.0
  0
LINE
  5
219
  8
DETAIL
  6
CONTINUOUS
 62
     5
 10
-56.289669999999987
 20
-144.24225799999999
 30
0.0
 11
-35.512329000000001
 21
-144.24225799999999
 31
0.0
  0
LINE
  5
21A
  8
DETAIL
  6
CONTINUOUS
 62
     5
 10
-53.164356000000012
 20
-98.722128999999995
 30
0.0
 11
-45.035449
 21
-97.288725999999997
 31
0.0
  0
LINE
  5
21B
  8
DETAIL
  6
CONTINUOUS
 62
     5
 10
-49.195695000000001
 20
-105.115882
 30
0.0
 11
-55.206214000000003
 21
-95.432637
 31
0.0
  0
ARC
  5
21C
  8
DETAIL
  6
CONTINUOUS
 62
     5
 10
309.291631
 20
-2.3118970000000001
 30
0.0
 40
2.3118970000000001
 50
343.24519500000002
 51
90.0
  0
ARC
  5
21D
  8
OUTLINE
  6
CONTINUOUS
 62
     3
 10
309.291631
 20
-2.3118970000000001
 30
0.0
 40
2.3118970000000001
 50
343.24519500000002
 51
90.0
  0
LINE
  5
21E
  8
NOTE
  6
CONTINUOUS
 62
     4
 10
260.0
 20
0.0
 30
0.0
 11
300.0
 21
0.0
 31
0.0
  0
LINE
  5
21F
  8
NOTE
  6
CONTINUOUS
 62
     4
 10
280.0
 20
20.0
 30
0.0
 11
280.0
 21
-20.0
 31
0.0
  0
LINE
  5
220
  8
DETAIL
  6
CONTINUOUS
 62
     5
 10
272.93355500000001
 20
-20.103452999999998
 30
0.0
 11
203.27864700000001
 21
-20.103452999999998
 31
0.0
  0
LINE
  5
221
  8
DETAIL
  6
CONTINUOUS
 62
     5
 10
282.17344700000001
 20
-26.134488999999999
 30
0.0
 11
194.038669
 21
-26.134488999999999
 31
0.0
  0
LINE
  5
222
  8
OUTLINE
  6
CONTINUOUS
 62
     3
 10
282.17344700000001
 20
-26.134488999999999
 30
0.0
 11
194.038669
 21
-26.134488999999999
 31
0.0
  0
LINE
  5
223
  8
OUTLINE
  6
CONTINUOUS
 62
     3
 10
272.93355500000001
 20
-20.103452999999998
 30
0.0
 11
203.27864700000001
 21
-20.103452999999998
 31
0.0
  0
ARC
  5
224
  8
DETAIL
  6
CONTINUOUS
 62
     5
 10
154.23949500000001
 20
-157.81210999999999
 30
0.0
 40
70.362087000000002
 50
270.0
 51
0.0
  0
ARC
  5
225
  8
DETAIL
  6
CONTINUOUS
 62
     5
 10
149.083021
 20
-157.81210999999999
 30
0.0
 40
102.527613
 50
270.0
 51
0.0
  0
ARC
  5
226
  8
DETAIL
  6
CONTINUOUS
 62
     5
 10
144.818434
 20
-157.81210999999999
 30
0.0
 40
102.527613
 50
270.0
 51
0.0
  0
ARC
  5
227
  8
OUTLINE
  6
CONTINUOUS
 62
     3
 10
144.818434
 20
-157.81210999999999
 30
0.0
 40
102.527613
 50
270.0
 51
0.0
  0
ARC
  5
228
  8
OUTLINE
  6
CONTINUOUS
 62
     3
 10
149.083021
 20
-157.81210999999999
 30
0.0
 40
102.527613
 50
270.0
 51
0.0
  0
ARC
  5
229
  8
OUTLINE
  6
CONTINUOUS
 62
     3
 10
154.23949500000001
 20
-157.81210999999999
 30
0.0
 40
70.362087000000002
 50
270.0
 51
0.0
  0
ARC
  5
22A
  8
DETAIL
  6
CONTINUOUS
 62
     5
 10
61.918635999999999
 20
-161.83278000000001
 30
0.0
 40
6.1315540000000004
 50
309.60198300000002
 51
50.398035
  0
LINE
  5
22B
  8
DETAIL
  6
CONTINUOUS
 62
     5
 10
65.537257999999994
 20
-157.10846900000001
 30
0.0
 11
65.537257999999994
 21
-166.55709200000001
 31
0.0
  0
LINE
  5
22C
  8
DETAIL
  6
CONTINUOUS
 62
     5
 10
65.827194999999989
 20
-166.55709200000001
 30
0.0
 11
65.827194999999989
 21
-157.10846900000001
 31
0.0
  0
LINE
  5
22D
  8
DETAIL
  6
CONTINUOUS
 62
     5
 10
65.537257999999994
 20
-152.786226
 30
0.0
 11
65.537257999999994
 21
-178.920716
 31
0.0
  0
LINE
  5
22E
  8
DETAIL
  6
CONTINUOUS
 62
     5
 10
33.657204999999998
 20
-285.46903900000001
 30
0.0
 11
35.182330999999998
 21
-286.70734900000002
 31
0.0
  0
LINE
  5
22F
  8
DETAIL
  6
CONTINUOUS
 62
     5
 10
44.026563000000003
 20
-287.26673499999998
 30
0.0
 11
53.475186000000001
 21
-287.26673499999998
 31
0.0
  0
ARC
  5
230
  8
DETAIL
  6
CONTINUOUS
 62
     5
 10
48.750875000000001
 20
-283.3581759999999
 30
0.0
 40
6.1315540000000004
 50
219.60198299999999
 51
320.39803499999999
  0
LINE
  5
231
  8
DETAIL
  6
CONTINUOUS
 62
     5
 10
31.225095
 20
-286.20576799999998
 30
0.0
 11
32.394616999999997
 21
-285.46903900000001
 31
0.0
  0
LINE
  5
232
  8
DETAIL
  6
CONTINUOUS
 62
     5
 10
56.289669999999987
 20
-287.0
 30
0.0
 11
35.51224400000001
 21
-287.0
 31
0.0
  0
LINE
  5
233
  8
DETAIL
  6
CONTINUOUS
 62
     5
 10
57.797429000000001
 20
-285.46903900000001
 30
0.0
 11
56.289669999999987
 21
-287.0
 31
0.0
  0
LINE
  5
234
  8
DETAIL
  6
CONTINUOUS
 62
     5
 10
53.475186000000001
 20
-287.0
 30
0.0
 11
44.026563000000003
 21
-287.0
 31
0.0
  0
LINE
  5
235
  8
DETAIL
  6
CONTINUOUS
 62
     5
 10
53.475186000000001
 20
-287.0
 30
0.0
 11
53.475186000000001
 21
-287.26673499999998
 31
0.0
  0
LINE
  5
236
  8
DETAIL
  6
CONTINUOUS
 62
     5
 10
44.026563000000003
 20
-287.0
 30
0.0
 11
44.026563000000003
 21
-287.26673499999998
 31
0.0
  0
LINE
  5
237
  8
DETAIL
  6
CONTINUOUS
 62
     5
 10
35.176437
 20
-286.70253500000001
 30
0.0
 11
35.512267999999999
 21
-287.0
 31
0.0
  0
LINE
  5
238
  8
DETAIL
  6
CONTINUOUS
 62
     5
 10
29.989077999999999
 20
-287.0
 30
0.0
 11
31.229035
 21
-286.20330999999999
 31
0.0
  0
ARC
  5
239
  8
DETAIL
  6
CONTINUOUS
 62
     5
 10
28.647421000000001
 20
-283.934482
 30
0.0
 40
4.7511159999999997
 50
220.18222499999999
 51
341.156226
  0
ARC
  5
23A
  8
OUTLINE
  6
CONTINUOUS
 62
     3
 10
28.647421000000001
 20
-283.934482
 30
0.0
 40
4.7511159999999997
 50
220.18222499999999
 51
341.156226
  0
LINE
  5
23B
  8
OUTLINE
  6
CONTINUOUS
 62
     3
 10
29.989077999999999
 20
-287.0
 30
0.0
 11
31.229035
 21
-286.20330999999999
 31
0.0
  0
LINE
  5
23C
  8
OUTLINE
  6
CONTINUOUS
 62
     3
 10
35.176437
 20
-286.70253500000001
 30
0.0
 11
35.512267999999999
 21
-287.0
 31
0.0
  0
LINE
  5
23D
  8
OUTLINE
  6
CONTINUOUS
 62
     3
 10
44.026563000000003
 20
-287.0
 30
0.0
 11
44.026563000000003
 21
-287.26673499999998
 31
0.0
  0
LINE
  5
23E
  8
OUTLINE
  6
CONTINUOUS
 62
     3
 10
53.475186000000001
 20
-287.0
 30
0.0
 11
53.475186000000001
 21
-287.26673499999998
 31
0.0
  0
LINE
  5
23F
  8
OUTLINE
  6
CONTINUOUS
 62
     3
 10
53.475186000000001
 20
-287.0
 30
0.0
 11
44.026563000000003
 21
-287.0
 31
0.0
  0
LINE
  5
240
  8
OUTLINE
  6
CONTINUOUS
 62
     3
 10
57.797429000000001
 20
-285.46903900000001
 30
0.0
 11
56.289669999999987
 21
-287.0
 31
0.0
  0
LINE
  5
241
  8
OUTLINE
  6
CONTINUOUS
 62
     3
 10
56.289669999999987
 20
-287.0
 30
0.0
 11
35.51224400000001
 21
-287.0
 31
0.0
  0
LINE
  5
242
  8
OUTLINE
  6
CONTINUOUS
 62
     3
 10
31.225095
 20
-286.20576799999998
 30
0.0
 11
32.394616999999997
 21
-285.46903900000001
 31
0.0
  0
ARC
  5
243
  8
OUTLINE
  6
CONTINUOUS
 62
     3
 10
48.750875000000001
 20
-283.3581759999999
 30
0.0
 40
6.1315540000000004
 50
219.60198299999999
 51
320.39803499999999
  0
LINE
  5
244
  8
OUTLINE
  6
CONTINUOUS
 62
     3
 10
44.026563000000003
 20
-287.26673499999998
 30
0.0
 11
53.475186000000001
 21
-287.26673499999998
 31
0.0
  0
LINE
  5
245
  8
OUTLINE
  6
CONTINUOUS
 62
     3
 10
33.657204999999998
 20
-285.46903900000001
 30
0.0
 11
35.182330999999998
 21
-286.70734900000002
 31
0.0
  0
LINE
  5
246
  8
DETAIL
  6
CONTINUOUS
 62
     5
 10
65.537257999999994
 20
-264.66196500000001
 30
0.0
 11
65.827194999999989
 21
-264.66196500000001
 31
0.0
  0
LINE
  5
247
  8
OUTLINE
  6
CONTINUOUS
 62
     3
 10
65.537257999999994
 20
-264.66196500000001
 30
0.0
 11
65.827194999999989
 21
-264.66196500000001
 31
0.0
  0
LINE
  5
248
  8
DETAIL
  6
CONTINUOUS
 62
     5
 10
95.189894999999993
 20
-260.33972199999999
 30
0.0
 11
95.189894999999993
 21
-264.36041299999999
 31
0.0
  0
LINE
  5
249
  8
OUTLINE
  6
CONTINUOUS
 62
     3
 10
95.189894999999993
 20
-260.33972199999999
 30
0.0
 11
95.189894999999993
 21
-264.36041299999999
 31
0.0
  0
LINE
  5
24A
  8
DETAIL
  6
CONTINUOUS
 62
     5
 10
65.537257999999994
 20
-274.11058800000001
 30
0.0
 11
65.827194999999989
 21
-274.11058800000001
 31
0.0
  0
LINE
  5
24B
  8
OUTLINE
  6
CONTINUOUS
 62
     3
 10
65.537257999999994
 20
-274.11058800000001
 30
0.0
 11
65.827194999999989
 21
-274.11058800000001
 31
0.0
  0
LINE
  5
24C
  8
DETAIL
  6
CONTINUOUS
 62
     5
 10
65.234355000000008
 20
-264.66196500000001
 30
0.0
 11
65.234355000000008
 21
-274.11058800000001
 31
0.0
  0
LINE
  5
24D
  8
DETAIL
  6
CONTINUOUS
 62
     5
 10
65.524292000000003
 20
-274.11058800000001
 30
0.0
 11
65.524292000000003
 21
-264.66196500000001
 31
0.0
  0
LINE
  5
24E
  8
DETAIL
  6
CONTINUOUS
 62
     5
 10
65.234355000000008
 20
-264.36041299999999
 30
0.0
 11
65.234355000000008
 21
-278.43283000000002
 31
0.0
  0
ARC
  5
24F
  8
DETAIL
  6
CONTINUOUS
 62
     5
 10
61.615732999999999
 20
-269.38627600000001
 30
0.0
 40
6.1315540000000004
 50
309.60198300000002
 51
50.398035
  0
ARC
  5
250
  8
OUTLINE
  6
CONTINUOUS
 62
     3
 10
61.615732999999999
 20
-269.38627600000001
 30
0.0
 40
6.1315540000000004
 50
309.60198300000002
 51
50.398035
  0
LINE
  5
251
  8
OUTLINE
  6
CONTINUOUS
 62
     3
 10
65.234355000000008
 20
-264.36041299999999
 30
0.0
 11
65.234355000000008
 21
-278.43283000000002
 31
0.0
  0
LINE
  5
252
  8
OUTLINE
  6
CONTINUOUS
 62
     3
 10
65.524292000000003
 20
-274.11058800000001
 30
0.0
 11
65.524292000000003
 21
-264.66196500000001
 31
0.0
  0
LINE
  5
253
  8
OUTLINE
  6
CONTINUOUS
 62
     3
 10
65.234355000000008
 20
-264.66196500000001
 30
0.0
 11
65.234355000000008
 21
-274.11058800000001
 31
0.0
  0
ARC
  5
254
  8
DETAIL
  6
CONTINUOUS
 62
     5
 10
58.198146999999999
 20
-278.43283000000002
 30
0.0
 40
7.0362089999999986
 50
270.0
 51
0.0
  0
ARC
  5
255
  8
OUTLINE
  6
CONTINUOUS
 62
     3
 10
58.198146999999999
 20
-278.43283000000002
 30
0.0
 40
7.0362089999999986
 50
270.0
 51
0.0
  0
LINE
  5
256
  8
DETAIL
  6
CONTINUOUS
 62
     5
 10
62.267632999999996
 20
-219.127622
 30
0.0
 11
47.190043000000003
 21
-219.127622
 31
0.0
  0
LINE
  5
257
  8
DETAIL
  6
CONTINUOUS
 62
     5
 10
48.446508000000001
 20
-212.59399999999999
 30
0.0
 11
61.011167000000007
 21
-212.59399999999999
 31
0.0
  0
LINE
  5
258
  8
DETAIL
  6
CONTINUOUS
 62
     5
 10
58.749527999999998
 20
-208.82460900000001
 30
0.0
 11
50.70814699999999
 21
-208.82460900000001
 31
0.0
  0
ARC
  5
259
  8
DETAIL
  6
CONTINUOUS
 62
     5
 10
54.728838000000003
 20
-223.04242099999999
 30
0.0
 40
10.448414
 50
68.852823000000001
 51
111.147103
  0
ARC
  5
25A
  8
OUTLINE
  6
CONTINUOUS
 62
     3
 10
54.728838000000003
 20
-223.04242099999999
 30
0.0
 40
10.448414
 50
68.852823000000001
 51
111.147103
  0
LINE
  5
25B
  8
OUTLINE
  6
CONTINUOUS
 62
     3
 10
48.446508000000001
 20
-212.59399999999999
 30
0.0
 11
61.011167000000007
 21
-212.59399999999999
 31
0.0
  0
LINE
  5
25C
  8
OUTLINE
  6
CONTINUOUS
 62
     3
 10
62.267632999999996
 20
-219.127622
 30
0.0
 11
47.190043000000003
 21
-219.127622
 31
0.0
  0
LINE
  5
25D
  8
OUTLINE
  6
CONTINUOUS
 62
     3
 10
58.749527999999998
 20
-208.82460900000001
 30
0.0
 11
50.70814699999999
 21
-208.82460900000001
 31
0.0
  0
LINE
  5
25E
  8
DETAIL
  6
CONTINUOUS
 62
     5
 10
47.190044
 20
-219.127623
 30
0.0
 11
47.190044
 21
-213.29762099999999
 31
0.0
  0
LINE
  5
25F
  8
DETAIL
  6
CONTINUOUS
 62
     5
 10
50.959440999999998
 20
-219.127623
 30
0.0
 11
50.959440999999998
 21
-213.29762099999999
 31
0.0
  0
LINE
  5
260
  8
DETAIL
  6
CONTINUOUS
 62
     5
 10
50.70814699999999
 20
-208.82460900000001
 30
0.0
 11
50.70814699999999
 21
-212.594007
 31
0.0
  0
LINE
  5
261
  8
DETAIL
  6
CONTINUOUS
 62
     5
 10
51.210732999999998
 20
-208.82460900000001
 30
0.0
 11
51.210732999999998
 21
-212.594007
 31
0.0
  0
LINE
  5
262
  8
DETAIL
  6
CONTINUOUS
 62
     5
 10
47.190040000000003
 20
-213.297617
 30
0.0
 11
48.446506999999997
 21
-212.593996
 31
0.0
  0
ARC
  5
263
  8
DETAIL
  6
CONTINUOUS
 62
     5
 10
49.074742000000001
 20
-215.46995799999999
 30
0.0
 40
2.8759579999999998
 50
49.055492999999998
 51
90.000018000000011
  0
LINE
  5
264
  8
OUTLINE
  6
CONTINUOUS
 62
     3
 10
51.210732999999998
 20
-208.82460900000001
 30
0.0
 11
51.210732999999998
 21
-212.594007
 31
0.0
  0
LINE
  5
265
  8
OUTLINE
  6
CONTINUOUS
 62
     3
 10
50.70814699999999
 20
-208.82460900000001
 30
0.0
 11
50.70814699999999
 21
-212.594007
 31
0.0
  0
ARC
  5
266
  8
OUTLINE
  6
CONTINUOUS
 62
     3
 10
49.074742000000001
 20
-215.46995799999999
 30
0.0
 40
2.8759579999999998
 50
49.055492999999998
 51
90.000018000000011
  0
LINE
  5
267
  8
OUTLINE
  6
CONTINUOUS
 62
     3
 10
47.190040000000003
 20
-213.297617
 30
0.0
 11
48.446506999999997
 21
-212.593996
 31
0.0
  0
LINE
  5
268
  8
OUTLINE
  6
CONTINUOUS
 62
     3
 10
50.959440999999998
 20
-219.127623
 30
0.0
 11
50.959440999999998
 21
-213.29762099999999
 31
0.0
  0
LINE
  5
269
  8
OUTLINE
  6
CONTINUOUS
 62
     3
 10
47.190044
 20
-219.127623
 30
0.0
 11
47.190044
 21
-213.29762099999999
 31
0.0
  0
LINE
  5
26A
  8
DETAIL
  6
CONTINUOUS
 62
     5
 10
33.111055999999998
 20
-178.920716
 30
0.0
 11
33.111055999999998
 21
-219.127622
 31
0.0
  0
LINE
  5
26B
  8
DETAIL
  6
CONTINUOUS
 62
     5
 10
22.824149999999999
 20
-178.920716
 30
0.0
 11
22.824149999999999
 21
-219.127622
 31
0.0
  0
LINE
  5
26C
  8
DETAIL
  6
CONTINUOUS
 62
     5
 10
45.088512000000001
 20
-178.920716
 30
0.0
 11
45.088512000000001
 21
-219.127622
 31
0.0
  0
LINE
  5
26D
  8
DETAIL
  6
CONTINUOUS
 62
     5
 10
2.9149949999999998
 20
-178.920716
 30
0.0
 11
2.9149949999999998
 21
-219.127622
 31
0.0
  0
LINE
  5
26E
  8
DETAIL
  6
CONTINUOUS
 62
     5
 10
65.537257999999994
 20
-166.55709200000001
 30
0.0
 11
65.827194999999989
 21
-166.55709200000001
 31
0.0
  0
ARC
  5
26F
  8
DETAIL
  6
CONTINUOUS
 62
     5
 10
90.465632999999997
 20
-228.17419699999999
 30
0.0
 40
5.0258629999999993
 50
0.0
 51
90.000035999999966
  0
ARC
  5
270
  8
OUTLINE
  6
CONTINUOUS
 62
     3
 10
90.465632999999997
 20
-228.17419699999999
 30
0.0
 40
5.0258629999999993
 50
0.0
 51
90.000035999999966
  0
LINE
  5
271
  8
DETAIL
  6
CONTINUOUS
 62
     5
 10
85.942262999999997
 20
-219.127622
 30
0.0
 11
85.942262999999997
 21
-223.148313
 31
0.0
  0
LINE
  5
272
  8
OUTLINE
  6
CONTINUOUS
 62
     3
 10
85.942262999999997
 20
-219.127622
 30
0.0
 11
85.942262999999997
 21
-223.148313
 31
0.0
  0
LINE
  5
273
  8
DETAIL
  6
CONTINUOUS
 62
     5
 10
85.942207999999994
 20
-219.127622
 30
0.0
 11
70.362087000000002
 21
-219.127622
 31
0.0
  0
LINE
  5
274
  8
OUTLINE
  6
CONTINUOUS
 62
     3
 10
85.942207999999994
 20
-219.127622
 30
0.0
 11
70.362087000000002
 21
-219.127622
 31
0.0
  0
LINE
  5
275
  8
DETAIL
  6
CONTINUOUS
 62
     5
 10
81.821039999999996
 20
-219.127622
 30
0.0
 11
81.821039999999996
 21
-178.920716
 31
0.0
  0
LINE
  5
276
  8
DETAIL
  6
CONTINUOUS
 62
     5
 10
75.814681999999991
 20
-178.920716
 30
0.0
 11
75.814681999999991
 21
-219.127622
 31
0.0
  0
LINE
  5
277
  8
DETAIL
  6
CONTINUOUS
 62
     5
 10
62.267631999999992
 20
-213.29762099999999
 30
0.0
 11
62.267631999999992
 21
-219.127622
 31
0.0
  0
LINE
  5
278
  8
DETAIL
  6
CONTINUOUS
 62
     5
 10
58.498233999999997
 20
-219.127622
 30
0.0
 11
58.498233999999997
 21
-213.29762099999999
 31
0.0
  0
LINE
  5
279
  8
DETAIL
  6
CONTINUOUS
 62
     5
 10
63.272827999999997
 20
-219.127622
 30
0.0
 11
63.272827999999997
 21
-223.148313
 31
0.0
  0
LINE
  5
27A
  8
DETAIL
  6
CONTINUOUS
 62
     5
 10
61.011167999999998
 20
-212.593996
 30
0.0
 11
62.267634999999999
 21
-213.297617
 31
0.0
  0
LINE
  5
27B
  8
DETAIL
  6
CONTINUOUS
 62
     5
 10
58.749527999999998
 20
-208.82460900000001
 30
0.0
 11
58.749527999999998
 21
-212.594007
 31
0.0
  0
LINE
  5
27C
  8
DETAIL
  6
CONTINUOUS
 62
     5
 10
58.246941999999997
 20
-208.82460900000001
 30
0.0
 11
58.246941999999997
 21
-212.594007
 31
0.0
  0
ARC
  5
27D
  8
DETAIL
  6
CONTINUOUS
 62
     5
 10
60.382932999999987
 20
-215.46995799999999
 30
0.0
 40
2.8759579999999998
 50
90.000018000000011
 51
130.94458800000001
  0
LINE
  5
27E
  8
OUTLINE
  6
CONTINUOUS
 62
     3
 10
58.246941999999997
 20
-208.82460900000001
 30
0.0
 11
58.246941999999997
 21
-212.594007
 31
0.0
  0
LINE
  5
27F
  8
OUTLINE
  6
CONTINUOUS
 62
     3
 10
58.749527999999998
 20
-208.82460900000001
 30
0.0
 11
58.749527999999998
 21
-212.594007
 31
0.0
  0
ARC
  5
280
  8
OUTLINE
  6
CONTINUOUS
 62
     3
 10
60.382932999999987
 20
-215.46995799999999
 30
0.0
 40
2.8759579999999998
 50
90.000018000000011
 51
130.94458800000001
  0
LINE
  5
281
  8
OUTLINE
  6
CONTINUOUS
 62
     3
 10
61.011167999999998
 20
-212.593996
 30
0.0
 11
62.267634999999999
 21
-213.297617
 31
0.0
  0
LINE
  5
282
  8
OUTLINE
  6
CONTINUOUS
 62
     3
 10
63.272827999999997
 20
-219.127622
 30
0.0
 11
63.272827999999997
 21
-223.148313
 31
0.0
  0
LINE
  5
283
  8
OUTLINE
  6
CONTINUOUS
 62
     3
 10
58.498233999999997
 20
-219.127622
 30
0.0
 11
58.498233999999997
 21
-213.29762099999999
 31
0.0
  0
LINE
  5
284
  8
OUTLINE
  6
CONTINUOUS
 62
     3
 10
62.267631999999992
 20
-213.29762099999999
 30
0.0
 11
62.267631999999992
 21
-219.127622
 31
0.0
  0
LINE
  5
285
  8
DETAIL
  6
CONTINUOUS
 62
     5
 10
60.488560999999997
 20
-178.920716
 30
0.0
 11
60.488560999999997
 21
-212.59399999999999
 31
0.0
  0
LINE
  5
286
  8
DETAIL
  6
CONTINUOUS
 62
     5
 10
58.710012999999996
 20
-178.920716
 30
0.0
 11
58.710012999999996
 21
-208.82460900000001
 31
0.0
  0
LINE
  5
287
  8
DETAIL
  6
CONTINUOUS
 62
     5
 10
128.34937099999999
 20
-134.14512099999999
 30
0.0
 11
67.948631999999989
 21
-111.77500499999999
 31
0.0
  0
ARC
  5
288
  8
DETAIL
  6
CONTINUOUS
 62
     5
 10
783.46353499999998
 20
960.56206199999986
 30
0.0
 40
1271.797008
 50
236.97414699999999
 51
239.07953599999999
  0
ARC
  5
289
  8
DETAIL
  6
CONTINUOUS
 62
     5
 10
783.46353499999998
 20
960.56206199999986
 30
0.0
 40
1268.782226
 50
237.69018299999999
 51
239.07302000000001
  0
LINE
  5
28A
  8
DETAIL
  6
CONTINUOUS
 62
     5
 10
30.03256
 20
-97.731217999999998
 30
0.0
 11
67.949930000000009
 21
-111.77499299999999
 31
0.0
  0
LINE
  5
28B
  8
DETAIL
  6
CONTINUOUS
 62
     5
 10
18.595694000000002
 20
-97.105461000000005
 30
0.0
 11
26.541384999999998
 21
-97.105461000000005
 31
0.0
  0
ARC
  5
28C
  8
DETAIL
  6
CONTINUOUS
 62
     5
 10
26.541384999999998
 20
-107.157188
 30
0.0
 40
10.051727
 50
69.676457999999997
 51
90.0
  0
ARC
  5
28D
  8
DETAIL
  6
CONTINUOUS
 62
     5
 10
16.082763
 20
-99.115807000000004
 30
0.0
 40
2.010345
 50
90.0
 51
180.0
  0
LINE
  5
28E
  8
DETAIL
  6
CONTINUOUS
 62
     5
 10
18.595694000000002
 20
-95.491320000000002
 30
0.0
 11
18.595694000000002
 21
-97.105461000000005
 31
0.0
  0
ARC
  5
28F
  8
DETAIL
  6
CONTINUOUS
 62
     5
 10
20.196991000000001
 20
-133.04936699999999
 30
0.0
 40
5.0258620000000001
 50
4.9999709999999986
 51
85.000010000000003
  0
LINE
  5
290
  8
DETAIL
  6
CONTINUOUS
 62
     5
 10
35.512267999999999
 20
-144.24225799999999
 30
0.0
 11
34.356102
 21
-145.18404200000001
 31
0.0
  0
LINE
  5
291
  8
DETAIL
  6
CONTINUOUS
 62
     5
 10
34.360540999999998
 20
-145.18044800000001
 30
0.0
 11
33.657204999999998
 21
-145.75001700000001
 31
0.0
  0
LINE
  5
292
  8
DETAIL
  6
CONTINUOUS
 62
     5
 10
31.453543
 20
-145.013293
 30
0.0
 11
30.217517999999998
 21
-144.24225799999999
 31
0.0
  0
LINE
  5
293
  8
DETAIL
  6
CONTINUOUS
 62
     5
 10
32.62305700000001
 20
-145.75001700000001
 30
0.0
 11
31.449313
 21
-145.01062899999999
 31
0.0
  0
LINE
  5
294
  8
DETAIL
  6
CONTINUOUS
 62
     5
 10
26.038882999999998
 20
-141.95619500000001
 30
0.0
 11
25.203735999999999
 21
-132.61133599999999
 31
0.0
  0
LINE
  5
295
  8
DETAIL
  6
CONTINUOUS
 62
     5
 10
56.289669999999987
 20
-144.24225799999999
 30
0.0
 11
57.797429000000001
 21
-145.75001700000001
 31
0.0
  0
LINE
  5
296
  8
DETAIL
  6
CONTINUOUS
 62
     5
 10
56.289669999999987
 20
-144.24225799999999
 30
0.0
 11
35.512329000000001
 21
-144.24225799999999
 31
0.0
  0
ARC
  5
297
  8
DETAIL
  6
CONTINUOUS
 62
     5
 10
11.056899
 20
-141.985052
 30
0.0
 40
1.8093109999999999
 50
315.0
 51
355.36044700000002
  0
LINE
  5
298
  8
DETAIL
  6
CONTINUOUS
 62
     5
 10
12.336275000000001
 20
-143.26442800000001
 30
0.0
 11
11.358445
 21
-144.24225799999999
 31
0.0
  0
LINE
  5
299
  8
DETAIL
  6
CONTINUOUS
 62
     5
 10
13.067245
 20
-121.02276999999999
 30
0.0
 11
14.072417
 21
-120.01759699999999
 31
0.0
  0
LINE
  5
29A
  8
DETAIL
  6
CONTINUOUS
 62
     5
 10
14.072417
 20
-125.546047
 30
0.0
 11
14.072417
 21
-123.535701
 31
0.0
  0
LINE
  5
29B
  8
DETAIL
  6
CONTINUOUS
 62
     5
 10
14.072417
 20
-123.535701
 30
0.0
 11
14.072417
 21
-121.02276999999999
 31
0.0
  0
LINE
  5
29C
  8
DETAIL
  6
CONTINUOUS
 62
     5
 10
20.635031000000001
 20
-128.04261700000001
 30
0.0
 11
15.077541
 21
-127.55640200000001
 31
0.0
  0
LINE
  5
29D
  8
DETAIL
  6
CONTINUOUS
 62
     5
 10
8.5439679999999996
 20
-127.55640099999999
 30
0.0
 11
8.5439679999999996
 21
-125.546047
 31
0.0
  0
LINE
  5
29E
  8
DETAIL
  6
CONTINUOUS
 62
     5
 10
14.072417
 20
-99.115807000000004
 30
0.0
 11
14.072417
 21
-120.01759699999999
 31
0.0
  0
LINE
  5
29F
  8
DETAIL
  6
CONTINUOUS
 62
     5
 10
65.537257999999994
 20
-157.10846900000001
 30
0.0
 11
65.827194999999989
 21
-157.10846900000001
 31
0.0
  0
ARC
  5
2A0
  8
DETAIL
  6
CONTINUOUS
 62
     5
 10
783.46353499999998
 20
960.56206199999986
 30
0.0
 40
1268.782226
 50
236.4214640000001
 51
237.69018299999999
  0
ARC
  5
2A1
  8
DETAIL
  6
CONTINUOUS
 62
     5
 10
783.46353499999998
 20
960.56206199999986
 30
0.0
 40
1271.797008
 50
236.21742000000009
 51
237.47605300000001
  0
ARC
  5
2A2
  8
DETAIL
  6
CONTINUOUS
 62
     5
 10
58.501049999999999
 20
-152.786226
 30
0.0
 40
7.0362089999999986
 50
0.0
 51
90.0
  0
LINE
  5
2A3
  8
DETAIL
  6
CONTINUOUS
 62
     5
 10
224.60158200000001
 20
-157.81210999999999
 30
0.0
 11
224.60158200000001
 21
-34.175865000000002
 31
0.0
  0
LINE
  5
2A4
  8
OUTLINE
  6
CONTINUOUS
 62
     3
 10
224.60158200000001
 20
-157.81210999999999
 30
0.0
 11
224.60158200000001
 21
-34.175865000000002
 31
0.0
  0
LINE
  5
2A5
  8
DETAIL
  6
CONTINUOUS
 62
     5
 10
148.94318699999999
 20
-96.496556000000027
 30
0.0
 11
224.60158200000001
 21
-146.645535
 31
0.0
  0
LINE
  5
2A6
  8
DETAIL
  6
CONTINUOUS
 62
     5
 10
144.289987
 20
-135.69829100000001
 30
0.0
 11
224.60158200000001
 21
-155.156946
 31
0.0
  0
LINE
  5
2A7
  8
DETAIL
  6
CONTINUOUS
 62
     5
 10
132.47310400000001
 20
-132.835184
 30
0.0
 11
144.289987
 21
-135.69829100000001
 31
0.0
  0
ARC
  5
2A8
  8
DETAIL
  6
CONTINUOUS
 62
     5
 10
128.92026999999999
 20
-132.21284900000001
 30
0.0
 40
2.010345
 50
249.677527
 51
59.079222999999999
  0
ARC
  5
2A9
  8
DETAIL
  6
CONTINUOUS
 62
     5
 10
129.57126400000001
 20
-130.8461199999999
 30
0.0
 40
3.5181029999999991
 50
249.676817
 51
59.073157999999999
  0
LINE
  5
2AA
  8
DETAIL
  6
DASHED
 62
     5
 10
215.31113199999999
 20
-10.051727
 30
0.0
 11
225.36285899999999
 21
-10.051727
 31
0.0
  0
LINE
  5
2AB
  8
OUTLINE
  6
DASHED
 62
     3
 10
215.31113199999999
 20
-10.051727
 30
0.0
 11
225.36285899999999
 21
-10.051727
 31
0.0
  0
LINE
  5
2AC
  8
DETAIL
  6
CONTINUOUS
 62
     5
 10
194.038669
 20
-20.103452999999998
 30
0.0
 11
194.038669
 21
-26.134488999999999
 31
0.0
  0
LINE
  5
2AD
  8
DETAIL
  6
CONTINUOUS
 62
     5
 10
230.18768800000001
 20
-26.134488999999999
 30
0.0
 11
210.48630299999999
 21
-26.134488999999999
 31
0.0
  0
LINE
  5
2AE
  8
DETAIL
  6
CONTINUOUS
 62
     5
 10
210.48630299999999
 20
-26.134488999999999
 30
0.0
 11
210.48630299999999
 21
-33.271214999999998
 31
0.0
  0
LINE
  5
2AF
  8
DETAIL
  6
CONTINUOUS
 62
     5
 10
210.486299
 20
-33.271222000000002
 30
0.0
 11
212.04431700000001
 21
-34.175877
 31
0.0
  0
LINE
  5
2B0
  8
DETAIL
  6
CONTINUOUS
 62
     5
 10
228.62967399999999
 20
-34.175877
 30
0.0
 11
230.187692
 21
-33.271222000000002
 31
0.0
  0
LINE
  5
2B1
  8
DETAIL
  6
CONTINUOUS
 62
     5
 10
230.18768800000001
 20
-33.271214999999998
 30
0.0
 11
230.18768800000001
 21
-26.134488999999999
 31
0.0
  0
LINE
  5
2B2
  8
DETAIL
  6
CONTINUOUS
 62
     5
 10
225.26233999999999
 20
-26.13449
 30
0.0
 11
225.26233999999999
 21
-33.271214999999998
 31
0.0
  0
LINE
  5
2B3
  8
DETAIL
  6
CONTINUOUS
 62
     5
 10
215.41165100000001
 20
-26.134488999999999
 30
0.0
 11
215.41165100000001
 21
-33.271214999999998
 31
0.0
  0
ARC
  5
2B4
  8
DETAIL
  6
CONTINUOUS
 62
     5
 10
227.72501199999999
 20
-30.37154000000001
 30
0.0
 40
3.8043219999999991
 50
229.65902399999999
 51
269.99998199999999
  0
ARC
  5
2B5
  8
DETAIL
  6
CONTINUOUS
 62
     5
 10
220.336995
 20
-20.315645
 30
0.0
 40
13.86022
 50
249.18457100000001
 51
290.81533899999999
  0
ARC
  5
2B6
  8
DETAIL
  6
CONTINUOUS
 62
     5
 10
212.94897900000001
 20
-30.37154000000001
 30
0.0
 40
3.8043219999999991
 50
269.99998199999999
 51
310.340937
  0
LINE
  5
2B7
  8
DETAIL
  6
CONTINUOUS
 62
     5
 10
228.62968000000001
 20
-34.175865000000002
 30
0.0
 11
212.04431099999999
 21
-34.175865000000002
 31
0.0
  0
LINE
  5
2B8
  8
DETAIL
  6
CONTINUOUS
 62
     5
 10
229.57688899999999
 20
-26.134488999999999
 30
0.0
 11
229.57688899999999
 21
-20.103452999999998
 31
0.0
  0
LINE
  5
2B9
  8
DETAIL
  6
CONTINUOUS
 62
     5
 10
218.20465999999999
 20
-26.134488999999999
 30
0.0
 11
218.20465999999999
 21
-20.103452999999998
 31
0.0
  0
LINE
  5
2BA
  8
OUTLINE
  6
CONTINUOUS
 62
     3
 10
218.20465999999999
 20
-26.134488999999999
 30
0.0
 11
218.20465999999999
 21
-20.103452999999998
 31
0.0
  0
LINE
  5
2BB
  8
OUTLINE
  6
CONTINUOUS
 62
     3
 10
229.57688899999999
 20
-26.134488999999999
 30
0.0
 11
229.57688899999999
 21
-20.103452999999998
 31
0.0
  0
LINE
  5
2BC
  8
OUTLINE
  6
CONTINUOUS
 62
     3
 10
228.62968000000001
 20
-34.175865000000002
 30
0.0
 11
212.04431099999999
 21
-34.175865000000002
 31
0.0
  0
ARC
  5
2BD
  8
OUTLINE
  6
CONTINUOUS
 62
     3
 10
212.94897900000001
 20
-30.37154000000001
 30
0.0
 40
3.8043219999999991
 50
269.99998199999999
 51
310.340937
  0
ARC
  5
2BE
  8
OUTLINE
  6
CONTINUOUS
 62
     3
 10
220.336995
 20
-20.315645
 30
0.0
 40
13.86022
 50
249.18457100000001
 51
290.81533899999999
  0
ARC
  5
2BF
  8
OUTLINE
  6
CONTINUOUS
 62
     3
 10
227.72501199999999
 20
-30.37154000000001
 30
0.0
 40
3.8043219999999991
 50
229.65902399999999
 51
269.99998199999999
  0
LINE
  5
2C0
  8
OUTLINE
  6
CONTINUOUS
 62
     3
 10
215.41165100000001
 20
-26.134488999999999
 30
0.0
 11
215.41165100000001
 21
-33.271214999999998
 31
0.0
  0
LINE
  5
2C1
  8
OUTLINE
  6
CONTINUOUS
 62
     3
 10
225.26233999999999
 20
-26.13449
 30
0.0
 11
225.26233999999999
 21
-33.271214999999998
 31
0.0
  0
LINE
  5
2C2
  8
OUTLINE
  6
CONTINUOUS
 62
     3
 10
230.18768800000001
 20
-33.271214999999998
 30
0.0
 11
230.18768800000001
 21
-26.134488999999999
 31
0.0
  0
LINE
  5
2C3
  8
OUTLINE
  6
CONTINUOUS
 62
     3
 10
228.62967399999999
 20
-34.175877
 30
0.0
 11
230.187692
 21
-33.271222000000002
 31
0.0
  0
LINE
  5
2C4
  8
OUTLINE
  6
CONTINUOUS
 62
     3
 10
210.486299
 20
-33.271222000000002
 30
0.0
 11
212.04431700000001
 21
-34.175877
 31
0.0
  0
LINE
  5
2C5
  8
OUTLINE
  6
CONTINUOUS
 62
     3
 10
210.48630299999999
 20
-26.134488999999999
 30
0.0
 11
210.48630299999999
 21
-33.271214999999998
 31
0.0
  0
LINE
  5
2C6
  8
OUTLINE
  6
CONTINUOUS
 62
     3
 10
230.18768800000001
 20
-26.134488999999999
 30
0.0
 11
210.48630299999999
 21
-26.134488999999999
 31
0.0
  0
LINE
  5
2C7
  8
OUTLINE
  6
CONTINUOUS
 62
     3
 10
194.038669
 20
-20.103452999999998
 30
0.0
 11
194.038669
 21
-26.134488999999999
 31
0.0
  0
ARC
  5
2C8
  8
DETAIL
  6
CONTINUOUS
 62
     5
 10
307.38180299999999
 20
-44.829180999999998
 30
0.0
 40
50.258634000000001
 50
180.0
 51
242.67955599999999
  0
ARC
  5
2C9
  8
OUTLINE
  6
CONTINUOUS
 62
     3
 10
307.38180299999999
 20
-44.829180999999998
 30
0.0
 40
50.258634000000001
 50
180.0
 51
242.67955599999999
  0
LINE
  5
2CA
  8
DETAIL
  6
CONTINUOUS
 62
     5
 10
251.610634
 20
-157.81210999999999
 30
0.0
 11
251.610634
 21
-26.134488999999999
 31
0.0
  0
LINE
  5
2CB
  8
DETAIL
  6
CONTINUOUS
 62
     5
 10
247.346047
 20
-157.81210999999999
 30
0.0
 11
247.346047
 21
-26.134488999999999
 31
0.0
  0
LINE
  5
2CC
  8
OUTLINE
  6
CONTINUOUS
 62
     3
 10
247.346047
 20
-157.81210999999999
 30
0.0
 11
247.346047
 21
-26.134488999999999
 31
0.0
  0
LINE
  5
2CD
  8
OUTLINE
  6
CONTINUOUS
 62
     3
 10
251.610634
 20
-157.81210999999999
 30
0.0
 11
251.610634
 21
-26.134488999999999
 31
0.0
  0
LINE
  5
2CE
  8
DETAIL
  6
CONTINUOUS
 62
     5
 10
301.071708
 20
-95.491320000000002
 30
0.0
 11
251.610634
 21
-95.491320000000002
 31
0.0
  0
LINE
  5
2CF
  8
DETAIL
  6
CONTINUOUS
 62
     5
 10
301.049215
 20
-89.460367999999988
 30
0.0
 11
251.610634
 21
-89.460367999999988
 31
0.0
  0
LINE
  5
2D0
  8
OUTLINE
  6
CONTINUOUS
 62
     3
 10
301.049215
 20
-89.460367999999988
 30
0.0
 11
251.610634
 21
-89.460367999999988
 31
0.0
  0
LINE
  5
2D1
  8
OUTLINE
  6
CONTINUOUS
 62
     3
 10
301.071708
 20
-95.491320000000002
 30
0.0
 11
251.610634
 21
-95.491320000000002
 31
0.0
  0
ARC
  5
2D2
  8
DETAIL
  6
CONTINUOUS
 62
     5
 10
301.049215
 20
-92.475886000000003
 30
0.0
 40
3.0155180000000001
 50
270.42736300000001
 51
90.0
  0
ARC
  5
2D3
  8
OUTLINE
  6
CONTINUOUS
 62
     3
 10
301.049215
 20
-92.475886000000003
 30
0.0
 40
3.0155180000000001
 50
270.42736300000001
 51
90.0
  0
ARC
  5
2D4
  8
DETAIL
  6
CONTINUOUS
 62
     5
 10
294.2917490000001
 20
-14.072417
 30
0.0
 40
4.0206910000000002
 50
90.0
 51
180.0
  0
ARC
  5
2D5
  8
OUTLINE
  6
CONTINUOUS
 62
     3
 10
294.2917490000001
 20
-14.072417
 30
0.0
 40
4.0206910000000002
 50
90.0
 51
180.0
  0
ARC
  5
2D6
  8
DETAIL
  6
CONTINUOUS
 62
     5
 10
287.47938399999998
 20
-16.082763
 30
0.0
 40
4.0206910000000002
 50
270.0
 51
0.0
  0
ARC
  5
2D7
  8
DETAIL
  6
CONTINUOUS
 62
     5
 10
286.25036699999998
 20
-16.082763
 30
0.0
 40
4.0206910000000002
 50
270.000001
 51
0.0
  0
ARC
  5
2D8
  8
OUTLINE
  6
CONTINUOUS
 62
     3
 10
286.25036699999998
 20
-16.082763
 30
0.0
 40
4.0206910000000002
 50
270.000001
 51
0.0
  0
ARC
  5
2D9
  8
OUTLINE
  6
CONTINUOUS
 62
     3
 10
287.47938399999998
 20
-16.082763
 30
0.0
 40
4.0206910000000002
 50
270.0
 51
0.0
  0
LINE
  5
2DA
  8
DETAIL
  6
DASHED
 62
     5
 10
250.84934699999999
 20
-10.051727
 30
0.0
 11
260.901073
 21
-10.051727
 31
0.0
  0
LINE
  5
2DB
  8
OUTLINE
  6
DASHED
 62
     3
 10
250.84934699999999
 20
-10.051727
 30
0.0
 11
260.901073
 21
-10.051727
 31
0.0
  0
ARC
  5
2DC
  8
DETAIL
  6
CONTINUOUS
 62
     5
 10
277.22662300000002
 20
-40.206907000000001
 30
0.0
 40
20.103452999999998
 50
90.0
 51
102.33040099999999
  0
LINE
  5
2DD
  8
DETAIL
  6
CONTINUOUS
 62
     5
 10
282.17344700000001
 20
-20.103452999999998
 30
0.0
 11
282.17344700000001
 21
-26.134488999999999
 31
0.0
  0
LINE
  5
2DE
  8
DETAIL
  6
CONTINUOUS
 62
     5
 10
272.93355500000001
 20
-20.103452999999998
 30
0.0
 11
272.93355500000001
 21
-26.134488999999999
 31
0.0
  0
LINE
  5
2DF
  8
OUTLINE
  6
CONTINUOUS
 62
     3
 10
272.93355500000001
 20
-20.103452999999998
 30
0.0
 11
272.93355500000001
 21
-26.134488999999999
 31
0.0
  0
LINE
  5
2E0
  8
OUTLINE
  6
CONTINUOUS
 62
     3
 10
282.17344700000001
 20
-20.103452999999998
 30
0.0
 11
282.17344700000001
 21
-26.134488999999999
 31
0.0
  0
ARC
  5
2E1
  8
OUTLINE
  6
CONTINUOUS
 62
     3
 10
277.22662300000002
 20
-40.206907000000001
 30
0.0
 40
20.103452999999998
 50
90.0
 51
102.33040099999999
  0
ARC
  5
2E2
  8
DETAIL
  6
CONTINUOUS
 62
     5
 10
277.22662300000002
 20
-40.206907000000001
 30
0.0
 40
20.103452999999998
 50
162.54238000000001
 51
180.0
  0
LINE
  5
2E3
  8
DETAIL
  6
CONTINUOUS
 62
     5
 10
257.12317000000002
 20
-44.829180999999998
 30
0.0
 11
257.12317000000002
 21
-40.206907000000001
 31
0.0
  0
LINE
  5
2E4
  8
DETAIL
  6
CONTINUOUS
 62
     5
 10
264.167888
 20
-34.175877
 30
0.0
 11
265.72590600000001
 21
-33.271222000000002
 31
0.0
  0
LINE
  5
2E5
  8
DETAIL
  6
CONTINUOUS
 62
     5
 10
265.72590200000002
 20
-33.271214999999998
 30
0.0
 11
265.72590200000002
 21
-26.134488999999999
 31
0.0
  0
LINE
  5
2E6
  8
DETAIL
  6
CONTINUOUS
 62
     5
 10
260.80055499999997
 20
-26.13449
 30
0.0
 11
260.80055499999997
 21
-33.271214999999998
 31
0.0
  0
ARC
  5
2E7
  8
DETAIL
  6
CONTINUOUS
 62
     5
 10
263.26322699999997
 20
-30.37154000000001
 30
0.0
 40
3.8043219999999991
 50
229.65902399999999
 51
269.99998199999999
  0
ARC
  5
2E8
  8
DETAIL
  6
CONTINUOUS
 62
     5
 10
255.87521000000001
 20
-20.315645
 30
0.0
 40
13.86022
 50
252.080252
 51
290.81533899999999
  0
LINE
  5
2E9
  8
DETAIL
  6
CONTINUOUS
 62
     5
 10
264.16789399999999
 20
-34.175865000000002
 30
0.0
 11
251.610634
 21
-34.175865000000002
 31
0.0
  0
ARC
  5
2EA
  8
OUTLINE
  6
CONTINUOUS
 62
     3
 10
277.22662300000002
 20
-40.206907000000001
 30
0.0
 40
20.103452999999998
 50
162.54238000000001
 51
180.0
  0
LINE
  5
2EB
  8
OUTLINE
  6
CONTINUOUS
 62
     3
 10
257.12317000000002
 20
-44.829180999999998
 30
0.0
 11
257.12317000000002
 21
-40.206907000000001
 31
0.0
  0
LINE
  5
2EC
  8
OUTLINE
  6
CONTINUOUS
 62
     3
 10
264.16789399999999
 20
-34.175865000000002
 30
0.0
 11
251.610634
 21
-34.175865000000002
 31
0.0
  0
ARC
  5
2ED
  8
OUTLINE
  6
CONTINUOUS
 62
     3
 10
255.87521000000001
 20
-20.315645
 30
0.0
 40
13.86022
 50
252.080252
 51
290.81533899999999
  0
ARC
  5
2EE
  8
OUTLINE
  6
CONTINUOUS
 62
     3
 10
263.26322699999997
 20
-30.37154000000001
 30
0.0
 40
3.8043219999999991
 50
229.65902399999999
 51
269.99998199999999
  0
LINE
  5
2EF
  8
OUTLINE
  6
CONTINUOUS
 62
     3
 10
260.80055499999997
 20
-26.13449
 30
0.0
 11
260.80055499999997
 21
-33.271214999999998
 31
0.0
  0
LINE
  5
2F0
  8
OUTLINE
  6
CONTINUOUS
 62
     3
 10
265.72590200000002
 20
-33.271214999999998
 30
0.0
 11
265.72590200000002
 21
-26.134488999999999
 31
0.0
  0
LINE
  5
2F1
  8
OUTLINE
  6
CONTINUOUS
 62
     3
 10
264.167888
 20
-34.175877
 30
0.0
 11
265.72590600000001
 21
-33.271222000000002
 31
0.0
  0
LINE
  5
2F2
  8
DETAIL
  6
CONTINUOUS
 62
     5
 10
265.72590200000002
 20
-26.134488999999999
 30
0.0
 11
246.024518
 21
-26.134488999999999
 31
0.0
  0
LINE
  5
2F3
  8
OUTLINE
  6
CONTINUOUS
 62
     3
 10
265.72590200000002
 20
-26.134488999999999
 30
0.0
 11
246.024518
 21
-26.134488999999999
 31
0.0
  0
ARC
  5
2F4
  8
DETAIL
  6
CONTINUOUS
 62
     5
 10
303.76318199999997
 20
-6.0310360000000003
 30
0.0
 40
4.0206910000000002
 50
270.0
 51
334.80506700000001
  0
LINE
  5
2F5
  8
DETAIL
  6
CONTINUOUS
 62
     5
 10
311.505382
 20
-2.9783629999999999
 30
0.0
 11
310.351899
 21
-6.8098029999999987
 31
0.0
  0
ARC
  5
2F6
  8
DETAIL
  6
CONTINUOUS
 62
     5
 10
309.10064899999998
 20
-6.4331050000000003
 30
0.0
 40
1.3067239999999991
 50
270.0
 51
343.24519500000002
  0
ARC
  5
2F7
  8
OUTLINE
  6
CONTINUOUS
 62
     3
 10
309.10064899999998
 20
-6.4331050000000003
 30
0.0
 40
1.3067239999999991
 50
270.0
 51
343.24519500000002
  0
LINE
  5
2F8
  8
OUTLINE
  6
CONTINUOUS
 62
     3
 10
311.505382
 20
-2.9783629999999999
 30
0.0
 11
310.351899
 21
-6.8098029999999987
 31
0.0
  0
ARC
  5
2F9
  8
OUTLINE
  6
CONTINUOUS
 62
     3
 10
303.76318199999997
 20
-6.0310360000000003
 30
0.0
 40
4.0206910000000002
 50
270.0
 51
334.80506700000001
  0
ARC
  5
2FA
  8
DETAIL
  6
CONTINUOUS
 62
     5
 10
295.52076600000009
 20
-14.072417
 30
0.0
 40
4.0206910000000002
 50
90.0
 51
180.0
  0
LINE
  5
2FB
  8
DETAIL
  6
CONTINUOUS
 62
     5
 10
290.27105799999998
 20
-14.072417
 30
0.0
 11
290.27105799999998
 21
-16.082763
 31
0.0
  0
LINE
  5
2FC
  8
DETAIL
  6
CONTINUOUS
 62
     5
 10
291.50007499999998
 20
-16.082763
 30
0.0
 11
291.50007499999998
 21
-14.072417
 31
0.0
  0
LINE
  5
2FD
  8
OUTLINE
  6
CONTINUOUS
 62
     3
 10
291.50007499999998
 20
-16.082763
 30
0.0
 11
291.50007499999998
 21
-14.072417
 31
0.0
  0
LINE
  5
2FE
  8
OUTLINE
  6
CONTINUOUS
 62
     3
 10
290.27105799999998
 20
-14.072417
 30
0.0
 11
290.27105799999998
 21
-16.082763
 31
0.0
  0
ARC
  5
2FF
  8
OUTLINE
  6
CONTINUOUS
 62
     3
 10
295.52076600000009
 20
-14.072417
 30
0.0
 40
4.0206910000000002
 50
90.0
 51
180.0
  0
LINE
  5
300
  8
NOTE
  6
CONTINUOUS
 62
     4
 39
50.0
 10
375.06366100000002
 20
37.324121000000012
 30
0.0
 11
649.77295700000002
 21
37.324121000000012
 31
0.0
  0
LINE
  5
301
  8
NOTE
  6
CONTINUOUS
 62
     4
 39
50.0
 10
375.06366100000002
 20
37.324121000000012
 30
0.0
 11
280.0
 21
0.000021
 31
0.0
  0
TEXT
  5
302
  8
NOTE
  6
CONTINUOUS
 62
     4
 10
378.64755200000002
 20
56.060961999999989
 30
0.0
 40
64.0
  1
4-φ14
 41
0.9
  0
LINE
  5
303
  8
NOTE
  6
CONTINUOUS
 62
     4
 10
312.685517
 20
23.05771
 30
0.0
 11
280.0
 21
0.000021
 31
0.0
  0
LINE
  5
304
  8
NOTE
  6
CONTINUOUS
 62
     4
 10
280.0
 20
0.000021
 30
0.0
 11
319.83533199999999
 21
3.625807
 31
0.0
  0
LINE
  5
305
  8
NOTE
  6
CONTINUOUS
 62
     4
 39
50.0
 10
247.346047
 20
-39.999979000000003
 30
0.0
 11
352.62874699999998
 21
-134.59931499999999
 31
0.0
  0
LINE
  5
306
  8
NOTE
  6
CONTINUOUS
 62
     4
 39
50.0
 10
352.62874699999998
 20
-134.59931499999999
 30
0.0
 11
482.48149599999999
 21
-134.599334
 31
0.0
  0
TEXT
  5
307
  8
NOTE
  6
CONTINUOUS
 62
     4
 10
375.21183500000001
 20
-122.79857800000001
 30
0.0
 40
64.0
  1
EL
 50
359.99998799999997
 41
0.9
  0
LINE
  5
308
  8
NOTE
  6
CONTINUOUS
 62
     4
 10
268.13547499999999
 20
-74.173062999999985
 30
0.0
 11
247.346047
 21
-39.999979000000003
 31
0.0
  0
LINE
  5
309
  8
NOTE
  6
CONTINUOUS
 62
     4
 10
247.346047
 20
-39.999979000000003
 30
0.0
 11
282.43676199999999
 21
-59.200023999999999
 31
0.0
  0
LINE
  5
30A
  8
DETAIL
  6
CONTINUOUS
 62
     5
 39
50.0
 10
247.346047
 20
-39.999979000000003
 30
0.0
 11
266.97265700000003
 21
-39.999979000000003
 31
0.0
  0
ARC
  5
30B
  8
DETAIL
  6
CONTINUOUS
 62
     5
 39
50.0
 10
266.97265700000003
 20
-42.501668000000002
 30
0.0
 40
2.5
 50
0.0
 51
90.0
  0
LINE
  5
30C
  8
DETAIL
  6
CONTINUOUS
 62
     5
 39
50.0
 10
266.97265700000003
 20
-47.999979000000003
 30
0.0
 11
247.846047
 21
-47.999979000000003
 31
0.0
  0
ARC
  5
30D
  8
DETAIL
  6
CONTINUOUS
 62
     5
 39
50.0
 10
266.97265700000003
 20
-45.499979000000003
 30
0.0
 40
2.5
 50
270.0
 51
0.0
  0
LINE
  5
30E
  8
DETAIL
  6
CONTINUOUS
 62
     5
 10
269.47265700000003
 20
-42.501668000000002
 30
0.0
 11
269.47265700000003
 21
-45.499979000000003
 31
0.0
  0
LINE
  5
30F
  8
NOTE
  6
CONTINUOUS
 62
     4
 10
227.346047
 20
-39.999979000000003
 30
0.0
 11
267.346047
 21
-39.999979000000003
 31
0.0
  0
LINE
  5
310
  8
NOTE
  6
CONTINUOUS
 62
     4
 10
247.346047
 20
-19.999979
 30
0.0
 11
247.346047
 21
-59.999979000000003
 31
0.0
  0
ARC
  5
311
  8
DETAIL
  6
CONTINUOUS
 62
     5
 39
50.0
 10
247.346047
 20
-52.499979000000003
 30
0.0
 40
12.5
 50
90.0
 51
180.0
  0
ARC
  5
312
  8
DETAIL
  6
CONTINUOUS
 62
     5
 39
50.0
 10
247.846047
 20
-52.99997900000001
 30
0.0
 40
5.0
 50
90.0
 51
180.0
  0
LINE
  5
313
  8
DETAIL
  6
CONTINUOUS
 62
     5
 10
242.846047
 20
-52.99997900000001
 30
0.0
 11
242.846047
 21
-56.841709999999999
 31
0.0
  0
LINE
  5
314
  8
DETAIL
  6
CONTINUOUS
 62
     5
 39
50.0
 10
243.41201000000001
 20
-64.862973999999994
 30
0.0
 11
243.360634
 21
-80.753055000000003
 31
0.0
  0
LINE
  5
315
  8
DETAIL
  6
CONTINUOUS
 62
     5
 39
50.0
 10
235.41200699999999
 20
-64.855346999999995
 30
0.0
 11
235.41113300000001
 21
-73.338419999999999
 31
0.0
  0
LINE
  5
316
  8
DETAIL
  6
CONTINUOUS
 62
     5
 39
50.0
 10
224.60158200000001
 20
-64.844334000000003
 30
0.0
 11
251.31622799999991
 21
-64.868530000000007
 31
0.0
  0
LINE
  5
317
  8
DETAIL
  6
CONTINUOUS
 62
     5
 39
50.0
 10
251.317205
 20
-56.842006999999988
 30
0.0
 11
224.60158200000001
 21
-56.841693999999997
 31
0.0
  0
LINE
  5
318
  8
DETAIL
  6
CONTINUOUS
 62
     5
 10
243.41201000000001
 20
-64.862973999999994
 30
0.0
 11
243.41201000000001
 21
-158.68695199999999
 31
0.0
  0
LINE
  5
319
  8
DETAIL
  6
CONTINUOUS
 62
     5
 10
235.41200699999999
 20
-64.855346999999995
 30
0.0
 11
235.41200699999999
 21
-158.68695199999999
 31
0.0
  0
LINE
  5
31A
  8
DETAIL
  6
CONTINUOUS
 62
     5
 10
234.846047
 20
-52.499979000000003
 30
0.0
 11
234.846047
 21
-56.841709999999999
 31
0.0
  0
ARC
  5
31B
  8
DETAIL
  6
CONTINUOUS
 62
     5
 10
148.16375099999999
 20
-153.96625700000001
 30
0.0
 40
87.375872999999984
 50
273.80877599999991
 51
356.90294699999998
  0
ARC
  5
31C
  8
DETAIL
  6
CONTINUOUS
 62
     5
 10
148.996478
 20
-154.690505
 30
0.0
 40
94.515668000000005
 50
272.14097400000003
 51
357.36233800000002
  0
LINE
  5
31D
  8
DETAIL
  6
CONTINUOUS
 62
     5
 39
50.0
 10
94.601044999999985
 20
-241.13951
 30
0.0
 11
103.11039599999999
 21
-241.13951
 31
0.0
  0
LINE
  5
31E
  8
DETAIL
  6
CONTINUOUS
 62
     5
 39
50.0
 10
94.601044999999985
 20
-249.13951
 30
0.0
 11
103.11039599999999
 21
-249.13951
 31
0.0
  0
LINE
  5
31F
  8
DETAIL
  6
CONTINUOUS
 62
     5
 10
111.041158
 20
-241.46905799999999
 30
0.0
 11
111.04082200000001
 21
-249.45833500000001
 31
0.0
  0
LINE
  5
320
  8
DETAIL
  6
CONTINUOUS
 62
     5
 10
111.04483500000001
 20
-229.393922
 30
0.0
 11
111.037145
 21
-261.53347100000002
 31
0.0
  0
LINE
  5
321
  8
DETAIL
  6
CONTINUOUS
 62
     5
 10
103.121028
 20
-229.07210499999999
 30
0.0
 11
103.107507
 21
-261.21516600000001
 31
0.0
  0
LINE
  5
322
  8
DETAIL
  6
CONTINUOUS
 62
     5
 10
94.601044999999985
 20
-228.17419699999999
 30
0.0
 11
94.601044999999985
 21
-260.33972199999999
 31
0.0
  0
LINE
  5
323
  8
DETAIL
  6
CONTINUOUS
 62
     5
 10
-94.398751000000004
 20
-228.17419699999999
 30
0.0
 11
-94.398751000000004
 21
-260.33972199999999
 31
0.0
  0
LINE
  5
324
  8
DETAIL
  6
CONTINUOUS
 62
     5
 10
153.96784400000001
 20
-241.14914300000001
 30
0.0
 11
111.042025
 21
-241.13887299999999
 31
0.0
  0
LINE
  5
325
  8
DETAIL
  6
CONTINUOUS
 62
     5
 10
152.52742799999999
 20
-249.14019500000001
 30
0.0
 11
111.04082200000001
 21
-249.45833500000001
 31
0.0
  0
LINE
  5
326
  8
OUTLINE
  6
CONTINUOUS
 62
     3
 10
-194.038669
 20
-26.134488999999999
 30
0.0
 11
-194.038669
 21
-20.103452999999998
 31
0.0
  0
LINE
  5
327
  8
DETAIL
  6
CONTINUOUS
 62
     5
 10
-194.038669
 20
-26.134488999999999
 30
0.0
 11
-194.038669
 21
-20.103452999999998
 31
0.0
  0
POINT
  5
328
  8
ARRANGE
  6
CONTINUOUS
 62
     1
 10
0.0
 20
0.0
 30
0.0
  0
TEXT
  5
331
  8
ETC
  6
CONTINUOUS
 62
    61
 10
380.3151658160171
 20
509.74391866175228
 30
0.0
 40
40.0
  1
EG-50DTB3_6
 41
0.9
  0
TEXT
  5
332
  8
ETC
  6
CONTINUOUS
 62
    61
 10
435.38807520020168
 20
385.81468966175231
 30
0.0
 40
40.0
  1
EG-50DTB1
 41
0.9
  0
TEXT
  5
333
  8
ETC
  6
CONTINUOUS
 62
    61
 10
380.3151658160171
 20
448.55800566175219
 30
0.0
 40
40.0
  1
産業扇
 41
0.9
  0
TEXT
  5
334
  8
ETC
  6
CONTINUOUS
 62
    61
 10
435.38807520020168
 20
324.86261666707247
 30
0.0
 40
40.0
  1
EG-50DTB3
 41
0.9
  0
ENDSEC
  0
EOF
