  0
SECTION
  2
HEADER
  9
$ACADVER
  1
AC1009
  9
$DWGCODEPAGE
  3
ansi_932
  9
$INSBASE
 10
0.0
 20
0.0
 30
0.0
  9
$EXTMIN
 10
-676.071254
 20
-483.8448289999999
 30
-100.110011
  9
$EXTMAX
 10
1025.071407623769
 20
545.0487824030741
 30
50.0
  9
$LIMMIN
 10
-2970.0
 20
-2100.0
  9
$LIMMAX
 10
2970.0
 20
2100.0
  9
$ORTHOMODE
 70
     1
  9
$REGENMODE
 70
     1
  9
$FILLMODE
 70
     1
  9
$QTEXTMODE
 70
     0
  9
$MIRRTEXT
 70
     0
  9
$DRAGMODE
 70
     2
  9
$LTSCALE
 40
20.0
  9
$OSMODE
 70
    37
  9
$ATTMODE
 70
     1
  9
$TEXTSIZE
 40
64.0
  9
$TRACEWID
 40
0.05
  9
$TEXTSTYLE
  7
STANDARD
  9
$CLAYER
  8
OUTLINE
  9
$CELTYPE
  6
CONTINUOUS
  9
$CECOLOR
 62
     3
  9
$DIMSCALE
 40
1.0
  9
$DIMASZ
 40
2.0
  9
$DIMEXO
 40
20.0
  9
$DIMDLI
 40
200.0
  9
$DIMRND
 40
0.0
  9
$DIMDLE
 40
0.0
  9
$DIMEXE
 40
30.0
  9
$DIMTP
 40
0.1
  9
$DIMTM
 40
0.1
  9
$DIMTXT
 40
64.0
  9
$DIMCEN
 40
0.09
  9
$DIMTSZ
 40
0.0
  9
$DIMTOL
 70
     0
  9
$DIMLIM
 70
     0
  9
$DIMTIH
 70
     0
  9
$DIMTOH
 70
     0
  9
$DIMSE1
 70
     0
  9
$DIMSE2
 70
     0
  9
$DIMTAD
 70
     1
  9
$DIMZIN
 70
     8
  9
$DIMBLK
  1
DOT1
  9
$DIMASO
 70
     1
  9
$DIMSHO
 70
     0
  9
$DIMPOST
  1
<>
  9
$DIMAPOST
  1
"
  9
$DIMALT
 70
     0
  9
$DIMALTD
 70
     2
  9
$DIMALTF
 40
0.03937
  9
$DIMLFAC
 40
1.0
  9
$DIMTOFL
 70
     1
  9
$DIMTVP
 40
0.0
  9
$DIMTIX
 70
     0
  9
$DIMSOXD
 70
     0
  9
$DIMSAH
 70
     1
  9
$DIMBLK1
  1

  9
$DIMBLK2
  1

  9
$DIMSTYLE
  2
GEN-ISO
  9
$DIMCLRD
 70
     7
  9
$DIMCLRE
 70
     7
  9
$DIMCLRT
 70
     7
  9
$DIMTFAC
 40
1.0
  9
$DIMGAP
 40
25.0
  9
$LUNITS
 70
     2
  9
$LUPREC
 70
     4
  9
$SKETCHINC
 40
0.1
  9
$FILLETRAD
 40
8.0
  9
$AUNITS
 70
     1
  9
$AUPREC
 70
     3
  9
$MENU
  1
ACAD
  9
$ELEVATION
 40
0.0
  9
$PELEVATION
 40
0.0
  9
$THICKNESS
 40
0.0
  9
$LIMCHECK
 70
     0
  9
$CHAMFERA
 40
0.0
  9
$CHAMFERB
 40
0.0
  9
$SKPOLY
 70
     0
  9
$TDCREATE
 40
2451372.547453704
  9
$TDUPDATE
 40
2457485.555651759
  9
$TDINDWG
 40
1.4364310995
  9
$TDUSRTIMER
 40
1.4364309144
  9
$USRTIMER
 70
     1
  9
$ANGBASE
 50
0.0
  9
$ANGDIR
 70
     0
  9
$PDMODE
 70
     3
  9
$PDSIZE
 40
-2.0
  9
$PLINEWID
 40
0.0
  9
$COORDS
 70
     1
  9
$SPLFRAME
 70
     0
  9
$SPLINETYPE
 70
     6
  9
$SPLINESEGS
 70
     8
  9
$ATTDIA
 70
     0
  9
$ATTREQ
 70
     1
  9
$HANDLING
 70
     1
  9
$HANDSEED
  5
107E
  9
$SURFTAB1
 70
     6
  9
$SURFTAB2
 70
     6
  9
$SURFTYPE
 70
     6
  9
$SURFU
 70
     6
  9
$SURFV
 70
     6
  9
$UCSNAME
  2
W_UCS
  9
$UCSORG
 10
-0.169333
 20
-0.0073669999999178
 30
0.0
  9
$UCSXDIR
 10
1.0
 20
0.0
 30
0.0
  9
$UCSYDIR
 10
0.0
 20
1.0
 30
0.0
  9
$PUCSNAME
  2

  9
$PUCSORG
 10
0.0
 20
0.0
 30
0.0
  9
$PUCSXDIR
 10
1.0
 20
0.0
 30
0.0
  9
$PUCSYDIR
 10
0.0
 20
1.0
 30
0.0
  9
$USERI1
 70
     0
  9
$USERI2
 70
     0
  9
$USERI3
 70
     0
  9
$USERI4
 70
     0
  9
$USERI5
 70
     0
  9
$USERR1
 40
20.0
  9
$USERR2
 40
0.0
  9
$USERR3
 40
0.0
  9
$USERR4
 40
0.0
  9
$USERR5
 40
0.0
  9
$WORLDVIEW
 70
     1
  9
$SHADEDGE
 70
     3
  9
$SHADEDIF
 70
    70
  9
$TILEMODE
 70
     1
  9
$MAXACTVP
 70
    48
  9
$PLIMCHECK
 70
     0
  9
$PEXTMIN
 10
-1.000000000000000E+20
 20
-1.000000000000000E+20
 30
-1.000000000000000E+20
  9
$PEXTMAX
 10
1.000000000000000E+20
 20
1.000000000000000E+20
 30
1.000000000000000E+20
  9
$PLIMMIN
 10
0.0
 20
0.0
  9
$PLIMMAX
 10
12.0
 20
9.0
  9
$UNITMODE
 70
     0
  9
$VISRETAIN
 70
     0
  9
$PLINEGEN
 70
     0
  9
$PSLTSCALE
 70
     0
  0
ENDSEC
  0
SECTION
  2
TABLES
  0
TABLE
  2
VPORT
 70
     1
  0
VPORT
  2
*ACTIVE
 70
     0
 10
0.0
 20
0.0
 11
1.0
 21
1.0
 12
174.4975189974335
 22
28.55763238679264
 13
0.0
 23
0.0
 14
50.0
 24
50.0
 15
400.0
 25
400.0
 16
0.0
 26
0.0
 36
1.0
 17
0.0
 27
0.0
 37
0.0
 40
1263.855165735798
 41
1.493654822335025
 42
50.0
 43
0.0
 44
0.0
 50
0.0
 51
0.0
 71
     0
 72
   500
 73
     1
 74
     0
 75
     0
 76
     0
 77
     0
 78
     0
  0
ENDTAB
  0
TABLE
  2
LTYPE
 70
     3
  0
LTYPE
  2
CONTINUOUS
 70
     0
  3
実線
 72
    65
 73
     0
 40
0.0
  0
LTYPE
  2
DASHDOT
 70
     0
  3
____ _ ____ _ ____ _ ____ _ ____ _ ____ _ ____
 72
    65
 73
     4
 40
5.5
 49
4.0
 49
-0.6
 49
0.3
 49
-0.6
  0
LTYPE
  2
DASHED
 70
     0
  3
-- -- -- -- -- -- -- -- -- -- -- -- -- -- --
 72
    65
 73
     2
 40
0.75
 49
0.5
 49
-0.25
  0
ENDTAB
  0
TABLE
  2
LAYER
 70
    12
  0
LAYER
  2
0
 70
     0
 62
     7
  6
CONTINUOUS
  0
LAYER
  2
OUTLINE
 70
     0
 62
     3
  6
CONTINUOUS
  0
LAYER
  2
ETC
 70
     0
 62
    61
  6
CONTINUOUS
  0
LAYER
  2
DETAIL
 70
     0
 62
     5
  6
CONTINUOUS
  0
LAYER
  2
BASIS
 70
     0
 62
     6
  6
DASHDOT
  0
LAYER
  2
NOTE
 70
     0
 62
     4
  6
CONTINUOUS
  0
LAYER
  2
DEFPOINTS
 70
     0
 62
     7
  6
CONTINUOUS
  0
LAYER
  2
SIZE
 70
     0
 62
    30
  6
CONTINUOUS
  0
LAYER
  2
ARRANGE
 70
     0
 62
     1
  6
CONTINUOUS
  0
LAYER
  2
FIX
 70
     0
 62
    11
  6
CONTINUOUS
  0
LAYER
  2
SERVICESPACE
 70
     0
 62
     2
  6
DASHDOT
  0
LAYER
  2
SYMBOLLINE
 70
     0
 62
    15
  6
CONTINUOUS
  0
ENDTAB
  0
TABLE
  2
STYLE
 70
     2
  0
STYLE
  2
STANDARD
 70
     0
 40
0.0
 41
0.9
 50
0.0
 71
     0
 42
64.0
  3
SIMPLEX
  4
BIGFONT
  0
STYLE
  2
ANNOTATIVE
 70
     0
 40
0.0
 41
1.0
 50
0.0
 71
     0
 42
0.2
  3
txt
  4

  0
STYLE
  2

 70
     1
 40
0.0
 41
1.0
 50
0.0
 71
     0
 42
64.0
  3
ltypeshp.shx
  4

  0
ENDTAB
  0
TABLE
  2
VIEW
 70
     1
  0
VIEW
  2
ALL
 70
     0
 40
4282.619807999997
 10
0.0
 20
41.30990399999999
 41
5940.0
 11
0.0
 21
0.0
 31
1.0
 12
0.0
 22
0.0
 32
0.0
 42
50.0
 43
0.0
 44
0.0
 50
0.0
 71
     0
  0
ENDTAB
  0
TABLE
  2
UCS
 70
     1
  0
UCS
  2
W_UCS
 70
     0
 10
0.0
 20
0.0
 30
0.0
 11
1.0
 21
0.0
 31
0.0
 12
0.0
 22
1.0
 32
0.0
  0
ENDTAB
  0
TABLE
  2
APPID
 70
    14
  0
APPID
  2
ACAD
 70
     0
  0
APPID
  2
ACADANNOTATIVE
 70
     0
  0
APPID
  2
ACAD_MLEADERVER
 70
     0
  0
APPID
  2
CONTENTBLOCKDESCRIPTION
 70
     0
  0
APPID
  2
CONTENTBLOCKICON
 70
     0
  0
APPID
  2
GENIUS_GENCFG_13
 70
     0
  0
APPID
  2
GENIUS_GENCFG0_13
 70
     0
  0
APPID
  2
GENIUS_GENCFG1_13
 70
     0
  0
APPID
  2
GENIUS_GENCFG2_13
 70
     0
  0
APPID
  2
GENIUS_GENCFG3_13
 70
     0
  0
APPID
  2
GENIUS_GENCFG4_13
 70
     0
  0
APPID
  2
GENIUS_GEVCFG0_13
 70
     0
  0
APPID
  2
GENIUS_GENOENT_13
 70
     0
  0
APPID
  2
ACAD_EXEMPT_FROM_CAD_STAND
 70
     0
  0
ENDTAB
  0
TABLE
  2
DIMSTYLE
 70
     3
  0
DIMSTYLE
  2
STANDARD
 70
     0
  3

  4

  5

  6

  7

 40
1.0
 41
0.18
 42
0.0625
 43
0.38
 44
0.18
 45
0.0
 46
0.0
 47
0.0
 48
0.0
140
0.18
141
0.09
142
0.0
143
25.4
144
1.0
145
0.0
146
1.0
147
0.09
 71
     0
 72
     0
 73
     1
 74
     1
 75
     0
 76
     0
 77
     0
 78
     0
170
     0
171
     2
172
     0
173
     0
174
     0
175
     0
176
     0
177
     0
178
     0
  0
DIMSTYLE
  2
ANNOTATIVE
 70
     0
  3

  4

  5

  6

  7

 40
1.0
 41
0.18
 42
0.0625
 43
0.38
 44
0.18
 45
0.0
 46
0.0
 47
0.0
 48
0.0
140
0.18
141
0.09
142
0.0
143
25.4
144
1.0
145
0.0
146
1.0
147
0.09
 71
     0
 72
     0
 73
     1
 74
     1
 75
     0
 76
     0
 77
     0
 78
     0
170
     0
171
     2
172
     0
173
     0
174
     0
175
     0
176
     0
177
     0
178
     0
  0
DIMSTYLE
  2
GEN-ISO
 70
     0
  3

  4
"
  5

  6

  7

 40
1.0
 41
2.0
 42
20.0
 43
200.0
 44
30.0
 45
0.0
 46
0.0
 47
0.1
 48
0.1
140
64.0
141
0.09
142
0.0
143
0.03937
144
1.0
145
0.0
146
1.0
147
25.0
 71
     0
 72
     0
 73
     0
 74
     0
 75
     0
 76
     0
 77
     1
 78
     8
170
     0
171
     2
172
     1
173
     1
174
     0
175
     0
176
     7
177
     7
178
     7
  0
ENDTAB
  0
ENDSEC
  0
SECTION
  2
BLOCKS
  0
BLOCK
  8
0
  2
$MODEL_SPACE
 70
     0
 10
0.0
 20
0.0
 30
0.0
  3
$MODEL_SPACE
  1

  0
ENDBLK
  5
DBE
  8
0
  0
BLOCK
 67
     1
  8
0
  2
$PAPER_SPACE
 70
     0
 10
0.0
 20
0.0
 30
0.0
  3
$PAPER_SPACE
  1

  0
ENDBLK
  5
DBA
 67
     1
  8
0
  0
BLOCK
  8
0
  2
DOT1
 70
     0
 10
0.0
 20
0.0
 30
0.0
  3
DOT1
  1

  0
CIRCLE
  5
DED
  8
SIZE
  6
CONTINUOUS
 62
     7
 10
0.0
 20
0.0
 30
0.0
 40
3.0
  0
ENDBLK
  5
DEE
  8
0
  0
BLOCK
  8
0
  2
_ORIGIN
 70
     0
 10
0.0
 20
0.0
 30
0.0
  3
_ORIGIN
  1

  0
CIRCLE
  5
DF1
  8
0
  6
CONTINUOUS
 62
     7
 10
0.0
 20
0.0
 30
0.0
 40
0.5
  0
LINE
  5
DF2
  8
0
  6
CONTINUOUS
 62
     7
 10
0.0
 20
0.0
 30
0.0
 11
-1.0
 21
0.0
 31
0.0
  0
ENDBLK
  5
DF3
  8
0
  0
ENDSEC
  0
SECTION
  2
ENTITIES
  0
LINE
  5
DF4
  8
SIZE
  6
CONTINUOUS
 62
    30
 10
-279.9970069999998
 20
39.99999999999999
 30
0.0
 11
-279.9799469999999
 21
153.9805879999998
 31
0.0
  0
LINE
  5
DF5
  8
SIZE
  6
CONTINUOUS
 62
    30
 10
280.002993
 20
37.24422899999999
 30
0.0
 11
280.0204529999999
 21
153.8967729999997
 31
0.0
  0
LINE
  5
DF6
  8
SIZE
  6
CONTINUOUS
 62
    30
 10
-277.984437
 20
123.9802889999999
 30
0.0
 11
278.015963
 21
123.8970729999998
 31
0.0
  0
CIRCLE
  5
DF7
  8
SIZE
  6
CONTINUOUS
 62
    30
 10
-279.984437
 20
123.9805889999999
 30
0.0
 40
6.0
  0
CIRCLE
  5
DF8
  8
SIZE
  6
CONTINUOUS
 62
    30
 10
280.015963
 20
123.8967739999999
 30
0.0
 40
6.0
  0
TEXT
  5
DF9
  8
SIZE
  6
CONTINUOUS
 62
    30
 10
-80.93730508931377
 20
148.9508240015492
 30
0.0
 40
64.0
  1
560
 50
359.9914059999653
 41
0.9
 72
     1
 11
0.019494
 21
148.9386809999998
 31
0.0
  0
LINE
  5
DFA
  8
SIZE
  6
CONTINUOUS
 62
    30
 10
-309.997342
 20
17.781827
 30
0.0
 11
-309.954444
 21
304.3988969999999
 31
0.0
  0
LINE
  5
DFB
  8
SIZE
  6
CONTINUOUS
 62
    30
 10
310.0026409999998
 20
17.647101
 30
0.0
 11
310.0455449999999
 21
304.3061009999998
 31
0.0
  0
LINE
  5
DFC
  8
SIZE
  6
CONTINUOUS
 62
    30
 10
-307.958934
 20
274.3985979999997
 30
0.0
 11
308.0410550000001
 21
274.3064009999998
 31
0.0
  0
CIRCLE
  5
DFD
  8
SIZE
  6
CONTINUOUS
 62
    30
 10
-309.9589339999998
 20
274.398897
 30
0.0
 40
6.0
  0
CIRCLE
  5
DFE
  8
SIZE
  6
CONTINUOUS
 62
    30
 10
310.0410550000001
 20
274.306102
 30
0.0
 40
6.0
  0
TEXT
  5
DFF
  8
SIZE
  6
CONTINUOUS
 62
    30
 10
-80.91200708931376
 20
299.3646420015494
 30
0.0
 40
64.0
  1
620
 50
359.9914059999653
 41
0.9
 72
     1
 11
0.044792
 21
299.352499
 31
0.0
  0
LINE
  5
E00
  8
BASIS
  6
DASHDOT
 62
     6
 39
100.110011
 10
0.145782
 20
-339.8707783960345
 30
-100.110011
 11
0.192884
 21
63.7458286466147
 31
-100.110011
  0
LINE
  5
E01
  8
SIZE
  6
CONTINUOUS
 62
    30
 10
-300.0
 20
0.002993
 30
0.0
 11
-442.576861
 21
0.0243330000000001
 31
0.0
  0
LINE
  5
E02
  8
SIZE
  6
CONTINUOUS
 62
    30
 10
-313.9502649999999
 20
-9.997673999999991
 30
0.0
 11
-442.578358
 21
-9.978421999999997
 31
0.0
  0
LINE
  5
E03
  8
SIZE
  6
CONTINUOUS
 62
    30
 10
-412.5786579999998
 20
-11.98291199999997
 30
0.0
 11
-412.578957
 21
-13.98291199999999
 31
0.0
  0
LINE
  5
E04
  8
SIZE
  6
CONTINUOUS
 62
    30
 10
-412.576562
 20
2.019843
 30
0.0
 11
-412.5461849999999
 21
204.9826589999998
 31
0.0
  0
LINE
  5
E05
  8
SIZE
  6
CONTINUOUS
 62
    30
 10
-412.5783579999999
 20
-9.982911999999999
 30
0.0
 11
-412.5768609999999
 21
0.0198430000000001
 31
0.0
  0
CIRCLE
  5
E06
  8
SIZE
  6
CONTINUOUS
 62
    30
 10
-412.5783579999999
 20
-9.982911999999999
 30
0.0
 40
6.0
  0
CIRCLE
  5
E07
  8
SIZE
  6
CONTINUOUS
 62
    30
 10
-412.5768609999999
 20
0.0198430000000001
 30
0.0
 40
6.0
  0
TEXT
  5
E08
  8
SIZE
  6
CONTINUOUS
 62
    30
 10
-437.5633672090107
 20
90.28673454621719
 30
0.0
 40
64.0
  1
10
 50
89.99140600000004
 41
0.9
 72
     1
 11
-437.5560839999999
 21
138.8435339999998
 31
0.0
  0
CIRCLE
  5
E09
  8
ARRANGE
  6
CONTINUOUS
 62
     1
 10
0.0
 20
0.0
 30
0.0
 40
40.0
  0
LINE
  5
E0A
  8
NOTE
  6
CONTINUOUS
 62
     4
 10
259.9999999999999
 20
0.0
 30
0.0
 11
300.0
 21
0.0
 31
0.0
  0
LINE
  5
E0B
  8
NOTE
  6
CONTINUOUS
 62
     4
 10
280.0
 20
19.99999999999998
 30
0.0
 11
280.0
 21
-19.99999999999999
 31
0.0
  0
LINE
  5
E0C
  8
NOTE
  6
CONTINUOUS
 62
     4
 10
-300.0
 20
0.0
 30
0.0
 11
-259.9999999999998
 21
0.0
 31
0.0
  0
LINE
  5
E0D
  8
NOTE
  6
CONTINUOUS
 62
     4
 10
-279.9999999999998
 20
19.99999999999998
 30
0.0
 11
-279.9999999999998
 21
-19.99999999999999
 31
0.0
  0
LINE
  5
E0E
  8
DETAIL
  6
CONTINUOUS
 62
     5
 10
222.82537
 20
-89.37384200000002
 30
0.0
 11
-222.6864839999999
 21
-89.30918899999999
 31
0.0
  0
LINE
  5
E0F
  8
DETAIL
  6
CONTINUOUS
 62
     5
 10
222.824522
 20
-95.03335100000001
 30
0.0
 11
-103.753948
 21
-94.98447200000003
 31
0.0
  0
LINE
  5
E10
  8
DETAIL
  6
CONTINUOUS
 62
     5
 10
-19.27673699999999
 20
-144.8320949999998
 30
0.0
 11
1.751943999999999
 21
-135.0237229999998
 31
0.0
  0
LINE
  5
E11
  8
DETAIL
  6
CONTINUOUS
 62
     5
 10
10.57467499999999
 20
-144.644923
 30
0.0
 11
-24.366754
 21
-153.5696939999998
 31
0.0
  0
LINE
  5
E12
  8
DETAIL
  6
CONTINUOUS
 62
     5
 10
-222.6836269999999
 20
-94.96667200000002
 30
0.0
 11
103.894844
 21
-95.015551
 31
0.0
  0
ARC
  5
E13
  8
DETAIL
  6
CONTINUOUS
 62
     5
 10
157.414592
 20
-186.0128679999998
 30
0.0
 40
70.322086
 50
269.9914249999999
 51
348.717951
  0
ARC
  5
E14
  8
DETAIL
  6
CONTINUOUS
 62
     5
 10
154.217911
 20
-186.0123899999997
 30
0.0
 40
70.322086
 50
269.9914249999999
 51
347.2613939999999
  0
ARC
  5
E15
  8
DETAIL
  6
CONTINUOUS
 62
     5
 10
148.0064979999999
 20
-185.9736379999999
 30
0.0
 40
102.4693249999999
 50
269.9914249999999
 51
359.9914249999788
  0
LINE
  5
E16
  8
DETAIL
  6
CONTINUOUS
 62
     5
 10
139.9152969999999
 20
-119.3115549999998
 30
0.0
 11
164.7139809999999
 21
-133.3043239999998
 31
0.0
  0
LINE
  5
E17
  8
DETAIL
  6
CONTINUOUS
 62
     5
 10
139.2212539999999
 20
-135.044273
 30
0.0
 11
164.174818
 21
-144.8595309999999
 31
0.0
  0
LINE
  5
E18
  8
DETAIL
  6
CONTINUOUS
 62
     5
 10
199.651078
 20
-153.603205
 30
0.0
 11
208.72784
 21
-160.234972
 31
0.0
  0
LINE
  5
E19
  8
DETAIL
  6
CONTINUOUS
 62
     5
 10
188.3689499999999
 20
-154.0231179999999
 30
0.0
 11
210.888041
 21
-162.5157189999999
 31
0.0
  0
LINE
  5
E1A
  8
DETAIL
  6
CONTINUOUS
 62
     5
 10
208.727843
 20
-160.2350109999999
 30
0.0
 11
210.888085
 21
-162.5157449999998
 31
0.0
  0
LINE
  5
E1B
  8
DETAIL
  6
CONTINUOUS
 62
     5
 10
164.713986
 20
-133.3042759999998
 30
0.0
 11
184.8296919999998
 21
-144.6709809999999
 31
0.0
  0
LINE
  5
E1C
  8
DETAIL
  6
CONTINUOUS
 62
     5
 10
164.174803
 20
-144.8595919999999
 30
0.0
 11
188.3689659999996
 21
-154.023167
 31
0.0
  0
LINE
  5
E1D
  8
DETAIL
  6
CONTINUOUS
 62
     5
 10
184.829679
 20
-144.6709799999998
 30
0.0
 11
199.6510699999999
 21
-153.603228
 31
0.0
  0
LINE
  5
E1E
  8
DETAIL
  6
CONTINUOUS
 62
     5
 10
250.4858059999999
 20
-89.37798199999999
 30
0.0
 11
293.100122
 21
-89.38435999999999
 31
0.0
  0
LINE
  5
E1F
  8
DETAIL
  6
CONTINUOUS
 62
     5
 10
293.0992839999996
 20
-94.98190699999995
 30
0.0
 11
250.4849679999999
 21
-94.97552899999995
 31
0.0
  0
ARC
  5
E20
  8
DETAIL
  6
CONTINUOUS
 62
     5
 10
293.3127829999999
 20
-92.18316500000003
 30
0.0
 40
2.806872999999999
 50
265.6376980000003
 51
94.34515099999999
  0
ARC
  5
E21
  8
DETAIL
  6
CONTINUOUS
 62
     5
 10
288.7532
 20
-59.64751200000001
 30
0.0
 40
35.161043
 50
179.9914249999363
 51
237.739971
  0
LINE
  5
E22
  8
DETAIL
  6
CONTINUOUS
 62
     5
 10
111.1871609999997
 20
-102.558633
 30
0.0
 11
139.9152969999999
 21
-119.3115349999998
 31
0.0
  0
LINE
  5
E23
  8
DETAIL
  6
CONTINUOUS
 62
     5
 10
114.374475
 20
-124.577548
 30
0.0
 11
90.51597699999999
 21
-113.446285
 31
0.0
  0
LINE
  5
E24
  8
DETAIL
  6
CONTINUOUS
 62
     5
 10
79.39715
 20
-119.302502
 30
0.0
 11
111.1871569999999
 21
-102.5586909999998
 31
0.0
  0
LINE
  5
E25
  8
DETAIL
  6
CONTINUOUS
 62
     5
 10
18.31210399999999
 20
-124.563176
 30
0.0
 11
30.057659
 21
-113.450329
 31
0.0
  0
LINE
  5
E26
  8
DETAIL
  6
CONTINUOUS
 62
     5
 10
114.374464
 20
-124.5775929999998
 30
0.0
 11
139.221263
 21
-135.0443449999998
 31
0.0
  0
LINE
  5
E27
  8
DETAIL
  6
CONTINUOUS
 62
     5
 10
45.516544
 20
-133.2864519999998
 30
0.0
 11
10.57465
 21
-144.644915
 31
0.0
  0
LINE
  5
E28
  8
DETAIL
  6
CONTINUOUS
 62
     5
 10
1.751954999999999
 20
-135.0236629999998
 30
0.0
 11
18.31206799999999
 21
-124.5631279999998
 31
0.0
  0
LINE
  5
E29
  8
DETAIL
  6
CONTINUOUS
 62
     5
 10
45.516541
 20
-133.2864769999998
 30
0.0
 11
79.39715399999997
 21
-119.302485
 31
0.0
  0
LINE
  5
E2A
  8
DETAIL
  6
CONTINUOUS
 62
     5
 10
90.544338
 20
-113.459412
 30
0.0
 11
90.51597699999999
 21
-113.446279
 31
0.0
  0
LINE
  5
E2B
  8
DETAIL
  6
CONTINUOUS
 62
     5
 10
122.102946
 20
-95.01827600000003
 30
0.0
 11
111.187149
 21
-102.5587149999998
 31
0.0
  0
LINE
  5
E2C
  8
DETAIL
  6
CONTINUOUS
 62
     5
 10
30.05766700000001
 20
-113.4503589999998
 30
0.0
 11
36.89939299999999
 21
-101.723599
 31
0.0
  0
LINE
  5
E2D
  8
DETAIL
  6
CONTINUOUS
 62
     5
 10
36.89937499999999
 20
-101.7235999999998
 30
0.0
 11
38.572321
 21
-95.54374800000001
 31
0.0
  0
ARC
  5
E2E
  8
DETAIL
  6
CONTINUOUS
 62
     5
 10
-147.883848
 20
-185.929352
 30
0.0
 40
102.4693249999999
 50
179.9914249999788
 51
269.9914249999999
  0
ARC
  5
E2F
  8
DETAIL
  6
CONTINUOUS
 62
     5
 10
-154.0952719999999
 20
-185.9662449999999
 30
0.0
 40
70.322086
 50
192.721455
 51
269.9914249999999
  0
ARC
  5
E30
  8
DETAIL
  6
CONTINUOUS
 62
     5
 10
-157.291953
 20
-185.965766
 30
0.0
 40
70.322086
 50
191.2648979999998
 51
269.9914249999999
  0
LINE
  5
E31
  8
DETAIL
  6
CONTINUOUS
 62
     5
 10
-147.899185
 20
-288.3986759999998
 30
0.0
 11
-95.174456
 21
-288.4065639999999
 31
0.0
  0
LINE
  5
E32
  8
DETAIL
  6
CONTINUOUS
 62
     5
 10
-178.5012809999996
 20
-133.2529519999998
 30
0.0
 11
-163.680344
 21
-144.6188589999999
 31
0.0
  0
LINE
  5
E33
  8
DETAIL
  6
CONTINUOUS
 62
     5
 10
-88.86394200000001
 20
-113.432583
 30
0.0
 11
-100.9535019999999
 21
-124.5453409999999
 31
0.0
  0
ARC
  5
E34
  8
DETAIL
  6
CONTINUOUS
 62
     5
 10
-20.10154499999996
 20
-136.4942509999998
 30
0.0
 40
5.023005
 50
94.99143199999996
 51
174.9914709999998
  0
LINE
  5
E35
  8
DETAIL
  6
CONTINUOUS
 62
     5
 10
-8.454242999999998
 20
-131.0064159999998
 30
0.0
 11
-8.456653
 21
-128.9974269999998
 31
0.0
  0
LINE
  5
E36
  8
DETAIL
  6
CONTINUOUS
 62
     5
 10
-24.366779
 20
-153.5697429999999
 30
0.0
 11
-58.24627399999998
 21
-160.1951099999999
 31
0.0
  0
LINE
  5
E37
  8
DETAIL
  6
CONTINUOUS
 62
     5
 10
-73.15683599999997
 20
-162.4732259999997
 30
0.0
 11
-44.44268599999998
 21
-153.988292
 31
0.0
  0
LINE
  5
E38
  8
DETAIL
  6
CONTINUOUS
 62
     5
 10
-58.24627799999999
 20
-160.1950939999999
 30
0.0
 11
-73.156839
 21
-162.4732449999999
 31
0.0
  0
LINE
  5
E39
  8
DETAIL
  6
CONTINUOUS
 62
     5
 10
-44.442695
 20
-153.988304
 30
0.0
 11
-19.27673699999999
 21
-144.83213
 31
0.0
  0
ARC
  5
E3A
  8
DETAIL
  6
CONTINUOUS
 62
     5
 10
-42.710737
 20
-151.29396
 30
0.0
 40
6.128067999999998
 50
39.59338999999995
 51
140.389442
  0
ARC
  5
E3B
  8
DETAIL
  6
CONTINUOUS
 62
     5
 10
-28.5493
 20
-150.720102
 30
0.0
 40
4.748414999999999
 50
49.83406600000007
 51
158.5651790000002
  0
LINE
  5
E3C
  8
DETAIL
  6
CONTINUOUS
 62
     5
 10
-56.175402
 20
-147.6753799999999
 30
0.0
 11
-57.68253
 21
-149.1820559999998
 31
0.0
  0
LINE
  5
E3D
  8
DETAIL
  6
CONTINUOUS
 62
     5
 10
-37.98857000000001
 20
-147.6781019999998
 30
0.0
 11
-47.431821
 21
-147.6766889999999
 31
0.0
  0
LINE
  5
E3E
  8
DETAIL
  6
CONTINUOUS
 62
     5
 10
-47.431821
 20
-147.6766889999999
 30
0.0
 11
-47.43177799999998
 21
-147.3869169999999
 31
0.0
  0
LINE
  5
E3F
  8
DETAIL
  6
CONTINUOUS
 62
     5
 10
-37.98857000000001
 20
-147.6781019999998
 30
0.0
 11
-37.988527
 21
-147.3883299999998
 31
0.0
  0
LINE
  5
E40
  8
DETAIL
  6
CONTINUOUS
 62
     5
 10
-47.43177799999998
 20
-147.3869169999999
 30
0.0
 11
-37.988527
 21
-147.3883299999998
 31
0.0
  0
LINE
  5
E41
  8
DETAIL
  6
CONTINUOUS
 62
     5
 10
-34.25059300000001
 20
-148.6230259999999
 30
0.0
 11
-33.804098
 21
-148.9847039999999
 31
0.0
  0
LINE
  5
E42
  8
DETAIL
  6
CONTINUOUS
 62
     5
 10
-31.311694
 20
-148.9850769999999
 30
0.0
 11
-32.969286
 21
-148.9848289999999
 31
0.0
  0
ARC
  5
E43
  8
DETAIL
  6
CONTINUOUS
 62
     5
 10
-31.311732
 20
-149.2362269999999
 30
0.0
 40
0.25115
 50
359.9914250000213
 51
89.99142500000029
  0
LINE
  5
E44
  8
DETAIL
  6
CONTINUOUS
 62
     5
 10
-30.691463
 20
-148.9851699999997
 30
0.0
 11
-31.311694
 21
-148.9850769999999
 31
0.0
  0
LINE
  5
E45
  8
DETAIL
  6
CONTINUOUS
 62
     5
 10
-35.409789
 20
-147.6784879999998
 30
0.0
 11
-34.25059300000001
 21
-148.6230259999999
 31
0.0
  0
LINE
  5
E46
  8
DETAIL
  6
CONTINUOUS
 62
     5
 10
-33.804098
 20
-148.9847039999999
 30
0.0
 11
-30.691463
 21
-148.9851699999997
 31
0.0
  0
LINE
  5
E47
  8
DETAIL
  6
CONTINUOUS
 62
     5
 10
-35.409789
 20
-147.6784879999998
 30
0.0
 11
-56.175402
 21
-147.6753799999999
 31
0.0
  0
LINE
  5
E48
  8
DETAIL
  6
CONTINUOUS
 62
     5
 10
-25.957123
 20
-145.5702459999999
 30
0.0
 11
-21.307379
 21
-145.5709419999998
 31
0.0
  0
LINE
  5
E49
  8
DETAIL
  6
CONTINUOUS
 62
     5
 10
-25.957123
 20
-145.5702459999999
 30
0.0
 11
-25.105378
 21
-136.0557199999999
 31
0.0
  0
LINE
  5
E4A
  8
DETAIL
  6
CONTINUOUS
 62
     5
 10
-64.311215
 20
-152.428055
 30
0.0
 11
-62.171134
 21
-150.2886139999998
 31
0.0
  0
ARC
  5
E4B
  8
DETAIL
  6
CONTINUOUS
 62
     5
 10
-58.38680299999998
 20
-156.2141599999999
 30
0.0
 40
7.032208999999999
 50
89.99142500000002
 51
179.9914250000213
  0
LINE
  5
E4C
  8
DETAIL
  6
CONTINUOUS
 62
     5
 10
-65.4194
 20
-161.2910589999999
 30
0.0
 11
-65.42196029168271
 21
-205.2911739747216
 31
0.0
  0
LINE
  5
E4D
  8
DETAIL
  6
CONTINUOUS
 62
     5
 10
-58.38575
 20
-149.1819509999998
 30
0.0
 11
-57.68253
 21
-149.1820559999998
 31
0.0
  0
LINE
  5
E4E
  8
DETAIL
  6
CONTINUOUS
 62
     5
 10
-154.1057969999999
 20
-256.2883299999997
 30
0.0
 11
95.106927
 21
-256.2963219999997
 31
0.0
  0
LINE
  5
E4F
  8
DETAIL
  6
CONTINUOUS
 62
     5
 10
-118.764499
 20
-160.1860639999999
 30
0.0
 11
-106.015129
 21
-162.468357
 31
0.0
  0
LINE
  5
E50
  8
DETAIL
  6
CONTINUOUS
 62
     5
 10
-112.2063839999999
 20
-153.9781569999999
 30
0.0
 11
-106.015127
 21
-162.4683069999998
 31
0.0
  0
LINE
  5
E51
  8
DETAIL
  6
CONTINUOUS
 62
     5
 10
-100.953441
 20
-124.5453449999998
 30
0.0
 11
-109.2447849999999
 21
-135.0071269999998
 31
0.0
  0
LINE
  5
E52
  8
DETAIL
  6
CONTINUOUS
 62
     5
 10
-109.244877
 20
-135.0071419999997
 30
0.0
 11
-113.17417
 21
-144.8180739999999
 31
0.0
  0
LINE
  5
E53
  8
DETAIL
  6
CONTINUOUS
 62
     5
 10
-113.174104
 20
-144.81805
 30
0.0
 11
-112.206411
 21
-153.9781689999999
 31
0.0
  0
LINE
  5
E54
  8
DETAIL
  6
CONTINUOUS
 62
     5
 10
-163.6803279999999
 20
-144.618931
 30
0.0
 11
-118.764499
 21
-160.1860879999998
 31
0.0
  0
LINE
  5
E55
  8
DETAIL
  6
CONTINUOUS
 62
     5
 10
-73.69569200000001
 20
-101.707041
 30
0.0
 11
-88.86393899999997
 21
-113.4325519999998
 31
0.0
  0
LINE
  5
E56
  8
DETAIL
  6
CONTINUOUS
 62
     5
 10
-97.018715
 20
-100.4135989999998
 30
0.0
 11
-78.65322300000001
 21
-94.988229
 31
0.0
  0
LINE
  5
E57
  8
DETAIL
  6
CONTINUOUS
 62
     5
 10
-66.014469
 20
-94.99012
 30
0.0
 11
-73.69567899999997
 21
-101.7071119999998
 31
0.0
  0
LINE
  5
E58
  8
DETAIL
  6
CONTINUOUS
 62
     5
 10
-8.454024
 20
-128.9969399999998
 30
0.0
 11
-13.979331
 21
-128.9961129999998
 31
0.0
  0
LINE
  5
E59
  8
DETAIL
  6
CONTINUOUS
 62
     5
 10
-14.984179
 20
-131.0051739999997
 30
0.0
 11
8.440373
 21
-131.0096309999998
 31
0.0
  0
LINE
  5
E5A
  8
DETAIL
  6
CONTINUOUS
 62
     5
 10
-20.538587
 20
-131.4902809999999
 30
0.0
 11
-14.98418299999999
 21
-131.0051749999999
 31
0.0
  0
LINE
  5
E5B
  8
DETAIL
  6
CONTINUOUS
 62
     5
 10
-14.07962
 20
-125.479993
 30
0.0
 11
-13.075169
 21
-126.4847449999998
 31
0.0
  0
LINE
  5
E5C
  8
DETAIL
  6
CONTINUOUS
 62
     5
 10
-14.08014699999998
 20
-128.9960979999998
 30
0.0
 11
-14.079771
 21
-126.484595
 31
0.0
  0
LINE
  5
E5D
  8
DETAIL
  6
CONTINUOUS
 62
     5
 10
8.440904
 20
-129.0014229999997
 30
0.0
 11
-14.08014699999998
 21
-128.9960979999998
 31
0.0
  0
LINE
  5
E5E
  8
DETAIL
  6
CONTINUOUS
 62
     5
 10
8.441568999999994
 20
-126.4899199999998
 30
0.0
 11
-14.079771
 21
-126.484595
 31
0.0
  0
LINE
  5
E5F
  8
DETAIL
  6
CONTINUOUS
 62
     5
 10
-13.979331
 20
-128.9961129999998
 30
0.0
 11
-13.97903
 21
-126.98691
 31
0.0
  0
LINE
  5
E60
  8
DETAIL
  6
CONTINUOUS
 62
     5
 10
-10.863035
 20
-106.4999999999998
 30
0.0
 11
-10.86505
 21
-126.4850759999998
 31
0.0
  0
LINE
  5
E61
  8
DETAIL
  6
CONTINUOUS
 62
     5
 10
-14.077756
 20
-106.4999999999998
 30
0.0
 11
-14.07962
 21
-125.479993
 31
0.0
  0
ARC
  5
E63
  8
DETAIL
  6
CONTINUOUS
 62
     5
 10
-98.647401
 20
-94.90025800000001
 30
0.0
 40
5.748923999999997
 50
179.9914250000213
 51
286.4575179999999
  0
LINE
  5
E64
  8
DETAIL
  6
CONTINUOUS
 62
     5
 10
-187.577042
 20
-119.2625329999998
 30
0.0
 11
-190.631343
 21
-102.5135239999998
 31
0.0
  0
LINE
  5
E65
  8
DETAIL
  6
CONTINUOUS
 62
     5
 10
-187.577061
 20
-119.2625299999998
 30
0.0
 11
-178.501301
 21
-133.2529609999998
 31
0.0
  0
LINE
  5
E66
  8
DETAIL
  6
CONTINUOUS
 62
     5
 10
-190.631288
 20
-102.513527
 30
0.0
 11
-189.4593409999999
 21
-94.90968300000003
 31
0.0
  0
ARC
  5
E67
  8
DETAIL
  6
CONTINUOUS
 62
     5
 10
-289.0351369999999
 20
-59.561035
 30
0.0
 40
35.763804
 50
303.7423459999998
 51
359.9914249999788
  0
ARC
  5
E68
  8
DETAIL
  6
CONTINUOUS
 62
     5
 10
-293.21859
 20
-92.24930699999999
 30
0.0
 40
2.759799
 50
84.57241400000055
 51
275.4104350000003
  0
LINE
  5
E69
  8
DETAIL
  6
CONTINUOUS
 62
     5
 10
-292.95837
 20
-94.99681100000001
 30
0.0
 11
-250.3440539999999
 21
-95.00318899999999
 31
0.0
  0
LINE
  5
E6A
  8
DETAIL
  6
CONTINUOUS
 62
     5
 10
-250.343216
 20
-89.50826
 30
0.0
 11
-292.957532
 21
-89.50188100000001
 31
0.0
  0
LINE
  5
E6B
  8
NOTE
  6
CONTINUOUS
 62
     4
 39
50.0
 10
375.0666510000001
 20
37.324122
 30
0.0
 11
649.7759469999999
 21
37.324122
 31
0.0
  0
LINE
  5
E6C
  8
NOTE
  6
CONTINUOUS
 62
     4
 39
50.0
 10
375.0666510000001
 20
37.324122
 30
0.0
 11
280.00299
 21
0.000021
 31
0.0
  0
TEXT
  5
E6D
  8
NOTE
  6
CONTINUOUS
 62
     4
 10
378.6505419999999
 20
56.060962
 30
0.0
 40
64.0
  1
4-φ14
 41
0.9
  0
LINE
  5
E6E
  8
NOTE
  6
CONTINUOUS
 62
     4
 10
312.688507
 20
23.05770999999999
 30
0.0
 11
280.00299
 21
0.000021
 31
0.0
  0
LINE
  5
E6F
  8
NOTE
  6
CONTINUOUS
 62
     4
 10
280.00299
 20
0.000021
 30
0.0
 11
319.838322
 21
3.625806999999998
 31
0.0
  0
TEXT
  5
E70
  8
ETC
  6
CONTINUOUS
 62
    61
 10
423.0978834809126
 20
495.0561494030739
 30
0.0
 40
50.0
  1
EG-50ETB3-PR_1
 41
0.9
  0
TEXT
  5
E71
  8
ETC
  6
CONTINUOUS
 62
    61
 10
469.6564633102465
 20
371.1269204030739
 30
0.0
 40
40.0
  1
EG-50ETB3-PR
 41
0.9
  0
TEXT
  5
E72
  8
ETC
  6
CONTINUOUS
 62
    61
 10
423.0978834809126
 20
433.8702364030739
 30
0.0
 40
50.0
  1
産業扇
 41
0.9
  0
LINE
  5
E73
  8
SIZE
  6
CONTINUOUS
 62
    30
 10
65.46077899999999
 20
-319.6423700000001
 30
0.0
 11
65.46077899999999
 21
-483.837462
 31
0.0
  0
LINE
  5
E74
  8
SIZE
  6
CONTINUOUS
 62
    30
 10
-65.540355
 20
-319.616898
 30
0.0
 11
-65.540355
 21
-483.837462
 31
0.0
  0
LINE
  5
E75
  8
SIZE
  6
CONTINUOUS
 62
    30
 10
63.460779
 20
-453.837462
 30
0.0
 11
-63.54035499999999
 21
-453.837462
 31
0.0
  0
LINE
  5
E76
  8
SIZE
  6
CONTINUOUS
 62
    30
 10
-65.540355
 20
-453.837462
 30
0.0
 11
-282.111783
 21
-453.837462
 31
0.0
  0
CIRCLE
  5
E77
  8
SIZE
  6
CONTINUOUS
 62
    30
 10
65.46077899999999
 20
-453.837462
 30
0.0
 40
6.0
  0
CIRCLE
  5
E78
  8
SIZE
  6
CONTINUOUS
 62
    30
 10
-65.540355
 20
-453.837462
 30
0.0
 40
6.0
  0
TEXT
  5
E79
  8
SIZE
  6
CONTINUOUS
 62
    30
 10
-269.347669
 20
-428.837462
 30
0.0
 40
64.0
  1
φ131
 41
0.9
 72
     1
 11
-174.826069
 21
-428.837462
 31
0.0
  0
LINE
  5
E7A
  8
SIZE
  6
CONTINUOUS
 62
    30
 10
-313.9502439999999
 20
-10.00066699999997
 30
0.0
 11
-442.578658
 21
-10.00066699999997
 31
0.0
  0
LINE
  5
E7B
  8
SIZE
  6
CONTINUOUS
 62
    30
 10
-300.0
 20
-19.99999999999999
 30
0.0
 11
-442.578658
 21
-19.99999999999999
 31
0.0
  0
LINE
  5
E7C
  8
SIZE
  6
CONTINUOUS
 62
    30
 10
-412.5786579999998
 20
-8.000666999999998
 30
0.0
 11
-412.5786579999998
 21
-6.000666999999997
 31
0.0
  0
LINE
  5
E7D
  8
SIZE
  6
CONTINUOUS
 62
    30
 10
-412.5786579999998
 20
-21.99999999999996
 30
0.0
 11
-412.5786579999998
 21
-156.2857139999999
 31
0.0
  0
LINE
  5
E7E
  8
SIZE
  6
CONTINUOUS
 62
    30
 10
-412.5786579999998
 20
-10.00066699999997
 30
0.0
 11
-412.5786579999998
 21
-19.99999999999999
 31
0.0
  0
CIRCLE
  5
E7F
  8
SIZE
  6
CONTINUOUS
 62
    30
 10
-412.5786579999998
 20
-10.00066699999997
 30
0.0
 40
6.0
  0
CIRCLE
  5
E80
  8
SIZE
  6
CONTINUOUS
 62
    30
 10
-412.5786579999998
 20
-19.99999999999999
 30
0.0
 40
6.0
  0
TEXT
  5
E81
  8
SIZE
  6
CONTINUOUS
 62
    30
 10
-437.5786579999998
 20
-138.6996569999999
 30
0.0
 40
64.0
  1
10
 50
90.0
 41
0.9
 72
     1
 11
-437.5786579999998
 21
-90.14285699999995
 31
0.0
  0
LINE
  5
E82
  8
SIZE
  6
CONTINUOUS
 62
    30
 10
-319.9999999999999
 20
0.0
 30
0.0
 11
-616.9019209999999
 21
0.0
 31
0.0
  0
LINE
  5
E83
  8
SIZE
  6
CONTINUOUS
 62
    30
 10
-291.6512119999999
 20
-95.0
 30
0.0
 11
-616.9019209999999
 21
-95.0
 31
0.0
  0
LINE
  5
E84
  8
SIZE
  6
CONTINUOUS
 62
    30
 10
-586.9019209999999
 20
-93.0
 30
0.0
 11
-586.9019209999999
 21
-1.999999999999997
 31
0.0
  0
LINE
  5
E85
  8
SIZE
  6
CONTINUOUS
 62
    30
 10
-586.9019209999999
 20
0.0
 30
0.0
 11
-586.9019209999999
 21
145.2571429999998
 31
0.0
  0
CIRCLE
  5
E86
  8
SIZE
  6
CONTINUOUS
 62
    30
 10
-586.9019209999999
 20
-95.0
 30
0.0
 40
6.0
  0
CIRCLE
  5
E87
  8
SIZE
  6
CONTINUOUS
 62
    30
 10
-586.9019209999999
 20
0.0
 30
0.0
 40
6.0
  0
TEXT
  5
E88
  8
SIZE
  6
CONTINUOUS
 62
    30
 10
-611.9019209999999
 20
19.65737099999998
 30
0.0
 40
64.0
  1
95
 50
90.0
 41
0.9
 72
     1
 11
-611.9019209999999
 21
73.62857099999998
 31
0.0
  0
LINE
  5
E89
  8
DETAIL
  6
CONTINUOUS
 62
     5
 10
-18.07868299999996
 20
-106.4999999999998
 30
0.0
 11
0.176592
 21
-106.4999999999998
 31
0.0
  0
LINE
  5
E8A
  8
DETAIL
  6
CONTINUOUS
 62
     5
 10
-18.07868299999996
 20
-106.4999999999998
 30
0.0
 11
-18.076961
 21
-94.99729500000001
 31
0.0
  0
LINE
  5
E8B
  8
DETAIL
  6
CONTINUOUS
 62
     5
 10
154.0430639999999
 20
-256.3482449999998
 30
0.0
 11
95.106927
 21
-256.2963219999997
 31
0.0
  0
LINE
  5
E8C
  8
DETAIL
  6
CONTINUOUS
 62
     5
 10
147.8239649999999
 20
-288.4561759999997
 30
0.0
 11
-95.17445599999999
 21
-288.4065639999999
 31
0.0
  0
LINE
  5
E8D
  8
DETAIL
  6
CONTINUOUS
 62
     5
 10
65.39520199999998
 20
-156.2385419999998
 30
0.0
 11
65.39083538946149
 21
-205.2953690087725
 31
0.0000000000000003
  0
LINE
  5
E8E
  8
DETAIL
  6
CONTINUOUS
 62
     5
 10
58.36467499999999
 20
-149.2046519999999
 30
0.0
 11
57.661454
 21
-149.204484
 31
0.0
  0
ARC
  5
E8F
  8
DETAIL
  6
CONTINUOUS
 62
     5
 10
58.36299299999998
 20
-156.23686
 30
0.0
 40
7.032208999999999
 50
359.9862950000154
 51
89.98629499999997
  0
LINE
  5
E90
  8
DETAIL
  6
CONTINUOUS
 62
     5
 10
35.389301
 20
-147.6922539999999
 30
0.0
 11
56.154913
 21
-147.6972209999999
 31
0.0
  0
LINE
  5
E91
  8
DETAIL
  6
CONTINUOUS
 62
     5
 10
47.411402
 20
-147.405358
 30
0.0
 11
37.968151
 21
-147.403099
 31
0.0
  0
LINE
  5
E92
  8
DETAIL
  6
CONTINUOUS
 62
     5
 10
37.96808100000001
 20
-147.6928709999999
 30
0.0
 11
37.968151
 21
-147.403099
 31
0.0
  0
LINE
  5
E93
  8
DETAIL
  6
CONTINUOUS
 62
     5
 10
47.411332
 20
-147.69513
 30
0.0
 11
47.411402
 21
-147.405358
 31
0.0
  0
LINE
  5
E94
  8
DETAIL
  6
CONTINUOUS
 62
     5
 10
37.96808100000001
 20
-147.6928709999999
 30
0.0
 11
47.411332
 21
-147.69513
 31
0.0
  0
ARC
  5
E95
  8
DETAIL
  6
CONTINUOUS
 62
     5
 10
42.68884199999999
 20
-151.3105649999999
 30
0.0
 40
6.128067999999998
 50
39.58827700000002
 51
140.384329
  0
LINE
  5
E96
  8
DETAIL
  6
CONTINUOUS
 62
     5
 10
56.154913
 20
-147.6972209999999
 30
0.0
 11
57.661454
 21
-149.204484
 31
0.0
  0
LINE
  5
E97
  8
DETAIL
  6
CONTINUOUS
 62
     5
 10
33.783101
 20
-148.9978449999999
 30
0.0
 11
-6.448065999999998
 21
-148.9928869999999
 31
0.0
  0
LINE
  5
E98
  8
DETAIL
  6
CONTINUOUS
 62
     5
 10
25.76539099999999
 20
-148.9959279999999
 30
0.0
 11
31.290698
 21
-148.9972489999999
 31
0.0
  0
LINE
  5
E99
  8
DETAIL
  6
CONTINUOUS
 62
     5
 10
24.10779899999999
 20
-148.9955309999998
 30
0.0
 11
25.76539099999999
 21
-148.9959279999999
 31
0.0
  0
ARC
  5
E9A
  8
DETAIL
  6
CONTINUOUS
 62
     5
 10
28.527629
 20
-150.7311999999999
 30
0.0
 40
4.748414999999999
 50
21.412541
 51
158.5600490000001
  0
LINE
  5
E9B
  8
DETAIL
  6
CONTINUOUS
 62
     5
 10
35.389301
 20
-147.6922539999999
 30
0.0
 11
34.229737
 21
-148.6363419999999
 31
0.0
  0
LINE
  5
E9C
  8
DETAIL
  6
CONTINUOUS
 62
     5
 10
26.39436500000001
 20
-146.488956
 30
0.0
 11
25.42386
 21
-139.817924
 31
0.0
  0
LINE
  5
E9D
  8
DETAIL
  6
CONTINUOUS
 62
     5
 10
31.290698
 20
-148.9972489999999
 30
0.0
 11
32.94829
 21
-148.997646
 31
0.0
  0
LINE
  5
E9E
  8
DETAIL
  6
CONTINUOUS
 62
     5
 10
34.229737
 20
-148.6363419999999
 30
0.0
 11
33.783101
 21
-148.9978449999999
 31
0.0
  0
LINE
  5
E9F
  8
DETAIL
  6
CONTINUOUS
 62
     5
 10
13.966514
 20
-127.3080869999997
 30
0.0
 11
13.96659
 21
-126.9923439999999
 31
0.0
  0
LINE
  5
EA0
  8
DETAIL
  6
CONTINUOUS
 62
     5
 10
8.542218999999998
 20
-126.4887459999997
 30
0.0
 11
14.067525
 21
-126.4900669999998
 31
0.0
  0
LINE
  5
EA1
  8
DETAIL
  6
CONTINUOUS
 62
     5
 10
8.541618
 20
-129.0002489999998
 30
0.0
 11
11.304271
 21
-129.00091
 31
0.0
  0
LINE
  5
EA2
  8
DETAIL
  6
CONTINUOUS
 62
     5
 10
13.96659
 20
-126.9923439999999
 30
0.0
 11
14.067525
 21
-126.4900669999998
 31
0.0
  0
LINE
  5
EA3
  8
DETAIL
  6
CONTINUOUS
 62
     5
 10
14.067766
 20
-125.4854659999999
 30
0.0
 11
13.062924
 21
-126.4898269999998
 31
0.0
  0
LINE
  5
EA4
  8
DETAIL
  6
CONTINUOUS
 62
     5
 10
14.073282
 20
-106.5054729999998
 30
0.0
 11
14.067766
 21
-125.4854659999999
 31
0.0
  0
LINE
  5
EA5
  8
DETAIL
  6
CONTINUOUS
 62
     5
 10
18.074209
 20
-106.5070289999998
 30
0.0
 11
-0.181064
 21
-106.4999299999998
 31
0.0
  0
LINE
  5
EA6
  8
DETAIL
  6
CONTINUOUS
 62
     5
 10
9.187771
 20
-148.991962
 30
0.0
 11
8.43602
 21
-148.991782
 31
0.0
  0
LINE
  5
EA7
  8
DETAIL
  6
CONTINUOUS
 62
     5
 10
18.074209
 20
-106.5070289999998
 30
0.0
 11
18.07696
 21
-95.00432499999995
 31
0.0
  0
LINE
  5
EA8
  8
DETAIL
  6
CONTINUOUS
 62
     5
 10
8.440429
 20
-130.798752
 30
0.0
 11
8.441478
 21
-129.000225
 31
0.0
  0
LINE
  5
EA9
  8
DETAIL
  6
CONTINUOUS
 62
     5
 10
10.85856099999998
 20
-106.5042229999998
 30
0.0
 11
10.852805
 21
-126.4892979999997
 31
0.0
  0
LINE
  5
EAA
  8
SIZE
  6
CONTINUOUS
 62
    30
 10
20.715847
 20
0.0
 30
0.0
 11
630.1342129999999
 21
0.0
 31
0.0
  0
LINE
  5
EAB
  8
SIZE
  6
CONTINUOUS
 62
    30
 10
65.4159239459106
 20
-316.9977089411768
 30
-0.0000000000000142
 11
630.1342129999999
 21
-316.9999319999999
 31
0.0
  0
LINE
  5
EAC
  8
SIZE
  6
CONTINUOUS
 62
    30
 10
600.134213
 20
-1.999999999999997
 30
0.0
 11
600.134213
 21
-314.9999319999999
 31
0.0
  0
CIRCLE
  5
EAD
  8
SIZE
  6
CONTINUOUS
 62
    30
 10
600.134213
 20
0.0
 30
0.0
 40
6.0
  0
CIRCLE
  5
EAE
  8
SIZE
  6
CONTINUOUS
 62
    30
 10
600.134213
 20
-316.9999319999999
 30
0.0
 40
6.0
  0
TEXT
  5
EAF
  8
SIZE
  6
CONTINUOUS
 62
    30
 10
575.134213
 20
-234.0423659999998
 30
0.0
 40
64.0
  1
317
 50
90.0
 41
0.9
 72
     1
 11
575.134213
 21
-158.4999659999998
 31
0.0
  0
LINE
  5
EB0
  8
DETAIL
  6
CONTINUOUS
 62
     5
 10
-65.419011
 20
-156.213107
 30
0.0
 11
-65.419315
 21
-160.186815
 31
0.0
  0
LINE
  5
EB1
  8
DETAIL
  6
CONTINUOUS
 62
     5
 10
307.518346
 20
-7.728643999999998
 30
0.0
 11
0.168177
 21
-7.721251999999998
 31
0.0
  0
LINE
  5
EB2
  8
DETAIL
  6
CONTINUOUS
 62
     5
 10
307.7088699999998
 20
-0.007417
 30
0.0
 11
0.169333
 21
-0.000025
 31
0.0
  0
LINE
  5
EB3
  8
DETAIL
  6
CONTINUOUS
 62
     5
 10
286.7057269999999
 20
-20.06255199999999
 30
0.0
 11
0.166331
 21
-20.05515899999996
 31
0.0
  0
LINE
  5
EB4
  8
DETAIL
  6
CONTINUOUS
 62
     5
 10
302.9503869999999
 20
-9.993146999999992
 30
0.0
 11
0.167832
 21
-9.985754999999997
 31
0.0
  0
ARC
  5
EB5
  8
DETAIL
  6
CONTINUOUS
 62
     5
 10
307.7088699999998
 20
-2.313757999999997
 30
0.0
 40
2.306341
 50
343.245195
 51
90.0
  0
LINE
  5
EB6
  8
DETAIL
  6
CONTINUOUS
 62
     5
 10
272.19486
 20
-20.06255199999999
 30
0.0
 11
202.707367
 21
-20.06255199999999
 31
0.0
  0
LINE
  5
EB7
  8
DETAIL
  6
CONTINUOUS
 62
     5
 10
273.3244589999998
 20
-26.12704899999997
 30
0.0
 11
202.707367
 21
-26.07909299999999
 31
0.0
  0
LINE
  5
EBA
  8
DETAIL
  6
CONTINUOUS
 62
     5
 10
229.5517319999999
 20
-26.07909299999999
 30
0.0
 11
229.5517319999999
 21
-33.19866500000001
 31
0.0
  0
LINE
  5
EBB
  8
DETAIL
  6
CONTINUOUS
 62
     5
 10
229.551736
 20
-33.198672
 30
0.0
 11
227.9974629999999
 21
-34.10115200000001
 31
0.0
  0
LINE
  5
EBC
  8
DETAIL
  6
CONTINUOUS
 62
     5
 10
224.6382219999999
 20
-26.07909199999999
 30
0.0
 11
224.6382219999999
 21
-33.19866500000001
 31
0.0
  0
ARC
  5
EBD
  8
DETAIL
  6
CONTINUOUS
 62
     5
 10
227.094975
 20
-30.30595900000001
 30
0.0
 40
3.795179
 50
229.659063
 51
270.0000179999997
  0
LINE
  5
EBE
  8
DETAIL
  6
CONTINUOUS
 62
     5
 10
219.272861
 20
-20.09204999999999
 30
0.0
 11
223.9338939999999
 21
-20.09204999999999
 31
0.0
  0
LINE
  5
EBF
  8
DETAIL
  6
CONTINUOUS
 62
     5
 10
219.272861
 20
-20.09204999999999
 30
0.0
 11
223.9338939999999
 21
-20.09204999999999
 31
0.0
  0
ARC
  5
EC0
  8
DETAIL
  6
CONTINUOUS
 62
     5
 10
212.3544559999998
 20
-30.30595900000001
 30
0.0
 40
3.795179
 50
269.9999819999999
 51
310.3409369999998
  0
LINE
  5
EC1
  8
DETAIL
  6
CONTINUOUS
 62
     5
 10
214.8112089999999
 20
-26.07909199999999
 30
0.0
 11
214.8112089999999
 21
-33.19866500000001
 31
0.0
  0
LINE
  5
EC2
  8
DETAIL
  6
CONTINUOUS
 62
     5
 10
209.897696
 20
-33.198672
 30
0.0
 11
211.451969
 21
-34.10115200000001
 31
0.0
  0
LINE
  5
EC3
  8
DETAIL
  6
CONTINUOUS
 62
     5
 10
209.8976989999999
 20
-26.07909299999999
 30
0.0
 11
209.8976989999999
 21
-33.19866500000001
 31
0.0
  0
ARC
  5
EC4
  8
DETAIL
  6
CONTINUOUS
 62
     5
 10
219.724716
 20
-20.27423399999999
 30
0.0
 40
13.826907
 50
249.184661
 51
290.815429
  0
LINE
  5
EC5
  8
DETAIL
  6
CONTINUOUS
 62
     5
 10
211.451963
 20
-34.10114099999999
 30
0.0
 11
227.9974679999998
 21
-34.10114099999999
 31
0.0
  0
LINE
  5
EC6
  8
DETAIL
  6
CONTINUOUS
 62
     5
 10
227.9974679999998
 20
-34.10114099999999
 30
0.0
 11
211.451963
 21
-34.10114099999999
 31
0.0
  0
LINE
  5
EC7
  8
DETAIL
  6
CONTINUOUS
 62
     5
 10
229.5517319999999
 20
-26.07909299999999
 30
0.0
 11
209.8976989999999
 21
-26.07909299999999
 31
0.0
  0
ARC
  5
EC8
  8
DETAIL
  6
CONTINUOUS
 62
     5
 10
219.724716
 20
-20.27423399999999
 30
0.0
 40
13.826907
 50
249.184571
 51
290.8153389999998
  0
LINE
  5
EC9
  8
DETAIL
  6
CONTINUOUS
 62
     5
 10
250.475822
 20
-185.9889739999998
 30
0.0
 11
250.664601
 21
-26.15714899999999
 31
0.0
  0
ARC
  5
ECA
  8
DETAIL
  6
CONTINUOUS
 62
     5
 10
286.705728
 20
-16.051525
 30
0.0
 40
4.011026999999999
 50
270.0
 51
0.0
  0
ARC
  5
ECB
  8
DETAIL
  6
CONTINUOUS
 62
     5
 10
285.479665
 20
-16.051525
 30
0.0
 40
4.011026999999999
 50
270.0000009999999
 51
0.0
  0
ARC
  5
ECC
  8
DETAIL
  6
CONTINUOUS
 62
     5
 10
294.8004599999998
 20
-14.07611599999999
 30
0.0
 40
4.083815999999997
 50
91.01971299999973
 51
179.5776340000004
  0
ARC
  5
ECD
  8
DETAIL
  6
CONTINUOUS
 62
     5
 10
293.5017189999998
 20
-14.04601199999999
 30
0.0
 40
4.011026999999999
 50
90.0
 51
180.0
  0
LINE
  5
ECE
  8
DETAIL
  6
CONTINUOUS
 62
     5
 10
289.4906919999999
 20
-14.04601199999999
 30
0.0
 11
289.4906919999999
 21
-16.051525
 31
0.0
  0
LINE
  5
ECF
  8
DETAIL
  6
CONTINUOUS
 62
     5
 10
264.699273
 20
-26.12704899999997
 30
0.0
 11
256.6082109999998
 21
-26.12704899999997
 31
0.0
  0
LINE
  5
ED0
  8
DETAIL
  6
CONTINUOUS
 62
     5
 10
265.0045299999998
 20
-26.07909299999999
 30
0.0
 11
245.3504979999999
 21
-26.07909299999999
 31
0.0
  0
ARC
  5
ED1
  8
DETAIL
  6
CONTINUOUS
 62
     5
 10
255.306491
 20
-20.81402799999996
 30
0.0
 40
13.276704
 50
262.7930689999999
 51
291.12287
  0
LINE
  5
ED2
  8
DETAIL
  6
CONTINUOUS
 62
     5
 10
263.450267
 20
-34.10114099999999
 30
0.0
 11
253.632253
 21
-34.10114099999999
 31
0.0
  0
LINE
  5
ED3
  8
DETAIL
  6
CONTINUOUS
 62
     5
 10
263.450261
 20
-34.10115200000001
 30
0.0
 11
265.0045339999999
 21
-33.198672
 31
0.0
  0
ARC
  5
ED4
  8
DETAIL
  6
CONTINUOUS
 62
     5
 10
262.547774
 20
-30.30595900000001
 30
0.0
 40
3.795179
 50
229.6590240000001
 51
269.9999819999999
  0
LINE
  5
ED5
  8
DETAIL
  6
CONTINUOUS
 62
     5
 10
260.091021
 20
-26.07909299999999
 30
0.0
 11
260.091021
 21
-33.19866500000001
 31
0.0
  0
LINE
  5
ED6
  8
DETAIL
  6
CONTINUOUS
 62
     5
 10
265.0045299999998
 20
-33.19866500000001
 30
0.0
 11
265.0045299999998
 21
-26.07909299999999
 31
0.0
  0
LINE
  5
ED7
  8
DETAIL
  6
CONTINUOUS
 62
     5
 10
253.594407
 20
-35.16846000000001
 30
0.0
 11
253.594407
 21
-44.61171199999999
 31
0.0
  0
ARC
  5
ED8
  8
DETAIL
  6
CONTINUOUS
 62
     5
 10
268.663426
 20
-35.16846000000001
 30
0.0
 40
15.069018
 50
142.901833
 51
180.0
  0
LINE
  5
ED9
  8
DETAIL
  6
CONTINUOUS
 62
     5
 10
273.3244589999998
 20
-20.11050899999996
 30
0.0
 11
273.3244589999998
 21
-26.12704899999997
 31
0.0
  0
LINE
  5
EDA
  8
DETAIL
  6
CONTINUOUS
 62
     5
 10
287.650389
 20
-20.09944199999999
 30
0.0
 11
268.663426
 21
-20.09944199999999
 31
0.0
  0
LINE
  5
EDB
  8
DETAIL
  6
CONTINUOUS
 62
     5
 10
253.595816
 20
-35.198999
 30
0.0
 11
253.5921579999999
 21
-59.64225
 31
0.0
  0
LINE
  5
EDC
  8
DETAIL
  6
CONTINUOUS
 62
     5
 10
309.9173
 20
-2.978621999999998
 30
0.0
 11
308.766589
 21
-6.800852999999998
 31
0.0
  0
LINE
  5
EDD
  8
DETAIL
  6
CONTINUOUS
 62
     5
 10
309.9173
 20
-2.978621999999998
 30
0.0
 11
308.766589
 21
-6.800852999999998
 31
0.0
  0
ARC
  5
EDE
  8
DETAIL
  6
CONTINUOUS
 62
     5
 10
307.518346
 20
-6.425059999999999
 30
0.0
 40
1.303584
 50
270.0
 51
343.2451950000003
  0
LINE
  5
EDF
  8
DETAIL
  6
CONTINUOUS
 62
     5
 10
290.7167549999999
 20
-16.051525
 30
0.0
 11
290.7167549999999
 21
-14.04601199999999
 31
0.0
  0
ARC
  5
EE0
  8
DETAIL
  6
CONTINUOUS
 62
     5
 10
303.052442
 20
-6.113918999999999
 30
0.0
 40
3.880569999999999
 50
268.4930029999995
 51
335.3655199999998
  0
LINE
  5
EE1
  8
DETAIL
  6
CONTINUOUS
 62
     5
 10
-307.17968
 20
-7.728643999999998
 30
0.0
 11
0.170489
 21
-7.721251999999998
 31
0.0
  0
LINE
  5
EE2
  8
DETAIL
  6
CONTINUOUS
 62
     5
 10
-307.3702039999998
 20
-0.007417
 30
0.0
 11
0.169333
 21
-0.000025
 31
0.0
  0
LINE
  5
EE3
  8
DETAIL
  6
CONTINUOUS
 62
     5
 10
-286.3670609999999
 20
-20.06255199999999
 30
0.0
 11
0.172335
 21
-20.05515899999996
 31
0.0
  0
LINE
  5
EE4
  8
DETAIL
  6
CONTINUOUS
 62
     5
 10
-302.6117209999999
 20
-9.993146999999992
 30
0.0
 11
0.170834
 21
-9.985754999999997
 31
0.0
  0
ARC
  5
EE5
  8
DETAIL
  6
CONTINUOUS
 62
     5
 10
-307.3702039999998
 20
-2.313757999999997
 30
0.0
 40
2.306341
 50
90.0
 51
196.7548049999999
  0
LINE
  5
EE6
  8
DETAIL
  6
CONTINUOUS
 62
     5
 10
-271.856194
 20
-20.06255199999999
 30
0.0
 11
-202.368701
 21
-20.06255199999999
 31
0.0
  0
LINE
  5
EE7
  8
DETAIL
  6
CONTINUOUS
 62
     5
 10
-272.9857929999998
 20
-26.07909299999999
 30
0.0
 11
-202.368701
 21
-26.07909299999999
 31
0.0
  0
LINE
  5
EE8
  8
DETAIL
  6
CONTINUOUS
 62
     5
 10
-222.6911019999999
 20
-201.4519759999998
 30
0.0
 11
-222.667475
 21
-34.10114099999999
 31
0.0
  0
LINE
  5
EE9
  8
DETAIL
  6
CONTINUOUS
 62
     5
 10
-226.2592499999999
 20
-199.702858
 30
0.0
 11
-226.2384799999997
 21
-34.065645
 31
0.0
  0
LINE
  5
EEA
  8
DETAIL
  6
CONTINUOUS
 62
     5
 10
-229.2130659999999
 20
-26.07909299999999
 30
0.0
 11
-229.2130659999999
 21
-33.19866500000001
 31
0.0
  0
LINE
  5
EEB
  8
DETAIL
  6
CONTINUOUS
 62
     5
 10
-229.21307
 20
-33.198672
 30
0.0
 11
-227.6587969999999
 21
-34.10115200000001
 31
0.0
  0
LINE
  5
EEC
  8
DETAIL
  6
CONTINUOUS
 62
     5
 10
-224.2995559999999
 20
-26.07909199999999
 30
0.0
 11
-224.2995559999999
 21
-33.19866500000001
 31
0.0
  0
ARC
  5
EED
  8
DETAIL
  6
CONTINUOUS
 62
     5
 10
-226.756309
 20
-30.30595900000001
 30
0.0
 40
3.795179
 50
269.9999819999999
 51
310.3409369999998
  0
LINE
  5
EEE
  8
DETAIL
  6
CONTINUOUS
 62
     5
 10
-218.934195
 20
-20.09204999999999
 30
0.0
 11
-223.5952279999999
 21
-20.09204999999999
 31
0.0
  0
LINE
  5
EEF
  8
DETAIL
  6
CONTINUOUS
 62
     5
 10
-218.934195
 20
-20.09204999999999
 30
0.0
 11
-223.5952279999999
 21
-20.09204999999999
 31
0.0
  0
ARC
  5
EF0
  8
DETAIL
  6
CONTINUOUS
 62
     5
 10
-212.0157899999998
 20
-30.30595900000001
 30
0.0
 40
3.795179
 50
229.659063
 51
270.0000179999997
  0
LINE
  5
EF1
  8
DETAIL
  6
CONTINUOUS
 62
     5
 10
-214.4725429999999
 20
-26.07909199999999
 30
0.0
 11
-214.4725429999999
 21
-33.19866500000001
 31
0.0
  0
LINE
  5
EF2
  8
DETAIL
  6
CONTINUOUS
 62
     5
 10
-209.55903
 20
-33.198672
 30
0.0
 11
-211.113303
 21
-34.10115200000001
 31
0.0
  0
LINE
  5
EF3
  8
DETAIL
  6
CONTINUOUS
 62
     5
 10
-209.5590329999999
 20
-26.07909299999999
 30
0.0
 11
-209.5590329999999
 21
-33.19866500000001
 31
0.0
  0
ARC
  5
EF4
  8
DETAIL
  6
CONTINUOUS
 62
     5
 10
-219.38605
 20
-20.27423399999999
 30
0.0
 40
13.826907
 50
249.184571
 51
290.8153389999998
  0
LINE
  5
EF5
  8
DETAIL
  6
CONTINUOUS
 62
     5
 10
-211.113297
 20
-34.10114099999999
 30
0.0
 11
-227.6588019999998
 21
-34.10114099999999
 31
0.0
  0
LINE
  5
EF7
  8
DETAIL
  6
CONTINUOUS
 62
     5
 10
-227.6588019999998
 20
-34.10114099999999
 30
0.0
 11
-211.113297
 21
-34.10114099999999
 31
0.0
  0
LINE
  5
EF8
  8
DETAIL
  6
CONTINUOUS
 62
     5
 10
-229.2130659999999
 20
-26.07909299999999
 30
0.0
 11
-209.5590329999999
 21
-26.07909299999999
 31
0.0
  0
ARC
  5
EF9
  8
DETAIL
  6
CONTINUOUS
 62
     5
 10
-219.38605
 20
-20.27423399999999
 30
0.0
 40
13.826907
 50
249.184661
 51
290.815429
  0
LINE
  5
EFA
  8
DETAIL
  6
CONTINUOUS
 62
     5
 10
-250.3531719999999
 20
-185.914015
 30
0.0
 11
-250.325935
 21
-26.15714899999999
 31
0.0
  0
ARC
  5
EFB
  8
DETAIL
  6
CONTINUOUS
 62
     5
 10
-286.367062
 20
-16.051525
 30
0.0
 40
4.011026999999999
 50
180.0
 51
270.0
  0
ARC
  5
EFC
  8
DETAIL
  6
CONTINUOUS
 62
     5
 10
-285.140999
 20
-16.051525
 30
0.0
 40
4.011026999999999
 50
180.0
 51
269.9999990000001
  0
ARC
  5
EFD
  8
DETAIL
  6
CONTINUOUS
 62
     5
 10
-294.4617939999998
 20
-14.07611599999999
 30
0.0
 40
4.083815999999997
 50
0.4223659999995645
 51
88.9802870000003
  0
ARC
  5
EFE
  8
DETAIL
  6
CONTINUOUS
 62
     5
 10
-293.1630529999998
 20
-14.04601199999999
 30
0.0
 40
4.011026999999999
 50
0.0
 51
90.0
  0
LINE
  5
EFF
  8
DETAIL
  6
CONTINUOUS
 62
     5
 10
-289.1520259999999
 20
-14.04601199999999
 30
0.0
 11
-289.1520259999999
 21
-16.051525
 31
0.0
  0
LINE
  5
F00
  8
DETAIL
  6
CONTINUOUS
 62
     5
 10
-264.360607
 20
-26.12704899999997
 30
0.0
 11
-256.2695449999998
 21
-26.12704899999997
 31
0.0
  0
LINE
  5
F01
  8
DETAIL
  6
CONTINUOUS
 62
     5
 10
-264.6658639999998
 20
-26.07909299999999
 30
0.0
 11
-245.0118319999999
 21
-26.07909299999999
 31
0.0
  0
ARC
  5
F02
  8
DETAIL
  6
CONTINUOUS
 62
     5
 10
-254.967825
 20
-20.81402799999996
 30
0.0
 40
13.276704
 50
248.8771299999998
 51
277.206931
  0
LINE
  5
F03
  8
DETAIL
  6
CONTINUOUS
 62
     5
 10
-263.111601
 20
-34.10114099999999
 30
0.0
 11
-253.293587
 21
-34.10114099999999
 31
0.0
  0
LINE
  5
F04
  8
DETAIL
  6
CONTINUOUS
 62
     5
 10
-263.111595
 20
-34.10115200000001
 30
0.0
 11
-264.6658679999999
 21
-33.198672
 31
0.0
  0
ARC
  5
F05
  8
DETAIL
  6
CONTINUOUS
 62
     5
 10
-262.209108
 20
-30.30595900000001
 30
0.0
 40
3.795179
 50
270.0000180000001
 51
310.3409759999998
  0
LINE
  5
F06
  8
DETAIL
  6
CONTINUOUS
 62
     5
 10
-259.752355
 20
-26.07909299999999
 30
0.0
 11
-259.752355
 21
-33.19866500000001
 31
0.0
  0
LINE
  5
F07
  8
DETAIL
  6
CONTINUOUS
 62
     5
 10
-264.6658639999998
 20
-33.19866500000001
 30
0.0
 11
-264.6658639999998
 21
-26.07909299999999
 31
0.0
  0
LINE
  5
F08
  8
DETAIL
  6
CONTINUOUS
 62
     5
 10
-253.255741
 20
-35.16846000000001
 30
0.0
 11
-253.255741
 21
-44.61171199999999
 31
0.0
  0
ARC
  5
F09
  8
DETAIL
  6
CONTINUOUS
 62
     5
 10
-268.32476
 20
-35.16846000000001
 30
0.0
 40
15.069018
 50
0.0
 51
37.09816699999998
  0
LINE
  5
F0A
  8
DETAIL
  6
CONTINUOUS
 62
     5
 10
-272.9857929999998
 20
-20.11050899999996
 30
0.0
 11
-272.9857929999998
 21
-26.12704899999997
 31
0.0
  0
LINE
  5
F0B
  8
DETAIL
  6
CONTINUOUS
 62
     5
 10
-287.311723
 20
-20.09944199999999
 30
0.0
 11
-268.32476
 21
-20.09944199999999
 31
0.0
  0
LINE
  5
F0C
  8
DETAIL
  6
CONTINUOUS
 62
     5
 10
-253.25715
 20
-35.198999
 30
0.0
 11
-253.2534919999999
 21
-59.64225
 31
0.0
  0
LINE
  5
F0D
  8
DETAIL
  6
CONTINUOUS
 62
     5
 10
-309.578634
 20
-2.978621999999998
 30
0.0
 11
-308.427923
 21
-6.800852999999998
 31
0.0
  0
LINE
  5
F0E
  8
DETAIL
  6
CONTINUOUS
 62
     5
 10
-309.578634
 20
-2.978621999999998
 30
0.0
 11
-308.427923
 21
-6.800852999999998
 31
0.0
  0
ARC
  5
F0F
  8
DETAIL
  6
CONTINUOUS
 62
     5
 10
-307.17968
 20
-6.425059999999999
 30
0.0
 40
1.303584
 50
196.7548049999996
 51
270.0
  0
LINE
  5
F10
  8
DETAIL
  6
CONTINUOUS
 62
     5
 10
-290.3780889999999
 20
-16.051525
 30
0.0
 11
-290.3780889999999
 21
-14.04601199999999
 31
0.0
  0
ARC
  5
F11
  8
DETAIL
  6
CONTINUOUS
 62
     5
 10
-302.713776
 20
-6.113918999999999
 30
0.0
 40
3.880569999999999
 50
204.6344800000001
 51
271.5069969999996
  0
LINE
  5
F12
  8
DETAIL
  6
CONTINUOUS
 62
     5
 10
202.707367
 20
-26.07909299999999
 30
0.0
 11
202.7075219999999
 21
-20.06038499999996
 31
0.0
  0
LINE
  5
F13
  8
DETAIL
  6
CONTINUOUS
 62
     5
 10
-202.368701
 20
-26.07909299999999
 30
0.0
 11
-202.368701
 21
-20.06255199999999
 31
0.0
  0
LINE
  5
F14
  8
DETAIL
  6
CONTINUOUS
 62
     5
 10
57.64845128391614
 20
-316.9977089411768
 30
-0.0000000000000142
 11
-57.35154871608386
 21
-316.9977089411768
 31
-0.0000000000000142
  0
LINE
  5
F15
  8
DETAIL
  6
CONTINUOUS
 62
     5
 10
61.611582283916
 20
-301.9977089411768
 30
-0.0000000000000142
 11
-61.31467971608384
 21
-301.9977089411768
 31
-0.0000000000000142
  0
LINE
  5
F16
  8
DETAIL
  6
CONTINUOUS
 62
     5
 10
-92.38919178756478
 20
-288.4069806956286
 30
0.0
 11
-92.38946600038301
 21
-256.2903091803137
 31
0.0
  0
LINE
  5
F17
  8
DETAIL
  6
CONTINUOUS
 62
     5
 10
-94.85206363241105
 20
-288.4066298215392
 30
0.0
 11
-94.85248071608386
 21
-294.5076509411767
 31
-0.0000000000000142
  0
LINE
  5
F18
  8
DETAIL
  6
CONTINUOUS
 62
     5
 10
-65.35154871608387
 20
-294.5076509411767
 30
-0.0000000000000142
 11
-65.35154871608387
 21
-308.9977089411767
 31
-0.0000000000000142
  0
ARC
  5
F19
  8
DETAIL
  6
CONTINUOUS
 62
     5
 10
-57.35154871608386
 20
-308.9977089411767
 30
-0.0000000000000142
 40
8.0
 50
180.0
 51
270.0
  0
LINE
  5
F1A
  8
DETAIL
  6
CONTINUOUS
 62
     5
 10
-94.85248071608386
 20
-294.5076509411767
 30
-0.0000000000000142
 11
-65.35154871608387
 21
-294.5076509411767
 31
-0.0000000000000142
  0
LINE
  5
F1B
  8
DETAIL
  6
CONTINUOUS
 62
     5
 10
-65.35154871608387
 20
-294.5076509411767
 30
-0.0000000000000142
 11
-61.31467971608384
 21
-301.9977089411768
 31
-0.0000000000000142
  0
LINE
  5
F1C
  8
DETAIL
  6
CONTINUOUS
 62
     5
 10
-94.85163181136365
 20
-256.2903212138594
 30
-0.0000000000000142
 11
-94.85163181136365
 21
-256.2903212138594
 31
-0.0000000000000142
  0
ARC
  5
F1D
  8
DETAIL
  6
CONTINUOUS
 62
     5
 10
57.64845128391614
 20
-308.9977089411767
 30
-0.0000000000000142
 40
8.0
 50
270.0
 51
0.0
  0
LINE
  5
F1E
  8
DETAIL
  6
CONTINUOUS
 62
     5
 10
65.64845128391613
 20
-294.5076509411767
 30
-0.0000000000000142
 11
61.611582283916
 21
-301.9977089411768
 31
-0.0000000000000142
  0
LINE
  5
F1F
  8
DETAIL
  6
CONTINUOUS
 62
     5
 10
95.14886044764187
 20
-288.4454215379903
 30
0.0
 11
95.14845128391613
 21
-294.5076509411767
 31
-0.0000000000000142
  0
LINE
  5
F20
  8
DETAIL
  6
CONTINUOUS
 62
     5
 10
92.68620211501235
 20
-288.4449187470472
 30
0.0
 11
92.68302206477907
 21
-256.2941865289229
 31
0.0
  0
LINE
  5
F21
  8
DETAIL
  6
CONTINUOUS
 62
     5
 10
95.1236147040414
 20
-256.3167996819401
 30
-0.0000000000003483
 11
95.1236147040414
 21
-256.31679968194
 31
-0.0000000000000057
  0
LINE
  5
F22
  8
DETAIL
  6
CONTINUOUS
 62
     5
 10
65.64845128391613
 20
-294.5076509411767
 30
-0.0000000000000142
 11
65.64845128391613
 21
-308.9977089411767
 31
-0.0000000000000142
  0
LINE
  5
F23
  8
DETAIL
  6
CONTINUOUS
 62
     5
 10
65.64845128391613
 20
-294.5076509411767
 30
-0.0000000000000142
 11
95.14845128391613
 21
-294.5076509411767
 31
-0.0000000000000142
  0
LINE
  5
F24
  8
DETAIL
  6
CONTINUOUS
 62
     5
 10
-89.85147146690183
 20
-251.2903905686604
 30
0.0
 11
90.12381763976644
 21
-251.2961621941517
 31
0.0000000000000003
  0
ARC
  5
F25
  8
DETAIL
  6
CONTINUOUS
 62
     5
 10
-89.85163181184463
 20
-256.2903905660896
 30
-0.0000000000000142
 40
5.0
 50
89.99816258230163
 51
179.9992052816424
  0
ARC
  5
F26
  8
DETAIL
  6
CONTINUOUS
 62
     5
 10
90.12365729482356
 20
-256.2961621915805
 30
-0.0000000000003483
 40
5.0
 50
359.7635111090491
 51
89.99816258230163
  0
LINE
  5
F27
  8
DETAIL
  6
CONTINUOUS
 62
     5
 10
-81.86235169792852
 20
-205.2906467479974
 30
0.0
 11
82.13764821774106
 21
-205.295906062122
 31
0.0000000000000003
  0
LINE
  5
F28
  8
DETAIL
  6
CONTINUOUS
 62
     5
 10
0.1376482599062552
 20
-205.2932764050598
 30
0.0000000000000002
 11
0.1361730864323067
 21
-251.2932763814061
 31
0.0000000000000002
  0
LINE
  5
F29
  8
DETAIL
  6
CONTINUOUS
 62
     5
 10
12.13764825373573
 20
-205.2936612329225
 30
0.0000000000000002
 11
12.13617308026178
 21
-251.2936612092688
 31
0.0000000000000002
  0
LINE
  5
F2A
  8
DETAIL
  6
CONTINUOUS
 62
     5
 10
24.13764824756521
 20
-205.2940460607854
 30
0.0000000000000002
 11
24.13617307409124
 21
-251.2940460371316
 31
0.0000000000000002
  0
LINE
  5
F2B
  8
DETAIL
  6
CONTINUOUS
 62
     5
 10
-11.86235173392322
 20
-205.292891577197
 30
0.0000000000000002
 11
-11.86382690739717
 21
-251.2928915535434
 31
0.0000000000000002
  0
LINE
  5
F2C
  8
DETAIL
  6
CONTINUOUS
 62
     5
 10
-23.8623517277527
 20
-205.2925067493343
 30
0.0000000000000002
 11
-23.86382690122665
 21
-251.2925067256806
 31
0.0000000000000002
  0
LINE
  5
F2D
  8
DETAIL
  6
CONTINUOUS
 62
     5
 10
-28.86235172518164
 20
-205.2923464043915
 30
0.0000000000000002
 11
-28.8638268986556
 21
-251.2923463807378
 31
0.0000000000000002
  0
LINE
  5
F2E
  8
DETAIL
  6
CONTINUOUS
 62
     5
 10
29.13764824499416
 20
-205.2942064057281
 30
0.0000000000000002
 11
29.13617307152021
 21
-251.2942063820744
 31
0.0000000000000002
  0
LINE
  5
F2F
  8
DETAIL
  6
CONTINUOUS
 62
     5
 10
-40.86235171901113
 20
-205.2919615765286
 30
0.0000000000000002
 11
-40.8638268924851
 21
-251.2919615528749
 31
0.0000000000000002
  0
LINE
  5
F30
  8
DETAIL
  6
CONTINUOUS
 62
     5
 10
-52.8623517128406
 20
-205.2915767486659
 30
0.0000000000000002
 11
-52.86382688631457
 21
-251.2915767250123
 31
0.0000000000000002
  0
LINE
  5
F31
  8
DETAIL
  6
CONTINUOUS
 62
     5
 10
41.13764823882364
 20
-205.2945912335909
 30
0.0000000000000002
 11
41.1361730653497
 21
-251.2945912099372
 31
0.0000000000000002
  0
LINE
  5
F32
  8
DETAIL
  6
CONTINUOUS
 62
     5
 10
53.13764823265312
 20
-205.2949760614537
 30
0.0000000000000002
 11
53.13617305917917
 21
-251.2949760378
 31
0.0000000000000002
  0
LINE
  5
F33
  8
DETAIL
  6
CONTINUOUS
 62
     5
 10
58.13764823008208
 20
-205.2951364063964
 30
0.0000000000000002
 11
58.13617305660813
 21
-251.2951363827429
 31
0.0000000000000002
  0
LINE
  5
F34
  8
DETAIL
  6
CONTINUOUS
 62
     5
 10
-57.86235171026957
 20
-205.2914164037229
 30
0.0000000000000002
 11
-57.86382688374349
 21
-251.2914163800694
 31
0.0000000000000002
  0
LINE
  5
F35
  8
DETAIL
  6
CONTINUOUS
 62
     5
 10
-69.86235170409905
 20
-205.2910315758601
 30
0.0000000000000002
 11
-69.863826877573
 21
-251.2910315522065
 31
0.0000000000000002
  0
LINE
  5
F36
  8
DETAIL
  6
CONTINUOUS
 62
     5
 10
-81.86235169792852
 20
-205.2906467479973
 30
0.0000000000000002
 11
-81.86382687140247
 21
-251.2906467243439
 31
0.0000000000000002
  0
LINE
  5
F37
  8
DETAIL
  6
CONTINUOUS
 62
     5
 10
70.13764822391155
 20
-205.2955212342594
 30
0.0000000000000002
 11
70.1361730504376
 21
-251.2955212106055
 31
0.0000000000000002
  0
LINE
  5
F38
  8
DETAIL
  6
CONTINUOUS
 62
     5
 10
82.13764821774099
 20
-205.295906062122
 30
0.0000000000000002
 11
82.13617304426704
 21
-251.2959060384685
 31
0.0000000000000002
  0
LINE
  5
F39
  8
OUTLINE
  6
CONTINUOUS
 62
     3
 10
-307.3702039999998
 20
-0.0000249999999502
 30
0.0
 11
307.7088699999998
 21
-0.0000249999999502
 31
0.0
  0
LINE
  5
F3A
  8
OUTLINE
  6
CONTINUOUS
 62
     3
 10
-57.18221571608386
 20
-316.9903419411768
 30
-0.0000000000000142
 11
57.81778428391613
 21
-316.9903419411768
 31
-0.0000000000000142
  0
LINE
  5
F3B
  8
OUTLINE
  6
CONTINUOUS
 62
     3
 10
-89.68213846642082
 20
-251.2830235686605
 30
-0.0000000000000142
 11
90.2931080489842
 21
-251.288795192786
 31
-0.0000000000003483
  0
LINE
  5
F3C
  8
OUTLINE
  6
CONTINUOUS
 62
     3
 10
-61.14534671608384
 20
-301.9903419411768
 30
-0.0000000000000142
 11
61.78091528391599
 21
-301.9903419411768
 31
-0.0000000000000142
  0
LINE
  5
F3D
  8
OUTLINE
  6
CONTINUOUS
 62
     3
 10
-147.8991837623557
 20
-288.3912838524095
 30
0.0
 11
148.160495237644
 21
-288.4355948524095
 31
0.0
  0
LINE
  5
F3E
  8
OUTLINE
  6
CONTINUOUS
 62
     3
 10
95.106927
 20
-256.2889299999999
 30
0.0
 11
-154.1057965428254
 21
-256.2809382124379
 31
0.0
  0
POINT
  5
F3F
  8
ARRANGE
  6
CONTINUOUS
 62
     1
 10
0.1693329999999946
 20
0.0073670000000315
 30
0.0
  0
LINE
  5
F42
  8
OUTLINE
  6
CONTINUOUS
 62
     3
 10
307.518346
 20
-7.721251999999948
 30
0.0
 11
0.1681769999999946
 21
-7.713859999999967
 31
0.0
  0
ARC
  5
F46
  8
OUTLINE
  6
CONTINUOUS
 62
     3
 10
-147.8838479999999
 20
-185.9219599999999
 30
0.0
 40
102.4693249999999
 50
179.9914249999788
 51
269.9914249999999
  0
ARC
  5
F47
  8
OUTLINE
  6
CONTINUOUS
 62
     3
 10
-154.0952719999999
 20
-185.958853
 30
0.0
 40
70.322086
 50
192.721455
 51
269.9914249999999
  0
ARC
  5
F48
  8
OUTLINE
  6
CONTINUOUS
 62
     3
 10
-157.2919529999998
 20
-185.9583739999999
 30
0.0
 40
70.322086
 50
191.2648979999999
 51
269.9914249999999
  0
LINE
  5
F49
  8
OUTLINE
  6
CONTINUOUS
 62
     3
 10
-94.68273063241105
 20
-288.3992628215392
 30
0.0
 11
-94.68273063241101
 21
-294.5002839411767
 31
-0.0000000000000142
  0
ARC
  5
F4A
  8
OUTLINE
  6
CONTINUOUS
 62
     3
 10
-57.18221571608386
 20
-308.9903419411768
 30
-0.0000000000000142
 40
8.0
 50
180.0
 51
270.0
  0
LINE
  5
F4B
  8
OUTLINE
  6
CONTINUOUS
 62
     3
 10
-65.18221571608386
 20
-294.5002839411767
 30
-0.0000000000000142
 11
-65.18221571608386
 21
-308.9903419411768
 31
-0.0000000000000142
  0
LINE
  5
F4C
  8
OUTLINE
  6
CONTINUOUS
 62
     3
 10
-65.18221571608386
 20
-294.5002839411767
 30
-0.0000000000000142
 11
-61.14534671608384
 21
-301.9903419411768
 31
-0.0000000000000142
  0
LINE
  5
F4D
  8
OUTLINE
  6
CONTINUOUS
 62
     3
 10
-94.68273063241101
 20
-294.5002839411767
 30
-0.0000000000000142
 11
-65.18221571608386
 21
-294.5002839411767
 31
-0.0000000000000142
  0
ARC
  5
F4E
  8
OUTLINE
  6
CONTINUOUS
 62
     3
 10
-89.68229881136367
 20
-256.2830235660896
 30
-0.0000000000000142
 40
5.0
 50
89.99816258230163
 51
180.0
  0
LINE
  5
F4F
  8
OUTLINE
  6
CONTINUOUS
 62
     3
 10
-92.220133000383
 20
-256.282942180314
 30
0.0
 11
-92.22669016141523
 21
-288.3997642613401
 31
0.0
  0
LINE
  5
F50
  8
OUTLINE
  6
CONTINUOUS
 62
     3
 10
-271.856194
 20
-20.05516
 30
0.0
 11
-202.368701
 21
-20.05516
 31
0.0
  0
LINE
  5
F51
  8
OUTLINE
  6
CONTINUOUS
 62
     3
 10
-272.9857929999998
 20
-26.07170100000001
 30
0.0
 11
-202.368701
 21
-26.07170100000001
 31
0.0
  0
LINE
  5
F54
  8
OUTLINE
  6
CONTINUOUS
 62
     3
 10
-307.17968
 20
-7.721251999999948
 30
0.0
 11
0.1704889999999946
 21
-7.713859999999967
 31
0.0
  0
LINE
  5
F55
  8
OUTLINE
  6
CONTINUOUS
 62
     3
 10
-253.255741
 20
-35.16106800000006
 30
0.0
 11
-253.255741
 21
-44.60431999999998
 31
0.0
  0
LINE
  5
F56
  8
OUTLINE
  6
CONTINUOUS
 62
     3
 10
-253.2571499999999
 20
-35.19160700000004
 30
0.0
 11
-253.2534919999999
 21
-59.63485800000002
 31
0.0
  0
LINE
  5
F57
  8
OUTLINE
  6
CONTINUOUS
 62
     3
 10
-250.3531719999999
 20
-185.906623
 30
0.0
 11
-250.3259349999999
 21
-26.14975699999996
 31
0.0
  0
LINE
  5
F58
  8
OUTLINE
  6
CONTINUOUS
 62
     3
 10
-292.95837
 20
-94.98941900000001
 30
0.0
 11
-250.3440539999999
 21
-94.99579700000004
 31
0.0
  0
LINE
  5
F59
  8
OUTLINE
  6
CONTINUOUS
 62
     3
 10
-250.3432159999997
 20
-89.50086800000004
 30
0.0
 11
-292.9575319999997
 21
-89.49448899999999
 31
0.0
  0
ARC
  5
F5A
  8
OUTLINE
  6
CONTINUOUS
 62
     3
 10
-293.21859
 20
-92.24191499999999
 30
0.0
 40
2.759799
 50
84.57241400000055
 51
275.4104350000003
  0
ARC
  5
F5B
  8
OUTLINE
  6
CONTINUOUS
 62
     3
 10
-289.0351369999999
 20
-59.55364300000004
 30
0.0
 40
35.763804
 50
303.7423459999998
 51
359.9914249999788
  0
ARC
  5
F5C
  8
OUTLINE
  6
CONTINUOUS
 62
     3
 10
-294.4617939999998
 20
-14.06872399999998
 30
0.0
 40
4.083815999999997
 50
0.4223659999995645
 51
88.9802870000003
  0
ARC
  5
F5D
  8
OUTLINE
  6
CONTINUOUS
 62
     3
 10
-293.1630529999998
 20
-14.03861999999992
 30
0.0
 40
4.011026999999999
 50
0.0
 51
90.0
  0
ARC
  5
F5E
  8
OUTLINE
  6
CONTINUOUS
 62
     3
 10
-286.367062
 20
-16.044133
 30
0.0
 40
4.011026999999999
 50
180.0
 51
270.0
  0
ARC
  5
F5F
  8
OUTLINE
  6
CONTINUOUS
 62
     3
 10
-285.140999
 20
-16.044133
 30
0.0
 40
4.011026999999999
 50
180.0
 51
269.9999990000001
  0
ARC
  5
F60
  8
OUTLINE
  6
CONTINUOUS
 62
     3
 10
-302.7137759999998
 20
-6.106526999999925
 30
0.0
 40
3.880569999999999
 50
204.6344800000001
 51
271.5069969999996
  0
LINE
  5
F61
  8
OUTLINE
  6
CONTINUOUS
 62
     3
 10
-309.578634
 20
-2.971230000000004
 30
0.0
 11
-308.427923
 21
-6.793460999999993
 31
0.0
  0
LINE
  5
F62
  8
OUTLINE
  6
CONTINUOUS
 62
     3
 10
-309.578634
 20
-2.971230000000004
 30
0.0
 11
-308.427923
 21
-6.793460999999993
 31
0.0
  0
ARC
  5
F63
  8
OUTLINE
  6
CONTINUOUS
 62
     3
 10
-307.17968
 20
-6.417667999999947
 30
0.0
 40
1.303584
 50
196.7548049999996
 51
270.0
  0
LINE
  5
F64
  8
OUTLINE
  6
CONTINUOUS
 62
     3
 10
-290.3780889999999
 20
-16.044133
 30
0.0
 11
-290.3780889999999
 21
-14.03861999999992
 31
0.0
  0
ARC
  5
F65
  8
OUTLINE
  6
CONTINUOUS
 62
     3
 10
-307.3702039999998
 20
-2.306365999999922
 30
0.0
 40
2.306341
 50
90.0
 51
196.7548049999999
  0
LINE
  5
F66
  8
OUTLINE
  6
CONTINUOUS
 62
     3
 10
-272.9857929999998
 20
-20.103117
 30
0.0
 11
-272.9857929999998
 21
-26.119657
 31
0.0
  0
LINE
  5
F67
  8
OUTLINE
  6
CONTINUOUS
 62
     3
 10
-289.1520259999999
 20
-14.03861999999992
 30
0.0
 11
-289.1520259999999
 21
-16.044133
 31
0.0
  0
LINE
  5
F68
  8
OUTLINE
  6
CONTINUOUS
 62
     3
 10
-287.311723
 20
-20.09204999999996
 30
0.0
 11
-268.32476
 21
-20.09204999999996
 31
0.0
  0
LINE
  5
F69
  8
OUTLINE
  6
CONTINUOUS
 62
     3
 10
-264.360607
 20
-26.119657
 30
0.0
 11
-256.2695449999998
 21
-26.119657
 31
0.0
  0
ARC
  5
F6A
  8
OUTLINE
  6
CONTINUOUS
 62
     3
 10
-268.32476
 20
-35.16106800000006
 30
0.0
 40
15.069018
 50
0.0
 51
37.09816699999998
  0
LINE
  5
F6B
  8
OUTLINE
  6
CONTINUOUS
 62
     3
 10
-264.6658639999998
 20
-26.07170100000001
 30
0.0
 11
-245.0118319999999
 21
-26.07170100000001
 31
0.0
  0
LINE
  5
F6C
  8
OUTLINE
  6
CONTINUOUS
 62
     3
 10
-222.6911019999999
 20
-201.444584
 30
0.0
 11
-222.6674749999999
 21
-26.07170100000001
 31
0.0
  0
LINE
  5
F6D
  8
OUTLINE
  6
CONTINUOUS
 62
     3
 10
-226.2592499999999
 20
-199.6954659999999
 30
0.0
 11
-226.2384839999999
 21
-26.07170100000001
 31
0.0
  0
LINE
  5
F6F
  8
OUTLINE
  6
CONTINUOUS
 62
     3
 10
-202.368701
 20
-26.07170100000001
 30
0.0
 11
-202.368701
 21
-20.05516
 31
0.0
  0
LINE
  5
F71
  8
OUTLINE
  6
CONTINUOUS
 62
     3
 10
-229.2130659999999
 20
-26.07170100000001
 30
0.0
 11
-209.5590329999999
 21
-26.07170100000001
 31
0.0
  0
ARC
  5
F72
  8
OUTLINE
  6
CONTINUOUS
 62
     3
 10
157.414592
 20
-186.0054759999999
 30
0.0
 40
70.322086
 50
269.9914249999999
 51
348.717951
  0
ARC
  5
F73
  8
OUTLINE
  6
CONTINUOUS
 62
     3
 10
154.217911
 20
-186.004998
 30
0.0
 40
70.322086
 50
269.9914249999999
 51
347.2613939999999
  0
ARC
  5
F74
  8
OUTLINE
  6
CONTINUOUS
 62
     3
 10
148.0064979999996
 20
-185.9662459999999
 30
0.0
 40
102.4693249999999
 50
269.9914249999999
 51
359.9914249999788
  0
LINE
  5
F75
  8
OUTLINE
  6
CONTINUOUS
 62
     3
 10
154.0430639999999
 20
-256.340853
 30
0.0
 11
95.106927
 21
-256.2889299999999
 31
0.0
  0
LINE
  5
F76
  8
OUTLINE
  6
CONTINUOUS
 62
     3
 10
95.31778428391613
 20
-294.5002839411767
 30
-0.0000000000000142
 11
95.31902198462019
 21
-288.4380547071493
 31
0.0
  0
ARC
  5
F77
  8
OUTLINE
  6
CONTINUOUS
 62
     3
 10
57.81778428391613
 20
-308.9903419411768
 30
-0.0000000000000142
 40
8.0
 50
270.0
 51
0.0
  0
LINE
  5
F78
  8
OUTLINE
  6
CONTINUOUS
 62
     3
 10
65.81778428391613
 20
-294.5002839411767
 30
-0.0000000000000142
 11
65.81778428391613
 21
-308.9903419411768
 31
-0.0000000000000142
  0
LINE
  5
F79
  8
OUTLINE
  6
CONTINUOUS
 62
     3
 10
65.81778428391613
 20
-294.5002839411767
 30
-0.0000000000000142
 11
95.31778428391613
 21
-294.5002839411767
 31
-0.0000000000000142
  0
LINE
  5
F7A
  8
OUTLINE
  6
CONTINUOUS
 62
     3
 10
61.78091528391599
 20
-301.9903419411768
 30
-0.0000000000000142
 11
65.81778428391613
 21
-294.5002839411767
 31
-0.0000000000000142
  0
ARC
  5
F7B
  8
OUTLINE
  6
CONTINUOUS
 62
     3
 10
90.29294770404137
 20
-256.2887951902148
 30
-0.0000000000001858
 40
5.0
 50
0.0
 51
89.99816258230163
  0
LINE
  5
F7C
  8
OUTLINE
  6
CONTINUOUS
 62
     3
 10
93.090035
 20
-288.435688
 30
0.0
 11
93.09772500000001
 21
-256.28845
 31
0.0
  0
LINE
  5
F7D
  8
OUTLINE
  6
CONTINUOUS
 62
     3
 10
272.19486
 20
-20.05516
 30
0.0
 11
202.7073669999999
 21
-20.05516
 31
0.0
  0
LINE
  5
F80
  8
OUTLINE
  6
CONTINUOUS
 62
     3
 10
202.7073669999999
 20
-26.07170100000001
 30
0.0
 11
202.7073669999999
 21
-20.05516
 31
0.0
  0
LINE
  5
F82
  8
OUTLINE
  6
CONTINUOUS
 62
     3
 10
253.594407
 20
-35.16106800000006
 30
0.0
 11
253.594407
 21
-44.60431999999998
 31
0.0
  0
LINE
  5
F83
  8
OUTLINE
  6
CONTINUOUS
 62
     3
 10
253.5958159999999
 20
-35.19160700000004
 30
0.0
 11
253.5921579999999
 21
-59.63485800000002
 31
0.0
  0
LINE
  5
F84
  8
OUTLINE
  6
CONTINUOUS
 62
     3
 10
250.4758219999996
 20
-185.981582
 30
0.0
 11
250.6646009999999
 21
-26.14975699999996
 31
0.0
  0
LINE
  5
F85
  8
OUTLINE
  6
CONTINUOUS
 62
     3
 10
293.0992839999996
 20
-94.974515
 30
0.0
 11
250.4849679999999
 21
-94.96813700000003
 31
0.0
  0
LINE
  5
F86
  8
OUTLINE
  6
CONTINUOUS
 62
     3
 10
250.4858059999999
 20
-89.37059
 30
0.0
 11
293.100122
 21
-89.37696799999999
 31
0.0
  0
ARC
  5
F87
  8
OUTLINE
  6
CONTINUOUS
 62
     3
 10
293.3127829999999
 20
-92.17577300000005
 30
0.0
 40
2.806872999999999
 50
265.6376980000003
 51
94.34515099999999
  0
ARC
  5
F88
  8
OUTLINE
  6
CONTINUOUS
 62
     3
 10
294.8004599999998
 20
-14.06872399999998
 30
0.0
 40
4.083815999999997
 50
91.01971299999973
 51
179.5776340000004
  0
ARC
  5
F89
  8
OUTLINE
  6
CONTINUOUS
 62
     3
 10
293.5017189999998
 20
-14.03861999999992
 30
0.0
 40
4.011026999999999
 50
90.0
 51
180.0
  0
ARC
  5
F8A
  8
OUTLINE
  6
CONTINUOUS
 62
     3
 10
286.7057279999998
 20
-16.044133
 30
0.0
 40
4.011026999999999
 50
270.0
 51
0.0
  0
LINE
  5
F8B
  8
OUTLINE
  6
CONTINUOUS
 62
     3
 10
273.3244589999998
 20
-20.103117
 30
0.0
 11
273.3244589999998
 21
-26.119657
 31
0.0
  0
LINE
  5
F8C
  8
OUTLINE
  6
CONTINUOUS
 62
     3
 10
289.4906919999999
 20
-14.03861999999992
 30
0.0
 11
289.4906919999999
 21
-16.044133
 31
0.0
  0
LINE
  5
F8D
  8
OUTLINE
  6
CONTINUOUS
 62
     3
 10
287.6503889999999
 20
-20.09204999999996
 30
0.0
 11
268.663426
 21
-20.09204999999996
 31
0.0
  0
ARC
  5
F8F
  8
OUTLINE
  6
CONTINUOUS
 62
     3
 10
268.663426
 20
-35.16106800000006
 30
0.0
 40
15.069018
 50
142.901833
 51
180.0
  0
ARC
  5
F91
  8
OUTLINE
  6
CONTINUOUS
 62
     3
 10
285.479665
 20
-16.044133
 30
0.0
 40
4.011026999999999
 50
270.0000009999999
 51
0.0
  0
ARC
  5
F92
  8
OUTLINE
  6
CONTINUOUS
 62
     3
 10
303.052442
 20
-6.106526999999925
 30
0.0
 40
3.880569999999999
 50
268.4930029999995
 51
335.3655199999998
  0
LINE
  5
F93
  8
OUTLINE
  6
CONTINUOUS
 62
     3
 10
309.9173
 20
-2.971230000000004
 30
0.0
 11
308.766589
 21
-6.793460999999993
 31
0.0
  0
LINE
  5
F94
  8
OUTLINE
  6
CONTINUOUS
 62
     3
 10
309.9173
 20
-2.971230000000004
 30
0.0
 11
308.766589
 21
-6.793460999999993
 31
0.0
  0
ARC
  5
F95
  8
OUTLINE
  6
CONTINUOUS
 62
     3
 10
307.518346
 20
-6.417667999999947
 30
0.0
 40
1.303584
 50
270.0
 51
343.2451950000003
  0
LINE
  5
F96
  8
OUTLINE
  6
CONTINUOUS
 62
     3
 10
290.7167549999998
 20
-16.044133
 30
0.0
 11
290.7167549999998
 21
-14.03861999999992
 31
0.0
  0
ARC
  5
F97
  8
OUTLINE
  6
CONTINUOUS
 62
     3
 10
307.7088699999998
 20
-2.306365999999922
 30
0.0
 40
2.306341
 50
343.245195
 51
90.0
  0
ARC
  5
F98
  8
OUTLINE
  6
CONTINUOUS
 62
     3
 10
288.7532038593412
 20
-59.64750836421479
 30
0.0
 40
35.16104813503751
 50
179.9793859246789
 51
237.7174059279231
  0
LINE
  5
F9B
  8
DETAIL
  6
CONTINUOUS
 62
     5
 10
222.8091025178104
 20
-201.5186540748322
 30
0.0
 11
222.8091025178104
 21
-34.10114099999999
 31
0.0
  0
LINE
  5
F9C
  8
DETAIL
  6
CONTINUOUS
 62
     5
 10
226.3777740902105
 20
-199.7706038378422
 30
0.0
 11
226.3777740902105
 21
-34.10114099999999
 31
0.0
  0
LINE
  5
F9D
  8
OUTLINE
  6
CONTINUOUS
 62
     3
 10
202.707367
 20
-26.07909299999999
 30
0.0
 11
273.3244589999998
 21
-26.12704899999997
 31
0.0
  0
LINE
  5
F9E
  8
OUTLINE
  6
CONTINUOUS
 62
     3
 10
222.8091025178104
 20
-201.5186540748322
 30
0.0
 11
222.8091025178104
 21
-26.07909299999999
 31
0.0
  0
LINE
  5
F9F
  8
OUTLINE
  6
CONTINUOUS
 62
     3
 10
226.3777740902105
 20
-199.7706038378422
 30
0.0
 11
226.3777740902105
 21
-26.07909299999999
 31
0.0
  0
LINE
  5
FA0
  8
OUTLINE
  6
CONTINUOUS
 62
     3
 10
-202.368701
 20
-20.06255199999999
 30
0.0
 11
202.7075216755389
 21
-20.07298394228441
 31
0.0
  0
LINE
  5
FA1
  8
OUTLINE
  6
CONTINUOUS
 62
     3
 10
302.9503867849791
 20
-9.993146791453732
 30
0.0
 11
-302.6117209999999
 21
-9.993146999999992
 31
0.0
  0
LINE
  5
FA2
  8
OUTLINE
  6
CONTINUOUS
 62
     3
 10
-222.6760681446213
 20
-94.96667313133389
 30
0.0
 11
222.8091025178104
 21
-95.03334869216609
 31
0.0
  0
LINE
  5
FA3
  8
OUTLINE
  6
CONTINUOUS
 62
     3
 10
222.8091025178104
 20
-89.37383963925133
 30
0.0
 11
-222.6752694074109
 21
-89.30919062746972
 31
0.0
  0
ENDSEC
  0
EOF
