  0
SECTION
  2
HEADER
  9
$ACADVER
  1
AC1009
  9
$DWGCODEPAGE
  3
ansi_932
  9
$INSBASE
 10
0.0
 20
0.0
 30
0.0
  9
$EXTMIN
 10
-642.864175
 20
-293.0466237108751
 30
-100.110011
  9
$EXTMAX
 10
1043.095713163923
 20
895.245290990729
 30
50.0
  9
$LIMMIN
 10
-2970.0
 20
-2100.0
  9
$LIMMAX
 10
2970.0
 20
2100.0
  9
$ORTHOMODE
 70
     1
  9
$REGENMODE
 70
     1
  9
$FILLMODE
 70
     1
  9
$QTEXTMODE
 70
     0
  9
$MIRRTEXT
 70
     0
  9
$DRAGMODE
 70
     2
  9
$LTSCALE
 40
20.0
  9
$OSMODE
 70
    37
  9
$ATTMODE
 70
     1
  9
$TEXTSIZE
 40
64.0
  9
$TRACEWID
 40
0.05
  9
$TEXTSTYLE
  7
STANDARD
  9
$CLAYER
  8
OUTLINE
  9
$CELTYPE
  6
CONTINUOUS
  9
$CECOLOR
 62
     3
  9
$DIMSCALE
 40
1.0
  9
$DIMASZ
 40
2.0
  9
$DIMEXO
 40
20.0
  9
$DIMDLI
 40
200.0
  9
$DIMRND
 40
0.0
  9
$DIMDLE
 40
0.0
  9
$DIMEXE
 40
30.0
  9
$DIMTP
 40
0.1
  9
$DIMTM
 40
0.1
  9
$DIMTXT
 40
64.0
  9
$DIMCEN
 40
0.09
  9
$DIMTSZ
 40
0.0
  9
$DIMTOL
 70
     0
  9
$DIMLIM
 70
     0
  9
$DIMTIH
 70
     0
  9
$DIMTOH
 70
     0
  9
$DIMSE1
 70
     0
  9
$DIMSE2
 70
     0
  9
$DIMTAD
 70
     1
  9
$DIMZIN
 70
     8
  9
$DIMBLK
  1
DOT1
  9
$DIMASO
 70
     1
  9
$DIMSHO
 70
     0
  9
$DIMPOST
  1
<>
  9
$DIMAPOST
  1
"
  9
$DIMALT
 70
     0
  9
$DIMALTD
 70
     2
  9
$DIMALTF
 40
0.03937
  9
$DIMLFAC
 40
1.0
  9
$DIMTOFL
 70
     1
  9
$DIMTVP
 40
0.0
  9
$DIMTIX
 70
     0
  9
$DIMSOXD
 70
     0
  9
$DIMSAH
 70
     1
  9
$DIMBLK1
  1

  9
$DIMBLK2
  1

  9
$DIMSTYLE
  2
GEN-ISO
  9
$DIMCLRD
 70
     7
  9
$DIMCLRE
 70
     7
  9
$DIMCLRT
 70
     7
  9
$DIMTFAC
 40
1.0
  9
$DIMGAP
 40
25.0
  9
$LUNITS
 70
     2
  9
$LUPREC
 70
     4
  9
$SKETCHINC
 40
0.1
  9
$FILLETRAD
 40
5.0
  9
$AUNITS
 70
     1
  9
$AUPREC
 70
     3
  9
$MENU
  1
ACAD
  9
$ELEVATION
 40
0.0
  9
$PELEVATION
 40
0.0
  9
$THICKNESS
 40
0.0
  9
$LIMCHECK
 70
     0
  9
$CHAMFERA
 40
0.0
  9
$CHAMFERB
 40
0.0
  9
$SKPOLY
 70
     0
  9
$TDCREATE
 40
2451372.547453704
  9
$TDUPDATE
 40
2457485.55566331
  9
$TDINDWG
 40
0.7901423727
  9
$TDUSRTIMER
 40
0.7901421875
  9
$USRTIMER
 70
     1
  9
$ANGBASE
 50
0.0
  9
$ANGDIR
 70
     0
  9
$PDMODE
 70
     3
  9
$PDSIZE
 40
-2.0
  9
$PLINEWID
 40
0.0
  9
$COORDS
 70
     1
  9
$SPLFRAME
 70
     0
  9
$SPLINETYPE
 70
     6
  9
$SPLINESEGS
 70
     8
  9
$ATTDIA
 70
     0
  9
$ATTREQ
 70
     1
  9
$HANDLING
 70
     1
  9
$HANDSEED
  5
1234
  9
$SURFTAB1
 70
     6
  9
$SURFTAB2
 70
     6
  9
$SURFTYPE
 70
     6
  9
$SURFU
 70
     6
  9
$SURFV
 70
     6
  9
$UCSNAME
  2
W_UCS
  9
$UCSORG
 10
0.0
 20
22.95302428912481
 30
0.0
  9
$UCSXDIR
 10
1.0
 20
0.0
 30
0.0
  9
$UCSYDIR
 10
0.0
 20
1.0
 30
0.0
  9
$PUCSNAME
  2

  9
$PUCSORG
 10
0.0
 20
0.0
 30
0.0
  9
$PUCSXDIR
 10
1.0
 20
0.0
 30
0.0
  9
$PUCSYDIR
 10
0.0
 20
1.0
 30
0.0
  9
$USERI1
 70
     0
  9
$USERI2
 70
     0
  9
$USERI3
 70
     0
  9
$USERI4
 70
     0
  9
$USERI5
 70
     0
  9
$USERR1
 40
20.0
  9
$USERR2
 40
0.0
  9
$USERR3
 40
0.0
  9
$USERR4
 40
0.0
  9
$USERR5
 40
0.0
  9
$WORLDVIEW
 70
     1
  9
$SHADEDGE
 70
     3
  9
$SHADEDIF
 70
    70
  9
$TILEMODE
 70
     1
  9
$MAXACTVP
 70
    48
  9
$PLIMCHECK
 70
     0
  9
$PEXTMIN
 10
-1.000000000000000E+20
 20
-1.000000000000000E+20
 30
-1.000000000000000E+20
  9
$PEXTMAX
 10
1.000000000000000E+20
 20
1.000000000000000E+20
 30
1.000000000000000E+20
  9
$PLIMMIN
 10
0.0
 20
0.0
  9
$PLIMMAX
 10
12.0
 20
9.0
  9
$UNITMODE
 70
     0
  9
$VISRETAIN
 70
     0
  9
$PLINEGEN
 70
     0
  9
$PSLTSCALE
 70
     0
  0
ENDSEC
  0
SECTION
  2
TABLES
  0
TABLE
  2
VPORT
 70
     1
  0
VPORT
  2
*ACTIVE
 70
     0
 10
0.0
 20
0.0
 11
1.0
 21
1.0
 12
491.5671185597598
 22
174.0485609187261
 13
0.0
 23
0.0
 14
50.0
 24
50.0
 15
400.0
 25
400.0
 16
0.0
 26
0.0
 36
1.0
 17
0.0
 27
0.0
 37
0.0
 40
1734.763953969972
 41
1.512690355329949
 42
50.0
 43
0.0
 44
0.0
 50
0.0
 51
0.0
 71
     0
 72
   500
 73
     1
 74
     0
 75
     1
 76
     0
 77
     0
 78
     0
  0
ENDTAB
  0
TABLE
  2
LTYPE
 70
     3
  0
LTYPE
  2
CONTINUOUS
 70
     0
  3
実線
 72
    65
 73
     0
 40
0.0
  0
LTYPE
  2
DASHDOT
 70
     0
  3
____ _ ____ _ ____ _ ____ _ ____ _ ____ _ ____
 72
    65
 73
     4
 40
5.5
 49
4.0
 49
-0.6
 49
0.3
 49
-0.6
  0
LTYPE
  2
DASHED
 70
     0
  3
-- -- -- -- -- -- -- -- -- -- -- -- -- -- --
 72
    65
 73
     2
 40
0.75
 49
0.5
 49
-0.25
  0
ENDTAB
  0
TABLE
  2
LAYER
 70
    12
  0
LAYER
  2
0
 70
     0
 62
     7
  6
CONTINUOUS
  0
LAYER
  2
OUTLINE
 70
     0
 62
     3
  6
CONTINUOUS
  0
LAYER
  2
ETC
 70
     0
 62
    61
  6
CONTINUOUS
  0
LAYER
  2
DETAIL
 70
     0
 62
     5
  6
CONTINUOUS
  0
LAYER
  2
BASIS
 70
     0
 62
     6
  6
DASHDOT
  0
LAYER
  2
NOTE
 70
     0
 62
     4
  6
CONTINUOUS
  0
LAYER
  2
DEFPOINTS
 70
     0
 62
     7
  6
CONTINUOUS
  0
LAYER
  2
SIZE
 70
     0
 62
    30
  6
CONTINUOUS
  0
LAYER
  2
ARRANGE
 70
     0
 62
     1
  6
CONTINUOUS
  0
LAYER
  2
FIX
 70
     0
 62
    11
  6
CONTINUOUS
  0
LAYER
  2
SERVICESPACE
 70
     0
 62
     2
  6
DASHDOT
  0
LAYER
  2
SYMBOLLINE
 70
     0
 62
    15
  6
CONTINUOUS
  0
ENDTAB
  0
TABLE
  2
STYLE
 70
     2
  0
STYLE
  2
STANDARD
 70
     0
 40
0.0
 41
0.9
 50
0.0
 71
     0
 42
64.0
  3
SIMPLEX
  4
BIGFONT
  0
STYLE
  2
ANNOTATIVE
 70
     0
 40
0.0
 41
1.0
 50
0.0
 71
     0
 42
0.2
  3
txt
  4

  0
STYLE
  2

 70
     1
 40
0.0
 41
1.0
 50
0.0
 71
     0
 42
64.0
  3
ltypeshp.shx
  4

  0
ENDTAB
  0
TABLE
  2
VIEW
 70
     1
  0
VIEW
  2
ALL
 70
     0
 40
4282.619807999997
 10
0.0
 20
41.30990399999999
 41
5940.0
 11
0.0
 21
0.0
 31
1.0
 12
0.0
 22
0.0
 32
0.0
 42
50.0
 43
0.0
 44
0.0
 50
0.0
 71
     0
  0
ENDTAB
  0
TABLE
  2
UCS
 70
     1
  0
UCS
  2
W_UCS
 70
     0
 10
0.0
 20
0.0
 30
0.0
 11
1.0
 21
0.0
 31
0.0
 12
0.0
 22
1.0
 32
0.0
  0
ENDTAB
  0
TABLE
  2
APPID
 70
    16
  0
APPID
  2
ACAD
 70
     0
  0
APPID
  2
ACADANNOTATIVE
 70
     0
  0
APPID
  2
ACAD_MLEADERVER
 70
     0
  0
APPID
  2
CONTENTBLOCKDESCRIPTION
 70
     0
  0
APPID
  2
CONTENTBLOCKICON
 70
     0
  0
APPID
  2
GENIUS_GENCFG_13
 70
     0
  0
APPID
  2
GENIUS_GENCFG0_13
 70
     0
  0
APPID
  2
GENIUS_GENCFG1_13
 70
     0
  0
APPID
  2
GENIUS_GENCFG2_13
 70
     0
  0
APPID
  2
GENIUS_GENCFG3_13
 70
     0
  0
APPID
  2
GENIUS_GENCFG4_13
 70
     0
  0
APPID
  2
GENIUS_GEVCFG0_13
 70
     0
  0
APPID
  2
GENIUS_GENOENT_13
 70
     0
  0
APPID
  2
GENIUS_GEFCFG0_13
 70
     0
  0
APPID
  2
ACAD_EXEMPT_FROM_CAD_STAND
 70
     0
  0
APPID
  2
ACAD_PSEXT
 70
     0
  0
ENDTAB
  0
TABLE
  2
DIMSTYLE
 70
     3
  0
DIMSTYLE
  2
STANDARD
 70
     0
  3

  4

  5

  6

  7

 40
1.0
 41
0.18
 42
0.0625
 43
0.38
 44
0.18
 45
0.0
 46
0.0
 47
0.0
 48
0.0
140
0.18
141
0.09
142
0.0
143
25.4
144
1.0
145
0.0
146
1.0
147
0.09
 71
     0
 72
     0
 73
     1
 74
     1
 75
     0
 76
     0
 77
     0
 78
     0
170
     0
171
     2
172
     0
173
     0
174
     0
175
     0
176
     0
177
     0
178
     0
  0
DIMSTYLE
  2
ANNOTATIVE
 70
     0
  3

  4

  5

  6

  7

 40
1.0
 41
0.18
 42
0.0625
 43
0.38
 44
0.18
 45
0.0
 46
0.0
 47
0.0
 48
0.0
140
0.18
141
0.09
142
0.0
143
25.4
144
1.0
145
0.0
146
1.0
147
0.09
 71
     0
 72
     0
 73
     1
 74
     1
 75
     0
 76
     0
 77
     0
 78
     0
170
     0
171
     2
172
     0
173
     0
174
     0
175
     0
176
     0
177
     0
178
     0
  0
DIMSTYLE
  2
GEN-ISO
 70
     0
  3

  4
"
  5

  6

  7

 40
1.0
 41
2.0
 42
20.0
 43
200.0
 44
30.0
 45
0.0
 46
0.0
 47
0.1
 48
0.1
140
64.0
141
0.09
142
0.0
143
0.03937
144
1.0
145
0.0
146
1.0
147
25.0
 71
     0
 72
     0
 73
     0
 74
     0
 75
     0
 76
     0
 77
     1
 78
     8
170
     0
171
     2
172
     1
173
     1
174
     0
175
     0
176
     7
177
     7
178
     7
  0
ENDTAB
  0
ENDSEC
  0
SECTION
  2
BLOCKS
  0
BLOCK
  8
0
  2
$MODEL_SPACE
 70
     0
 10
0.0
 20
0.0
 30
0.0
  3
$MODEL_SPACE
  1

  0
ENDBLK
  5
F73
  8
0
  0
BLOCK
 67
     1
  8
0
  2
$PAPER_SPACE
 70
     0
 10
0.0
 20
0.0
 30
0.0
  3
$PAPER_SPACE
  1

  0
ENDBLK
  5
F6F
 67
     1
  8
0
  0
BLOCK
  8
0
  2
DOT1
 70
     0
 10
0.0
 20
0.0
 30
0.0
  3
DOT1
  1

  0
CIRCLE
  5
FA4
  8
SIZE
  6
CONTINUOUS
 62
     7
 10
0.0
 20
0.0
 30
0.0
 40
3.0
  0
ENDBLK
  5
FA5
  8
0
  0
ENDSEC
  0
SECTION
  2
ENTITIES
  0
LINE
  5
FA6
  8
DETAIL
  6
CONTINUOUS
 62
     5
 10
26.07909300000005
 20
-272.19486
 30
0.0
 11
26.07909300000005
 21
-202.7073669999999
 31
0.0
  0
LINE
  5
FA7
  8
DETAIL
  6
CONTINUOUS
 62
     5
 10
20.06255199999998
 20
-272.19486
 30
0.0
 11
20.06255199999998
 21
-202.7073669999999
 31
0.0
  0
ARC
  5
FA8
  8
DETAIL
  6
CONTINUOUS
 62
     5
 10
186.0128689999999
 20
-157.4145919999997
 30
0.0
 40
70.322086
 50
281.282049
 51
0.0085750000637014
  0
ARC
  5
FA9
  8
DETAIL
  6
CONTINUOUS
 62
     5
 10
185.9736379999999
 20
-148.0064989999997
 30
0.0
 40
102.4693249999999
 50
270.0085749999999
 51
0.0085750000211982
  0
LINE
  5
FAA
  8
DETAIL
  6
CONTINUOUS
 62
     5
 10
9.99314800000002
 20
-302.9503869999997
 30
0.0
 11
9.985754999999926
 21
-0.16783299999992
 31
0.0
  0
LINE
  5
FAB
  8
DETAIL
  6
CONTINUOUS
 62
     5
 10
20.06255199999998
 20
-286.705728
 30
0.0
 11
20.05516
 21
-0.166331999999958
 31
0.0
  0
LINE
  5
FAC
  8
DETAIL
  6
CONTINUOUS
 62
     5
 10
0.007417999999916
 20
-307.7088699999998
 30
0.0
 11
0.0000249999999369
 21
-0.1693329999999982
 31
0.0
  0
LINE
  5
FAD
  8
DETAIL
  6
CONTINUOUS
 62
     5
 10
7.728644999999914
 20
-307.5183469999998
 30
0.0
 11
7.721251999999935
 21
-0.1681780000000686
 31
0.0
  0
LINE
  5
FAE
  8
SIZE
  6
CONTINUOUS
 62
    30
 10
0.007417999999916
 20
327.3702039999996
 30
0.0
 11
0.007417999999916
 21
728.9033919999997
 31
0.0
  0
LINE
  5
FAF
  8
SIZE
  6
CONTINUOUS
 62
    30
 10
317.0113192342423
 20
65.54035400000004
 30
0.0
 11
317.004451
 21
728.9033919999997
 31
0.0
  0
LINE
  5
FB0
  8
SIZE
  6
CONTINUOUS
 62
    30
 10
2.007417999999915
 20
698.9033920000003
 30
0.0
 11
315.004451
 21
698.9033920000003
 31
0.0
  0
CIRCLE
  5
FB1
  8
SIZE
  6
CONTINUOUS
 62
    30
 10
0.007417999999916
 20
698.9033920000003
 30
0.0
 40
6.0
  0
CIRCLE
  5
FB2
  8
SIZE
  6
CONTINUOUS
 62
    30
 10
317.004451
 20
698.9033920000003
 30
0.0
 40
6.0
  0
TEXT
  5
FB3
  8
SIZE
  6
CONTINUOUS
 62
    30
 10
82.96353399999991
 20
723.9033919999998
 30
0.0
 40
64.0
  1
317
 41
0.9
 72
     1
 11
158.5059339999999
 21
723.9033919999998
 31
0.0
  0
LINE
  5
FB4
  8
DETAIL
  6
CONTINUOUS
 62
     5
 10
35.16846099999998
 20
-253.5944079999998
 30
0.0
 11
44.61171200000001
 21
-253.5944079999998
 31
0.0
  0
LINE
  5
FB5
  8
DETAIL
  6
CONTINUOUS
 62
     5
 10
35.19899899999995
 20
-253.5958159999999
 30
0.0
 11
59.64224999999998
 21
-253.592158
 31
0.0
  0
LINE
  5
FB6
  8
DETAIL
  6
CONTINUOUS
 62
     5
 10
185.9889749999999
 20
-250.4758229999997
 30
0.0
 11
26.157149
 21
-250.6646019999997
 31
0.0
  0
ARC
  5
FB7
  8
DETAIL
  6
CONTINUOUS
 62
     5
 10
59.64757799999995
 20
-289.1866279999998
 30
0.0
 40
35.763804
 50
33.759497
 51
90.00857499999996
  0
LINE
  5
FB8
  8
DETAIL
  6
CONTINUOUS
 62
     5
 10
89.37798199999997
 20
-250.485806
 30
0.0
 11
89.38436000000002
 21
-293.1001219999997
 31
0.0
  0
LINE
  5
FB9
  8
DETAIL
  6
CONTINUOUS
 62
     5
 10
94.98190799999998
 20
-293.099284
 30
0.0
 11
94.97553000000005
 21
-250.4849679999999
 31
0.0
  0
ARC
  5
FBA
  8
DETAIL
  6
CONTINUOUS
 62
     5
 10
92.18316599999991
 20
-293.312783
 30
0.0
 40
2.806872999999999
 50
175.654849
 51
4.362301999999721
  0
LINE
  5
FBB
  8
NOTE
  6
CONTINUOUS
 62
     4
 10
0.0
 20
-259.9999999999999
 30
0.0
 11
0.0
 21
-299.9999999999999
 31
0.0
  0
LINE
  5
FBC
  8
NOTE
  6
CONTINUOUS
 62
     4
 10
-20.0
 20
-279.9999999999999
 30
0.0
 11
20.0
 21
-279.9999999999999
 31
0.0
  0
LINE
  5
FBD
  8
DETAIL
  6
CONTINUOUS
 62
     5
 10
20.09944199999995
 20
-287.6503889999998
 30
0.0
 11
20.09944199999995
 21
-268.6634259999999
 31
0.0
  0
ARC
  5
FBE
  8
DETAIL
  6
CONTINUOUS
 62
     5
 10
6.113919000000009
 20
-303.0524419999998
 30
0.0
 40
3.880569999999999
 50
294.6344799999999
 51
1.506996999999859
  0
ARC
  5
FBF
  8
DETAIL
  6
CONTINUOUS
 62
     5
 10
14.04601200000001
 20
-293.5017189999998
 30
0.0
 40
4.011026999999999
 50
90.0
 51
180.0
  0
ARC
  5
FC0
  8
DETAIL
  6
CONTINUOUS
 62
     5
 10
14.07611599999995
 20
-294.8004599999998
 30
0.0
 40
4.083815999999997
 50
90.422366
 51
178.9802870000001
  0
LINE
  5
FC1
  8
DETAIL
  6
CONTINUOUS
 62
     5
 10
16.05152499999997
 20
-290.7167549999998
 30
0.0
 11
14.04601200000001
 21
-290.7167549999998
 31
0.0
  0
LINE
  5
FC2
  8
DETAIL
  6
CONTINUOUS
 62
     5
 10
20.11050899999998
 20
-273.3244589999998
 30
0.0
 11
26.12705000000005
 21
-273.3244589999998
 31
0.0
  0
LINE
  5
FC3
  8
DETAIL
  6
CONTINUOUS
 62
     5
 10
14.04601200000001
 20
-289.490692
 30
0.0
 11
16.05152499999997
 21
-289.490692
 31
0.0
  0
ARC
  5
FC4
  8
DETAIL
  6
CONTINUOUS
 62
     5
 10
16.05152499999997
 20
-286.705728
 30
0.0
 40
4.011026999999999
 50
270.0
 51
0.0
  0
ARC
  5
FC5
  8
DETAIL
  6
CONTINUOUS
 62
     5
 10
16.05152499999997
 20
-285.4796649999997
 30
0.0
 40
4.011026999999999
 50
270.0
 51
0.0
  0
ARC
  5
FC6
  8
DETAIL
  6
CONTINUOUS
 62
     5
 10
6.425061000000027
 20
-307.5183469999998
 30
0.0
 40
1.303584
 50
286.7548049999997
 51
0.0
  0
LINE
  5
FC7
  8
DETAIL
  6
CONTINUOUS
 62
     5
 10
2.978621999999973
 20
-309.9172999999997
 30
0.0
 11
6.80085299999996
 21
-308.7665900000001
 31
0.0
  0
LINE
  5
FC8
  8
DETAIL
  6
CONTINUOUS
 62
     5
 10
2.978621999999973
 20
-309.9172999999997
 30
0.0
 11
6.80085299999996
 21
-308.7665900000001
 31
0.0
  0
ARC
  5
FC9
  8
DETAIL
  6
CONTINUOUS
 62
     5
 10
2.313758000000007
 20
-307.7088699999998
 30
0.0
 40
2.306341
 50
180.0
 51
286.7548049999999
  0
ARC
  5
FCA
  8
DETAIL
  6
CONTINUOUS
 62
     5
 10
35.16846099999998
 20
-268.6634259999999
 30
0.0
 40
15.069018
 50
90.0
 51
127.0981669999998
  0
LINE
  5
FCB
  8
DETAIL
  6
CONTINUOUS
 62
     5
 10
33.198665
 20
-265.0045309999997
 30
0.0
 11
26.07909300000005
 21
-265.0045309999997
 31
0.0
  0
LINE
  5
FCC
  8
DETAIL
  6
CONTINUOUS
 62
     5
 10
26.07909400000005
 20
-260.0910209999998
 30
0.0
 11
33.198665
 21
-260.0910209999998
 31
0.0
  0
ARC
  5
FCD
  8
DETAIL
  6
CONTINUOUS
 62
     5
 10
30.30595900000003
 20
-262.547774
 30
0.0
 40
3.795179
 50
0.0000180103747982
 51
40.34097599999988
  0
LINE
  5
FCE
  8
DETAIL
  6
CONTINUOUS
 62
     5
 10
34.10115300000006
 20
-263.4502609999998
 30
0.0
 11
33.19867199999999
 21
-265.0045349999999
 31
0.0
  0
LINE
  5
FCF
  8
DETAIL
  6
CONTINUOUS
 62
     5
 10
34.10114099999998
 20
-263.4502669999998
 30
0.0
 11
34.10114099999998
 21
-253.6322539999998
 31
0.0
  0
ARC
  5
FD0
  8
DETAIL
  6
CONTINUOUS
 62
     5
 10
20.814028
 20
-255.3064909999997
 30
0.0
 40
13.276704
 50
338.87713
 51
7.206930999999976
  0
LINE
  5
FD1
  8
DETAIL
  6
CONTINUOUS
 62
     5
 10
26.12705000000005
 20
-264.6992739999995
 30
0.0
 11
26.12705000000005
 21
-256.6082109999999
 31
0.0
  0
LINE
  5
FD2
  8
DETAIL
  6
CONTINUOUS
 62
     5
 10
26.07909300000005
 20
-265.0045309999997
 30
0.0
 11
26.07909300000005
 21
-245.3504979999999
 31
0.0
  0
LINE
  5
FD3
  8
BASIS
  6
DASHDOT
 62
     6
 39
100.110011
 10
343.7620676340675
 20
-0.6687459999999987
 30
-100.110011
 11
-72.32186467628162
 21
-0.7158479999999976
 31
-100.110011
  0
LINE
  5
FD4
  8
NOTE
  6
CONTINUOUS
 62
     4
 39
50.0
 10
-368.1548789999999
 20
389.3971619999999
 30
0.0
 11
-0.000020999999947
 21
279.807116
 31
0.0
  0
LINE
  5
FD5
  8
NOTE
  6
CONTINUOUS
 62
     4
 39
50.0
 10
-368.1548789999999
 20
389.3971619999999
 30
0.0
 11
-642.864175
 21
389.3971619999999
 31
0.0
  0
ARC
  5
FD6
  8
DETAIL
  6
CONTINUOUS
 62
     5
 10
185.9293519999998
 20
147.883848
 30
0.0
 40
102.4693249999999
 50
0.0085750000211982
 51
90.00857499999996
  0
LINE
  5
FD7
  8
SIZE
  6
CONTINUOUS
 62
    30
 10
319.64237
 20
-65.46077899999995
 30
0.0
 11
483.837462
 21
-65.46077899999995
 31
0.0
  0
LINE
  5
FD8
  8
SIZE
  6
CONTINUOUS
 62
    30
 10
319.6168989999998
 20
65.54035400000004
 30
0.0
 11
483.837462
 21
65.54035400000004
 31
0.0
  0
LINE
  5
FD9
  8
SIZE
  6
CONTINUOUS
 62
    30
 10
453.8374619999998
 20
-63.46077899999995
 30
0.0
 11
453.8374619999998
 21
63.54035400000002
 31
0.0
  0
LINE
  5
FDA
  8
SIZE
  6
CONTINUOUS
 62
    30
 10
453.8374619999998
 20
65.54035400000004
 30
0.0
 11
453.8374619999998
 21
282.1117819999999
 31
0.0
  0
CIRCLE
  5
FDB
  8
SIZE
  6
CONTINUOUS
 62
    30
 10
453.8374619999998
 20
-65.46077899999995
 30
0.0
 40
6.0
  0
CIRCLE
  5
FDC
  8
SIZE
  6
CONTINUOUS
 62
    30
 10
453.8374619999998
 20
65.54035400000004
 30
0.0
 40
6.0
  0
TEXT
  5
FDD
  8
SIZE
  6
CONTINUOUS
 62
    30
 10
428.8374619999998
 20
80.30446799999999
 30
0.0
 40
64.0
  1
φ131
 50
90.0
 41
0.9
 72
     1
 11
428.8374619999998
 21
174.826068
 31
0.0
  0
LINE
  5
FDE
  8
DETAIL
  6
CONTINUOUS
 62
     5
 10
288.456176
 20
-147.8239649999999
 30
0.0
 11
288.443561
 21
-95.09923799999996
 31
0.0
  0
LINE
  5
FDF
  8
DETAIL
  6
CONTINUOUS
 62
     5
 10
288.3986759999999
 20
147.8991839999998
 30
0.0
 11
288.4216936406425
 21
-95.67225778803179
 31
0.0
  0
LINE
  5
FE0
  8
SIZE
  6
CONTINUOUS
 62
    30
 10
10.00066700000002
 20
313.9502439999999
 30
0.0
 11
10.00066700000002
 21
442.5786570000001
 31
0.0
  0
LINE
  5
FE1
  8
SIZE
  6
CONTINUOUS
 62
    30
 10
20.0
 20
300.0
 30
0.0
 11
20.0
 21
442.5786570000001
 31
0.0
  0
LINE
  5
FE2
  8
SIZE
  6
CONTINUOUS
 62
    30
 10
8.000667000000021
 20
412.5786569999998
 30
0.0
 11
6.000667000000021
 21
412.5786569999998
 31
0.0
  0
LINE
  5
FE3
  8
SIZE
  6
CONTINUOUS
 62
    30
 10
22.0
 20
412.5786569999998
 30
0.0
 11
156.285714
 21
412.5786569999998
 31
0.0
  0
LINE
  5
FE4
  8
SIZE
  6
CONTINUOUS
 62
    30
 10
10.00066700000002
 20
412.5786569999998
 30
0.0
 11
20.0
 21
412.5786569999998
 31
0.0
  0
CIRCLE
  5
FE5
  8
SIZE
  6
CONTINUOUS
 62
    30
 10
10.00066700000002
 20
412.5786569999998
 30
0.0
 40
6.0
  0
CIRCLE
  5
FE6
  8
SIZE
  6
CONTINUOUS
 62
    30
 10
20.0
 20
412.5786569999998
 30
0.0
 40
6.0
  0
TEXT
  5
FE7
  8
SIZE
  6
CONTINUOUS
 62
    30
 10
41.58605700000005
 20
437.578657
 30
0.0
 40
64.0
  1
10
 41
0.9
 72
     1
 11
90.14285700000005
 21
437.578657
 31
0.0
  0
LINE
  5
FE8
  8
SIZE
  6
CONTINUOUS
 62
    30
 10
0.0
 20
320.0
 30
0.0
 11
0.0
 21
616.901921
 31
0.0
  0
LINE
  5
FE9
  8
SIZE
  6
CONTINUOUS
 62
    30
 10
95.0
 20
311.6512119999997
 30
0.0
 11
95.0
 21
616.901921
 31
0.0
  0
LINE
  5
FEA
  8
SIZE
  6
CONTINUOUS
 62
    30
 10
93.0
 20
586.901921
 30
0.0
 11
2.0
 21
586.901921
 31
0.0
  0
LINE
  5
FEB
  8
SIZE
  6
CONTINUOUS
 62
    30
 10
0.0
 20
586.901921
 30
0.0
 11
-212.4497249999998
 21
586.901921
 31
0.0
  0
CIRCLE
  5
FEC
  8
SIZE
  6
CONTINUOUS
 62
    30
 10
95.0
 20
586.901921
 30
0.0
 40
6.0
  0
CIRCLE
  5
FED
  8
SIZE
  6
CONTINUOUS
 62
    30
 10
0.0
 20
586.901921
 30
0.0
 40
6.0
  0
TEXT
  5
FEE
  8
SIZE
  6
CONTINUOUS
 62
    30
 10
-194.7923539999997
 20
611.901921
 30
0.0
 40
64.0
  1
95
 41
0.9
 72
     1
 11
-140.8211539999997
 21
611.901921
 31
0.0
  0
LINE
  5
FEF
  8
SIZE
  6
CONTINUOUS
 62
    30
 10
-0.0059870000000046
 20
320.0
 30
0.0
 11
-0.024332999999956
 21
442.576861
 31
0.0
  0
LINE
  5
FF0
  8
SIZE
  6
CONTINUOUS
 62
    30
 10
9.99767399999996
 20
313.950265
 30
0.0
 11
9.978422000000023
 21
442.578358
 31
0.0
  0
LINE
  5
FF1
  8
SIZE
  6
CONTINUOUS
 62
    30
 10
11.98291199999994
 20
412.5786579999999
 30
0.0
 11
13.98291200000005
 21
412.578957
 31
0.0
  0
LINE
  5
FF2
  8
SIZE
  6
CONTINUOUS
 62
    30
 10
-2.019842999999923
 20
412.576562
 30
0.0
 11
-204.982659
 21
412.5461849999998
 31
0.0
  0
LINE
  5
FF3
  8
SIZE
  6
CONTINUOUS
 62
    30
 10
9.982911999999942
 20
412.578358
 30
0.0
 11
-0.0198430000000372
 21
412.5768609999999
 31
0.0
  0
CIRCLE
  5
FF4
  8
SIZE
  6
CONTINUOUS
 62
    30
 10
9.982911999999942
 20
412.578358
 30
0.0
 40
6.0
  0
CIRCLE
  5
FF5
  8
SIZE
  6
CONTINUOUS
 62
    30
 10
-0.0198430000000372
 20
412.5768609999999
 30
0.0
 40
6.0
  0
TEXT
  5
FF6
  8
SIZE
  6
CONTINUOUS
 62
    30
 10
-187.4003334537823
 20
437.5488007909597
 30
0.0
 40
64.0
  1
10
 50
0.0085940000346902
 41
0.9
 72
     1
 11
-138.8435339999997
 21
437.556084
 31
0.0
  0
TEXT
  5
FF7
  8
NOTE
  6
CONTINUOUS
 62
     4
 10
-635.0530549999997
 20
408.1340029999999
 30
0.0
 40
64.0
  1
4-φ14
 41
0.9
  0
LINE
  5
FF8
  8
DETAIL
  6
CONTINUOUS
 62
     5
 10
100.4135999999999
 20
97.01871399999979
 30
0.0
 11
94.98822899999993
 21
78.65322299999978
 31
0.0
  0
LINE
  5
FF9
  8
DETAIL
  6
CONTINUOUS
 62
     5
 10
113.4325829999995
 20
88.86394099999988
 30
0.0
 11
124.5453409999995
 21
100.953501
 31
0.0
  0
LINE
  5
FFA
  8
DETAIL
  6
CONTINUOUS
 62
     5
 10
0.007417999999916
 20
307.370204
 30
0.0
 11
0.0000249999999369
 21
-0.1693329999999982
 31
0.0
  0
LINE
  5
FFB
  8
DETAIL
  6
CONTINUOUS
 62
     5
 10
9.99314800000002
 20
302.6117199999997
 30
0.0
 11
9.985754999999926
 21
-0.1708339999999602
 31
0.0
  0
LINE
  5
FFC
  8
DETAIL
  6
CONTINUOUS
 62
     5
 10
20.06255199999998
 20
286.3670609999997
 30
0.0
 11
20.05516
 21
-0.1723349999999186
 31
0.0
  0
LINE
  5
FFD
  8
DETAIL
  6
CONTINUOUS
 62
     5
 10
7.728644999999914
 20
307.17968
 30
0.0
 11
7.721251999999935
 21
-0.1704890000000283
 31
0.0
  0
LINE
  5
FFE
  8
DETAIL
  6
CONTINUOUS
 62
     5
 10
89.37384199999995
 20
-222.8253699999999
 30
0.0
 11
89.30919000000006
 21
222.6864829999998
 31
0.0
  0
LINE
  5
FFF
  8
DETAIL
  6
CONTINUOUS
 62
     5
 10
94.96667200000002
 20
222.6836269999998
 30
0.0
 11
95.01555099999995
 21
-103.8948439999999
 31
0.0
  0
LINE
  5
1000
  8
DETAIL
  6
CONTINUOUS
 62
     5
 10
95.03335100000004
 20
-222.8245229999999
 30
0.0
 11
94.984472
 21
103.7539479999997
 31
0.0
  0
LINE
  5
1003
  8
DETAIL
  6
CONTINUOUS
 62
     5
 10
133.286477
 20
-45.5165409999999
 30
0.0
 11
119.302485
 21
-79.39715399999994
 31
0.0
  0
LINE
  5
1004
  8
DETAIL
  6
CONTINUOUS
 62
     5
 10
153.603205
 20
-199.651078
 30
0.0
 11
160.2349729999999
 21
-208.7278399999997
 31
0.0
  0
LINE
  5
1005
  8
DETAIL
  6
CONTINUOUS
 62
     5
 10
154.023118
 20
-188.3689499999999
 30
0.0
 11
162.5157199999998
 21
-210.8880409999998
 31
0.0
  0
LINE
  5
1006
  8
DETAIL
  6
CONTINUOUS
 62
     5
 10
256.348246
 20
-154.0430639999998
 30
0.0
 11
256.2963229999999
 21
-95.1069280000001
 31
0.0
  0
ARC
  5
1007
  8
DETAIL
  6
CONTINUOUS
 62
     5
 10
186.0123899999998
 20
-154.2179109999998
 30
0.0
 40
70.322086
 50
282.738606
 51
0.0085750000637014
  0
LINE
  5
1008
  8
DETAIL
  6
CONTINUOUS
 62
     5
 10
160.2350109999998
 20
-208.727843
 30
0.0
 11
162.515745
 21
-210.8880849999997
 31
0.0
  0
LINE
  5
1009
  8
DETAIL
  6
CONTINUOUS
 62
     5
 10
135.0442729999999
 20
-139.2212549999998
 30
0.0
 11
144.8595309999998
 21
-164.1748179999998
 31
0.0
  0
LINE
  5
100A
  8
DETAIL
  6
CONTINUOUS
 62
     5
 10
119.311556
 20
-139.9152979999995
 30
0.0
 11
133.3043239999999
 21
-164.7139809999998
 31
0.0
  0
LINE
  5
100B
  8
DETAIL
  6
CONTINUOUS
 62
     5
 10
144.6709809999999
 20
-184.8296799999999
 30
0.0
 11
153.6032279999999
 21
-199.6510699999998
 31
0.0
  0
LINE
  5
100C
  8
DETAIL
  6
CONTINUOUS
 62
     5
 10
133.3042759999996
 20
-164.7139859999999
 30
0.0
 11
144.6709819999999
 21
-184.8296919999999
 31
0.0
  0
LINE
  5
100D
  8
DETAIL
  6
CONTINUOUS
 62
     5
 10
144.8595929999999
 20
-164.1748029999998
 30
0.0
 11
154.0231679999999
 21
-188.3689659999997
 31
0.0
  0
LINE
  5
100E
  8
DETAIL
  6
CONTINUOUS
 62
     5
 10
95.01827600000001
 20
-122.1029459999999
 30
0.0
 11
102.558715
 21
-111.187149
 31
0.0
  0
LINE
  5
100F
  8
DETAIL
  6
CONTINUOUS
 62
     5
 10
113.459412
 20
-90.54433899999998
 30
0.0
 11
113.446279
 21
-90.51597699999996
 31
0.0
  0
LINE
  5
1010
  8
DETAIL
  6
CONTINUOUS
 62
     5
 10
124.5775929999997
 20
-114.3744639999999
 30
0.0
 11
135.0443459999999
 21
-139.2212639999997
 31
0.0
  0
LINE
  5
1011
  8
DETAIL
  6
CONTINUOUS
 62
     5
 10
124.5775479999997
 20
-114.374475
 30
0.0
 11
113.446285
 21
-90.51597699999996
 31
0.0
  0
LINE
  5
1012
  8
DETAIL
  6
CONTINUOUS
 62
     5
 10
119.302503
 20
-79.39714999999995
 30
0.0
 11
102.5586919999996
 21
-111.1871580000001
 31
0.0
  0
LINE
  5
1013
  8
DETAIL
  6
CONTINUOUS
 62
     5
 10
102.5586329999997
 20
-111.187161
 30
0.0
 11
119.311535
 21
-139.9152979999995
 31
0.0
  0
LINE
  5
1014
  8
DETAIL
  6
CONTINUOUS
 62
     5
 10
162.4732269999999
 20
73.15683599999994
 30
0.0
 11
153.988292
 21
44.44268500000004
 31
0.0
  0
LINE
  5
1015
  8
DETAIL
  6
CONTINUOUS
 62
     5
 10
153.5697429999999
 20
24.3667779999999
 30
0.0
 11
160.1951109999998
 21
58.24627400000003
 31
0.0
  0
LINE
  5
1016
  8
DETAIL
  6
CONTINUOUS
 62
     5
 10
156.213108
 20
65.41901100000001
 30
0.0
 11
160.186815
 21
65.41931499999991
 31
0.0
  0
LINE
  5
1017
  8
DETAIL
  6
CONTINUOUS
 62
     5
 10
156.2385429999999
 20
-65.39520200000008
 30
0.0
 11
205.3035196227609
 21
-65.39073110549423
 31
0.0
  0
LINE
  5
1018
  8
DETAIL
  6
CONTINUOUS
 62
     5
 10
160.195094
 20
58.2462779999999
 30
0.0
 11
162.4732449999999
 21
73.15683899999993
 31
0.0
  0
LINE
  5
1019
  8
DETAIL
  6
CONTINUOUS
 62
     5
 10
161.291059
 20
65.41939899999994
 30
0.0
 11
205.2985648117144
 21
65.42206567019826
 31
0.0
  0
LINE
  5
101A
  8
DETAIL
  6
CONTINUOUS
 62
     5
 10
106.4999999999996
 20
18.07868300000001
 30
0.0
 11
106.4999999999996
 21
-0.1765919999999674
 31
0.0
  0
LINE
  5
101B
  8
DETAIL
  6
CONTINUOUS
 62
     5
 10
128.9969399999998
 20
8.45402399999994
 30
0.0
 11
128.996113
 21
13.97933100000006
 31
0.0
  0
LINE
  5
101C
  8
DETAIL
  6
CONTINUOUS
 62
     5
 10
144.8320949999999
 20
19.27673699999997
 30
0.0
 11
135.0237229999999
 21
-1.751944999999917
 31
0.0
  0
LINE
  5
101D
  8
DETAIL
  6
CONTINUOUS
 62
     5
 10
144.6449239999996
 20
-10.57467500000002
 30
0.0
 11
153.5696949999999
 21
24.36675300000008
 31
0.0
  0
LINE
  5
101E
  8
DETAIL
  6
CONTINUOUS
 62
     5
 10
131.005174
 20
14.98417899999987
 30
0.0
 11
131.009631
 21
-8.44037300000008
 31
0.0
  0
LINE
  5
101F
  8
DETAIL
  6
CONTINUOUS
 62
     5
 10
129.0014229999999
 20
-8.440905000000098
 30
0.0
 11
128.9960979999998
 21
14.08014600000007
 31
0.0
  0
LINE
  5
1020
  8
DETAIL
  6
CONTINUOUS
 62
     5
 10
126.4899199999998
 20
-8.4415699999999
 30
0.0
 11
126.4845949999999
 21
14.07977000000011
 31
0.0
  0
LINE
  5
1021
  8
DETAIL
  6
CONTINUOUS
 62
     5
 10
101.7236
 20
-36.89937600000001
 30
0.0
 11
95.54374900000003
 21
-38.57232199999991
 31
0.0
  0
LINE
  5
1022
  8
DETAIL
  6
CONTINUOUS
 62
     5
 10
106.5070289999998
 20
-18.07420900000005
 30
0.0
 11
95.004325
 21
-18.07696099999992
 31
0.0
  0
LINE
  5
1023
  8
DETAIL
  6
CONTINUOUS
 62
     5
 10
131.0064169999999
 20
8.454242999999963
 30
0.0
 11
128.997428
 21
8.456651999999913
 31
0.0
  0
LINE
  5
1024
  8
DETAIL
  6
CONTINUOUS
 62
     5
 10
106.4999999999996
 20
10.86303499999991
 30
0.0
 11
126.4850759999999
 21
10.86504900000005
 31
0.0
  0
LINE
  5
1025
  8
DETAIL
  6
CONTINUOUS
 62
     5
 10
113.4503599999999
 20
-30.05766800000009
 30
0.0
 11
101.7235989999996
 21
-36.89939300000007
 31
0.0
  0
LINE
  5
1026
  8
DETAIL
  6
CONTINUOUS
 62
     5
 10
133.2864519999999
 20
-45.516544
 30
0.0
 11
144.6449149999999
 21
-10.57464999999997
 31
0.0
  0
ARC
  5
1027
  8
DETAIL
  6
CONTINUOUS
 62
     5
 10
156.2368609999999
 20
-58.36299400000001
 30
0.0
 40
7.032208999999999
 50
180.0137050000112
 51
270.0137049999998
  0
LINE
  5
1028
  8
DETAIL
  6
CONTINUOUS
 62
     5
 10
147.6922549999999
 20
-35.3893010000001
 30
0.0
 11
147.697222
 21
-56.15491300000002
 31
0.0
  0
LINE
  5
1029
  8
DETAIL
  6
CONTINUOUS
 62
     5
 10
147.4053579999999
 20
-47.41140199999989
 30
0.0
 11
147.4030989999998
 21
-37.96815099999997
 31
0.0
  0
LINE
  5
102A
  8
DETAIL
  6
CONTINUOUS
 62
     5
 10
147.6928709999999
 20
-37.96808200000003
 30
0.0
 11
147.4030989999998
 21
-37.96815099999997
 31
0.0
  0
LINE
  5
102B
  8
DETAIL
  6
CONTINUOUS
 62
     5
 10
147.69513
 20
-47.41133299999995
 30
0.0
 11
147.4053579999999
 21
-47.41140199999989
 31
0.0
  0
LINE
  5
102C
  8
DETAIL
  6
CONTINUOUS
 62
     5
 10
147.6928709999999
 20
-37.96808200000003
 30
0.0
 11
147.69513
 21
-47.41133299999995
 31
0.0
  0
ARC
  5
102D
  8
DETAIL
  6
CONTINUOUS
 62
     5
 10
151.3105659999998
 20
-42.68884199999996
 30
0.0
 40
6.128067999999998
 50
129.615671
 51
230.411723
  0
LINE
  5
102E
  8
DETAIL
  6
CONTINUOUS
 62
     5
 10
147.697222
 20
-56.15491300000002
 30
0.0
 11
149.2044839999999
 21
-57.66145499999986
 31
0.0
  0
LINE
  5
102F
  8
DETAIL
  6
CONTINUOUS
 62
     5
 10
148.9959279999998
 20
-25.76539100000008
 30
0.0
 11
148.99725
 21
-31.29069799999996
 31
0.0
  0
LINE
  5
1030
  8
DETAIL
  6
CONTINUOUS
 62
     5
 10
148.995531
 20
-24.10779900000005
 30
0.0
 11
148.9959279999998
 21
-25.76539100000008
 31
0.0
  0
ARC
  5
1031
  8
DETAIL
  6
CONTINUOUS
 62
     5
 10
150.7311999999996
 20
-28.52762999999998
 30
0.0
 40
4.748414999999999
 50
111.4399509999996
 51
248.587459
  0
LINE
  5
1032
  8
DETAIL
  6
CONTINUOUS
 62
     5
 10
147.6922549999999
 20
-35.3893010000001
 30
0.0
 11
148.6363419999999
 21
-34.22973700000005
 31
0.0
  0
LINE
  5
1033
  8
DETAIL
  6
CONTINUOUS
 62
     5
 10
146.4889569999999
 20
-26.39436599999993
 30
0.0
 11
139.8179239999999
 21
-25.42386000000004
 31
0.0
  0
LINE
  5
1034
  8
DETAIL
  6
CONTINUOUS
 62
     5
 10
148.99725
 20
-31.29069799999996
 30
0.0
 11
148.997646
 21
-32.94828999999999
 31
0.0
  0
LINE
  5
1035
  8
DETAIL
  6
CONTINUOUS
 62
     5
 10
148.6363419999999
 20
-34.22973700000005
 30
0.0
 11
148.9978459999999
 21
-33.78310200000003
 31
0.0
  0
LINE
  5
1036
  8
DETAIL
  6
CONTINUOUS
 62
     5
 10
149.204652
 20
-58.36467600000007
 30
0.0
 11
149.2044839999999
 21
-57.66145499999986
 31
0.0
  0
LINE
  5
1037
  8
DETAIL
  6
CONTINUOUS
 62
     5
 10
135.023664
 20
-1.75195500000013
 30
0.0
 11
124.563129
 21
-18.312069
 31
0.0
  0
LINE
  5
1038
  8
DETAIL
  6
CONTINUOUS
 62
     5
 10
125.4854669999997
 20
-14.06776600000006
 30
0.0
 11
126.4898269999998
 21
-13.06292499999989
 31
0.0
  0
LINE
  5
1039
  8
DETAIL
  6
CONTINUOUS
 62
     5
 10
126.4887459999998
 20
-8.542219000000099
 30
0.0
 11
126.4900679999996
 21
-14.06752599999998
 31
0.0
  0
LINE
  5
103A
  8
DETAIL
  6
CONTINUOUS
 62
     5
 10
129.0002489999999
 20
-8.541617999999918
 30
0.0
 11
129.0009099999999
 21
-11.30427200000003
 31
0.0
  0
LINE
  5
103B
  8
DETAIL
  6
CONTINUOUS
 62
     5
 10
126.9923439999999
 20
-13.96658999999994
 30
0.0
 11
126.4900679999996
 21
-14.06752599999998
 31
0.0
  0
LINE
  5
103C
  8
DETAIL
  6
CONTINUOUS
 62
     5
 10
148.991962
 20
-9.187771000000058
 30
0.0
 11
148.9917829999999
 21
-8.43602099999993
 31
0.0
  0
LINE
  5
103D
  8
DETAIL
  6
CONTINUOUS
 62
     5
 10
127.308087
 20
-13.9665139999999
 30
0.0
 11
126.9923439999999
 21
-13.96658999999994
 31
0.0
  0
LINE
  5
103E
  8
DETAIL
  6
CONTINUOUS
 62
     5
 10
130.798752
 20
-8.440428999999938
 30
0.0
 11
129.000225
 21
-8.44147799999991
 31
0.0
  0
LINE
  5
103F
  8
DETAIL
  6
CONTINUOUS
 62
     5
 10
124.5631759999996
 20
-18.31210400000003
 30
0.0
 11
113.450329
 21
-30.057659
 31
0.0
  0
LINE
  5
1040
  8
DETAIL
  6
CONTINUOUS
 62
     5
 10
106.5042229999999
 20
-10.85856200000007
 30
0.0
 11
126.4892989999999
 21
-10.85280499999993
 31
0.0
  0
LINE
  5
1041
  8
DETAIL
  6
CONTINUOUS
 62
     5
 10
106.5054739999998
 20
-14.073282
 30
0.0
 11
125.4854669999997
 21
-14.06776600000006
 31
0.0
  0
LINE
  5
1042
  8
DETAIL
  6
CONTINUOUS
 62
     5
 10
148.9978459999999
 20
-33.78310200000003
 30
0.0
 11
148.9928879999998
 21
6.448065999999983
 31
0.0
  0
LINE
  5
1043
  8
DETAIL
  6
CONTINUOUS
 62
     5
 10
106.5070289999998
 20
-18.07420900000005
 30
0.0
 11
106.4999299999999
 21
0.1810639999999424
 31
0.0
  0
LINE
  5
1044
  8
DETAIL
  6
CONTINUOUS
 62
     5
 10
106.4999999999996
 20
18.07868300000001
 30
0.0
 11
94.997296
 21
18.07696100000004
 31
0.0
  0
LINE
  5
1045
  8
DETAIL
  6
CONTINUOUS
 62
     5
 10
94.99012100000004
 20
66.014469
 30
0.0
 11
101.7071119999999
 21
73.69567899999998
 31
0.0
  0
LINE
  5
1046
  8
DETAIL
  6
CONTINUOUS
 62
     5
 10
101.707041
 20
73.69569199999995
 30
0.0
 11
113.4325519999998
 21
88.86393899999999
 31
0.0
  0
ARC
  5
1047
  8
DETAIL
  6
CONTINUOUS
 62
     5
 10
156.2141599999998
 20
58.38680300000004
 30
0.0
 40
7.032208999999999
 50
90.00857499999987
 51
180.0085749999787
  0
LINE
  5
1048
  8
DETAIL
  6
CONTINUOUS
 62
     5
 10
125.4799939999999
 20
14.07962000000003
 30
0.0
 11
126.4847449999998
 21
13.07516900000002
 31
0.0
  0
ARC
  5
1049
  8
DETAIL
  6
CONTINUOUS
 62
     5
 10
136.4942519999999
 20
20.10154399999994
 30
0.0
 40
5.023005
 50
95.00852900000014
 51
175.0085679999999
  0
LINE
  5
104A
  8
DETAIL
  6
CONTINUOUS
 62
     5
 10
153.9883049999999
 20
44.44269500000001
 30
0.0
 11
144.832131
 21
19.27673600000009
 31
0.0
  0
ARC
  5
104B
  8
DETAIL
  6
CONTINUOUS
 62
     5
 10
151.293961
 20
42.71073699999994
 30
0.0
 40
6.128067999999998
 50
129.6105579999999
 51
230.4066099999999
  0
ARC
  5
104C
  8
DETAIL
  6
CONTINUOUS
 62
     5
 10
150.720102
 20
28.54929999999996
 30
0.0
 40
4.748414999999999
 50
111.4348209999999
 51
220.1659339999999
  0
LINE
  5
104D
  8
DETAIL
  6
CONTINUOUS
 62
     5
 10
147.6753809999999
 20
56.17540199999989
 30
0.0
 11
149.1820569999998
 21
57.68252899999999
 31
0.0
  0
LINE
  5
104E
  8
DETAIL
  6
CONTINUOUS
 62
     5
 10
147.6781029999999
 20
37.98857000000004
 30
0.0
 11
147.676689
 21
47.43182099999994
 31
0.0
  0
LINE
  5
104F
  8
DETAIL
  6
CONTINUOUS
 62
     5
 10
147.676689
 20
47.43182099999994
 30
0.0
 11
147.386917
 21
47.43177699999995
 31
0.0
  0
LINE
  5
1050
  8
DETAIL
  6
CONTINUOUS
 62
     5
 10
147.6781029999999
 20
37.98857000000004
 30
0.0
 11
147.3883299999998
 21
37.98852600000004
 31
0.0
  0
LINE
  5
1051
  8
DETAIL
  6
CONTINUOUS
 62
     5
 10
147.386917
 20
47.43177699999995
 30
0.0
 11
147.3883299999998
 21
37.98852600000004
 31
0.0
  0
LINE
  5
1052
  8
DETAIL
  6
CONTINUOUS
 62
     5
 10
148.6230269999999
 20
34.25059199999993
 30
0.0
 11
148.9847039999999
 21
33.80409800000001
 31
0.0
  0
LINE
  5
1053
  8
DETAIL
  6
CONTINUOUS
 62
     5
 10
148.9850769999998
 20
31.31169400000005
 30
0.0
 11
148.9848289999998
 21
32.96928599999995
 31
0.0
  0
ARC
  5
1054
  8
DETAIL
  6
CONTINUOUS
 62
     5
 10
149.2362279999999
 20
31.31173099999995
 30
0.0
 40
0.25115
 50
180.0085749999787
 51
270.0085750000005
  0
LINE
  5
1055
  8
DETAIL
  6
CONTINUOUS
 62
     5
 10
148.98517
 20
30.69146299999994
 30
0.0
 11
148.9850769999998
 21
31.31169400000005
 31
0.0
  0
LINE
  5
1056
  8
DETAIL
  6
CONTINUOUS
 62
     5
 10
147.678489
 20
35.40978899999999
 30
0.0
 11
148.6230269999999
 21
34.25059199999993
 31
0.0
  0
LINE
  5
1057
  8
DETAIL
  6
CONTINUOUS
 62
     5
 10
147.678489
 20
35.40978899999999
 30
0.0
 11
147.6753809999999
 21
56.17540199999989
 31
0.0
  0
LINE
  5
1058
  8
DETAIL
  6
CONTINUOUS
 62
     5
 10
145.570247
 20
25.95712299999997
 30
0.0
 11
145.5709429999996
 21
21.30737899999991
 31
0.0
  0
LINE
  5
1059
  8
DETAIL
  6
CONTINUOUS
 62
     5
 10
145.570247
 20
25.95712299999997
 30
0.0
 11
136.0557209999999
 21
25.10537800000003
 31
0.0
  0
LINE
  5
105A
  8
DETAIL
  6
CONTINUOUS
 62
     5
 10
131.4902809999999
 20
20.53858700000006
 30
0.0
 11
131.005175
 21
14.98418300000008
 31
0.0
  0
LINE
  5
105B
  8
DETAIL
  6
CONTINUOUS
 62
     5
 10
128.9960979999998
 20
14.08014600000007
 30
0.0
 11
126.4845949999999
 21
14.07977000000011
 31
0.0
  0
LINE
  5
105C
  8
DETAIL
  6
CONTINUOUS
 62
     5
 10
128.996113
 20
13.97933100000006
 30
0.0
 11
126.9869109999999
 21
13.97903000000002
 31
0.0
  0
LINE
  5
105D
  8
DETAIL
  6
CONTINUOUS
 62
     5
 10
148.9847039999999
 20
33.80409800000001
 30
0.0
 11
148.98517
 21
30.69146299999994
 31
0.0
  0
LINE
  5
105E
  8
DETAIL
  6
CONTINUOUS
 62
     5
 10
149.1819519999999
 20
58.38574999999997
 30
0.0
 11
149.1820569999998
 21
57.68252899999999
 31
0.0
  0
LINE
  5
105F
  8
DETAIL
  6
CONTINUOUS
 62
     5
 10
152.4280549999999
 20
64.311215
 30
0.0
 11
150.2886149999999
 21
62.17113399999998
 31
0.0
  0
LINE
  5
1060
  8
DETAIL
  6
CONTINUOUS
 62
     5
 10
106.4999999999996
 20
14.07775599999996
 30
0.0
 11
125.4799939999999
 21
14.07962000000003
 31
0.0
  0
ARC
  5
1061
  8
DETAIL
  6
CONTINUOUS
 62
     5
 10
20.27423399999997
 20
-219.7247159999996
 30
0.0
 40
13.826907
 50
339.1846609999999
 51
20.81542900000001
  0
LINE
  5
1062
  8
DETAIL
  6
CONTINUOUS
 62
     5
 10
26.07909300000005
 20
-229.5517319999998
 30
0.0
 11
26.07909300000005
 21
-209.8976999999999
 31
0.0
  0
LINE
  5
1063
  8
DETAIL
  6
CONTINUOUS
 62
     5
 10
34.10114099999998
 20
-227.9974689999998
 30
0.0
 11
34.10114099999998
 21
-211.4519629999999
 31
0.0
  0
LINE
  5
1064
  8
DETAIL
  6
CONTINUOUS
 62
     5
 10
34.10114099999998
 20
-211.4519629999999
 30
0.0
 11
34.10114099999998
 21
-227.9974689999998
 31
0.0
  0
ARC
  5
1065
  8
DETAIL
  6
CONTINUOUS
 62
     5
 10
20.27423399999997
 20
-219.7247159999996
 30
0.0
 40
13.826907
 50
339.184571
 51
20.81533899999998
  0
LINE
  5
1066
  8
DETAIL
  6
CONTINUOUS
 62
     5
 10
26.07909300000005
 20
-209.8976999999999
 30
0.0
 11
33.198665
 21
-209.8976999999999
 31
0.0
  0
LINE
  5
1067
  8
DETAIL
  6
CONTINUOUS
 62
     5
 10
33.19867199999999
 20
-209.8976959999999
 30
0.0
 11
34.10115300000006
 21
-211.4519689999998
 31
0.0
  0
LINE
  5
1068
  8
DETAIL
  6
CONTINUOUS
 62
     5
 10
26.07909199999994
 20
-214.8112089999998
 30
0.0
 11
33.198665
 21
-214.8112089999998
 31
0.0
  0
ARC
  5
1069
  8
DETAIL
  6
CONTINUOUS
 62
     5
 10
30.30595900000003
 20
-212.3544559999999
 30
0.0
 40
3.795179
 50
319.6590630000001
 51
0.0000180103747982
  0
LINE
  5
106A
  8
DETAIL
  6
CONTINUOUS
 62
     5
 10
20.09204999999997
 20
-219.272861
 30
0.0
 11
20.09204999999997
 21
-223.9338939999999
 31
0.0
  0
LINE
  5
106B
  8
DETAIL
  6
CONTINUOUS
 62
     5
 10
20.09204999999997
 20
-219.272861
 30
0.0
 11
20.09204999999997
 21
-223.9338939999999
 31
0.0
  0
ARC
  5
106C
  8
DETAIL
  6
CONTINUOUS
 62
     5
 10
30.30595900000003
 20
-227.0949749999999
 30
0.0
 40
3.795179
 50
359.9999819896252
 51
40.3409369999999
  0
LINE
  5
106D
  8
DETAIL
  6
CONTINUOUS
 62
     5
 10
26.07909199999994
 20
-224.638223
 30
0.0
 11
33.198665
 21
-224.638223
 31
0.0
  0
LINE
  5
106E
  8
DETAIL
  6
CONTINUOUS
 62
     5
 10
33.19867199999999
 20
-229.5517359999998
 30
0.0
 11
34.10115300000006
 21
-227.9974629999998
 31
0.0
  0
LINE
  5
106F
  8
DETAIL
  6
CONTINUOUS
 62
     5
 10
26.07909300000005
 20
-229.5517319999998
 30
0.0
 11
33.198665
 21
-229.5517319999998
 31
0.0
  0
CIRCLE
  5
1071
  8
ARRANGE
  6
CONTINUOUS
 62
     1
 10
0.0
 20
0.0
 30
0.0
 40
40.0
  0
LINE
  5
1072
  8
DETAIL
  6
CONTINUOUS
 62
     5
 10
35.16846099999998
 20
253.255741
 30
0.0
 11
44.61171200000001
 21
253.255741
 31
0.0
  0
LINE
  5
1073
  8
DETAIL
  6
CONTINUOUS
 62
     5
 10
35.19899899999995
 20
253.2571499999999
 30
0.0
 11
59.64224999999998
 21
253.253491
 31
0.0
  0
LINE
  5
1075
  8
DETAIL
  6
CONTINUOUS
 62
     5
 10
201.4519769999999
 20
222.6911009999997
 30
0.0
 11
34.10114099999998
 21
222.6674739999999
 31
0.0
  0
LINE
  5
1076
  8
DETAIL
  6
CONTINUOUS
 62
     5
 10
185.9140159999999
 20
250.3531719999999
 30
0.0
 11
26.157149
 21
250.3259349999999
 31
0.0
  0
ARC
  5
1077
  8
DETAIL
  6
CONTINUOUS
 62
     5
 10
59.56103500000006
 20
289.0351369999999
 30
0.0
 40
35.763804
 50
270.0085749999999
 51
326.2576539999999
  0
LINE
  5
1078
  8
DETAIL
  6
CONTINUOUS
 62
     5
 10
94.99681099999998
 20
292.95837
 30
0.0
 11
95.003189
 21
250.3440539999999
 31
0.0
  0
LINE
  5
1079
  8
DETAIL
  6
CONTINUOUS
 62
     5
 10
89.50825999999995
 20
250.343216
 30
0.0
 11
89.50188200000002
 21
292.9575319999999
 31
0.0
  0
LINE
  5
107A
  8
DETAIL
  6
CONTINUOUS
 62
     5
 10
144.6189309999999
 20
163.6803279999998
 30
0.0
 11
160.186088
 21
118.7644979999998
 31
0.0
  0
LINE
  5
107B
  8
DETAIL
  6
CONTINUOUS
 62
     5
 10
153.978157
 20
112.206384
 30
0.0
 11
162.4683079999999
 21
106.0151269999997
 31
0.0
  0
ARC
  5
107C
  8
DETAIL
  6
CONTINUOUS
 62
     5
 10
185.9662449999999
 20
154.0952709999998
 30
0.0
 40
70.322086
 50
0.0085750000637014
 51
77.27854499999998
  0
ARC
  5
107D
  8
DETAIL
  6
CONTINUOUS
 62
     5
 10
185.965766
 20
157.2919529999998
 30
0.0
 40
70.322086
 50
0.008574999978695
 51
78.73510200000001
  0
LINE
  5
107E
  8
DETAIL
  6
CONTINUOUS
 62
     5
 10
256.2883299999999
 20
154.1057969999997
 30
0.0
 11
256.2968460013034
 21
-95.7005700459328
 31
0.0
  0
LINE
  5
107F
  8
DETAIL
  6
CONTINUOUS
 62
     5
 10
160.1860639999998
 20
118.7644989999999
 30
0.0
 11
162.4683569999999
 21
106.0151279999998
 31
0.0
  0
LINE
  5
1080
  8
DETAIL
  6
CONTINUOUS
 62
     5
 10
133.2529529999999
 20
178.50128
 30
0.0
 11
144.6188589999999
 21
163.6803439999998
 31
0.0
  0
ARC
  5
1081
  8
DETAIL
  6
CONTINUOUS
 62
     5
 10
94.90025800000001
 20
98.64739999999979
 30
0.0
 40
5.748923999999997
 50
343.5424819999999
 51
90.00857499999991
  0
LINE
  5
1082
  8
DETAIL
  6
CONTINUOUS
 62
     5
 10
124.545346
 20
100.9534399999998
 30
0.0
 11
135.0071269999998
 21
109.2447839999999
 31
0.0
  0
LINE
  5
1083
  8
DETAIL
  6
CONTINUOUS
 62
     5
 10
135.0071419999999
 20
109.2448759999999
 30
0.0
 11
144.8180739999999
 21
113.1741689999999
 31
0.0
  0
LINE
  5
1084
  8
DETAIL
  6
CONTINUOUS
 62
     5
 10
144.8180499999999
 20
113.1741029999999
 30
0.0
 11
153.9781689999999
 21
112.2064109999999
 31
0.0
  0
LINE
  5
1085
  8
DETAIL
  6
CONTINUOUS
 62
     5
 10
94.899398
 20
104.396354
 30
0.0
 11
94.899398
 21
104.396354
 31
0.0
  0
LINE
  5
1086
  8
DETAIL
  6
CONTINUOUS
 62
     5
 10
102.5135269999999
 20
190.6312869999998
 30
0.0
 11
94.90968299999996
 21
189.4593399999998
 31
0.0
  0
LINE
  5
1087
  8
DETAIL
  6
CONTINUOUS
 62
     5
 10
119.2625299999998
 20
187.577061
 30
0.0
 11
133.2529609999999
 21
178.5012999999999
 31
0.0
  0
LINE
  5
1088
  8
DETAIL
  6
CONTINUOUS
 62
     5
 10
119.2625329999999
 20
187.5770419999998
 30
0.0
 11
102.5135249999998
 21
190.6313429999998
 31
0.0
  0
ARC
  5
1089
  8
DETAIL
  6
CONTINUOUS
 62
     5
 10
92.24930700000004
 20
293.2185899999995
 30
0.0
 40
2.759799
 50
354.5895649999997
 51
185.4275859999995
  0
ARC
  5
108A
  8
DETAIL
  6
CONTINUOUS
 62
     5
 10
35.16846099999998
 20
268.3247589999999
 30
0.0
 40
15.069018
 50
232.901833
 51
270.0
  0
LINE
  5
108B
  8
DETAIL
  6
CONTINUOUS
 62
     5
 10
34.10114099999998
 20
263.1116
 30
0.0
 11
34.10114099999998
 21
253.2935869999999
 31
0.0
  0
ARC
  5
108C
  8
DETAIL
  6
CONTINUOUS
 62
     5
 10
20.814028
 20
254.9678239999999
 30
0.0
 40
13.276704
 50
352.7930689999999
 51
21.12286999999997
  0
LINE
  5
108D
  8
DETAIL
  6
CONTINUOUS
 62
     5
 10
26.12705000000005
 20
264.3606069999999
 30
0.0
 11
26.12705000000005
 21
256.2695449999999
 31
0.0
  0
LINE
  5
108E
  8
DETAIL
  6
CONTINUOUS
 62
     5
 10
26.07909300000005
 20
271.8561929999999
 30
0.0
 11
26.07909300000005
 21
202.3687009999999
 31
0.0
  0
LINE
  5
108F
  8
DETAIL
  6
CONTINUOUS
 62
     5
 10
20.06255199999998
 20
271.8561929999999
 30
0.0
 11
20.06255199999998
 21
202.3687009999999
 31
0.0
  0
LINE
  5
1090
  8
DETAIL
  6
CONTINUOUS
 62
     5
 10
26.07909300000005
 20
264.665864
 30
0.0
 11
26.07909300000005
 21
245.011832
 31
0.0
  0
ARC
  5
1091
  8
DETAIL
  6
CONTINUOUS
 62
     5
 10
20.27423399999997
 20
219.386049
 30
0.0
 40
13.826907
 50
339.184571
 51
20.81533899999998
  0
LINE
  5
1092
  8
DETAIL
  6
CONTINUOUS
 62
     5
 10
26.07909300000005
 20
229.2130649999998
 30
0.0
 11
26.07909300000005
 21
209.5590329999998
 31
0.0
  0
LINE
  5
1093
  8
DETAIL
  6
CONTINUOUS
 62
     5
 10
34.10114099999998
 20
227.658802
 30
0.0
 11
34.10114099999998
 21
211.1132969999999
 31
0.0
  0
LINE
  5
1095
  8
DETAIL
  6
CONTINUOUS
 62
     5
 10
34.10114099999998
 20
211.1132969999999
 30
0.0
 11
34.10114099999998
 21
227.658802
 31
0.0
  0
ARC
  5
1096
  8
DETAIL
  6
CONTINUOUS
 62
     5
 10
20.27423399999997
 20
219.386049
 30
0.0
 40
13.826907
 50
339.1846609999999
 51
20.81542900000001
  0
LINE
  5
1097
  8
DETAIL
  6
CONTINUOUS
 62
     5
 10
20.09204999999997
 20
218.9341939999997
 30
0.0
 11
20.09204999999997
 21
223.5952279999997
 31
0.0
  0
LINE
  5
1098
  8
DETAIL
  6
CONTINUOUS
 62
     5
 10
20.09204999999997
 20
218.9341939999997
 30
0.0
 11
20.09204999999997
 21
223.5952279999997
 31
0.0
  0
LINE
  5
1099
  8
DETAIL
  6
CONTINUOUS
 62
     5
 10
26.07909300000005
 20
209.5590329999998
 30
0.0
 11
33.198665
 21
209.5590329999998
 31
0.0
  0
LINE
  5
109A
  8
DETAIL
  6
CONTINUOUS
 62
     5
 10
33.19867199999999
 20
209.5590289999999
 30
0.0
 11
34.10115300000006
 21
211.113302
 31
0.0
  0
LINE
  5
109B
  8
DETAIL
  6
CONTINUOUS
 62
     5
 10
26.07909199999994
 20
214.4725429999999
 30
0.0
 11
33.198665
 21
214.4725429999999
 31
0.0
  0
ARC
  5
109C
  8
DETAIL
  6
CONTINUOUS
 62
     5
 10
30.30595900000003
 20
212.01579
 30
0.0
 40
3.795179
 50
359.9999819896252
 51
40.3409369999999
  0
ARC
  5
109D
  8
DETAIL
  6
CONTINUOUS
 62
     5
 10
30.30595900000003
 20
226.7563089999999
 30
0.0
 40
3.795179
 50
319.6590630000001
 51
0.0000180103747982
  0
LINE
  5
109E
  8
DETAIL
  6
CONTINUOUS
 62
     5
 10
26.07909199999994
 20
224.299556
 30
0.0
 11
33.198665
 21
224.299556
 31
0.0
  0
LINE
  5
109F
  8
DETAIL
  6
CONTINUOUS
 62
     5
 10
33.19867199999999
 20
229.2130689999999
 30
0.0
 11
34.10115300000006
 21
227.658796
 31
0.0
  0
LINE
  5
10A0
  8
DETAIL
  6
CONTINUOUS
 62
     5
 10
26.07909300000005
 20
229.2130649999998
 30
0.0
 11
33.198665
 21
229.2130649999998
 31
0.0
  0
LINE
  5
10A1
  8
NOTE
  6
CONTINUOUS
 62
     4
 10
-32.25847999999996
 20
303.4492799999998
 30
0.0
 11
0.0067549999999983
 21
279.807059
 31
0.0
  0
LINE
  5
10A2
  8
NOTE
  6
CONTINUOUS
 62
     4
 10
0.0067549999999983
 20
279.807059
 30
0.0
 11
-39.75686899999994
 21
284.1492049999998
 31
0.0
  0
LINE
  5
10A3
  8
NOTE
  6
CONTINUOUS
 62
     4
 10
0.0
 20
300.0
 30
0.0
 11
0.0
 21
260.0
 31
0.0
  0
LINE
  5
10A4
  8
NOTE
  6
CONTINUOUS
 62
     4
 10
-20.0
 20
280.0
 30
0.0
 11
20.0
 21
280.0
 31
0.0
  0
ARC
  5
10A5
  8
DETAIL
  6
CONTINUOUS
 62
     5
 10
6.113919000000009
 20
302.713775
 30
0.0
 40
3.880569999999999
 50
358.4930029999994
 51
65.36551999999988
  0
ARC
  5
10A6
  8
DETAIL
  6
CONTINUOUS
 62
     5
 10
14.04601200000001
 20
293.1630519999999
 30
0.0
 40
4.011026999999999
 50
180.0
 51
270.0
  0
ARC
  5
10A7
  8
DETAIL
  6
CONTINUOUS
 62
     5
 10
14.07611599999995
 20
294.461794
 30
0.0
 40
4.083815999999997
 50
181.0197129999999
 51
269.577634
  0
LINE
  5
10A8
  8
DETAIL
  6
CONTINUOUS
 62
     5
 10
14.04601200000001
 20
289.1520249999998
 30
0.0
 11
16.05152499999997
 21
289.1520249999998
 31
0.0
  0
LINE
  5
10A9
  8
DETAIL
  6
CONTINUOUS
 62
     5
 10
20.09944199999995
 20
287.3117229999998
 30
0.0
 11
20.09944199999995
 21
268.3247589999999
 31
0.0
  0
LINE
  5
10AA
  8
DETAIL
  6
CONTINUOUS
 62
     5
 10
20.11050899999998
 20
272.985793
 30
0.0
 11
26.12705000000005
 21
272.985793
 31
0.0
  0
LINE
  5
10AB
  8
DETAIL
  6
CONTINUOUS
 62
     5
 10
33.198665
 20
264.665864
 30
0.0
 11
26.07909300000005
 21
264.665864
 31
0.0
  0
LINE
  5
10AC
  8
DETAIL
  6
CONTINUOUS
 62
     5
 10
26.07909400000005
 20
259.752354
 30
0.0
 11
33.198665
 21
259.752354
 31
0.0
  0
ARC
  5
10AD
  8
DETAIL
  6
CONTINUOUS
 62
     5
 10
30.30595900000003
 20
262.2091069999999
 30
0.0
 40
3.795179
 50
319.6590240000001
 51
359.9999819896252
  0
LINE
  5
10AE
  8
DETAIL
  6
CONTINUOUS
 62
     5
 10
34.10115300000006
 20
263.1115949999999
 30
0.0
 11
33.19867199999999
 21
264.6658679999996
 31
0.0
  0
LINE
  5
10AF
  8
DETAIL
  6
CONTINUOUS
 62
     5
 10
16.05152499999997
 20
290.3780879999998
 30
0.0
 11
14.04601200000001
 21
290.3780879999998
 31
0.0
  0
ARC
  5
10B0
  8
DETAIL
  6
CONTINUOUS
 62
     5
 10
16.05152499999997
 20
285.1409979999999
 30
0.0
 40
4.011026999999999
 50
0.0
 51
90.0
  0
ARC
  5
10B1
  8
DETAIL
  6
CONTINUOUS
 62
     5
 10
16.05152499999997
 20
286.3670609999997
 30
0.0
 40
4.011026999999999
 50
0.0
 51
90.0
  0
ARC
  5
10B2
  8
DETAIL
  6
CONTINUOUS
 62
     5
 10
6.425061000000027
 20
307.17968
 30
0.0
 40
1.303584
 50
0.0
 51
73.24519500000024
  0
LINE
  5
10B3
  8
DETAIL
  6
CONTINUOUS
 62
     5
 10
2.978621999999973
 20
309.578634
 30
0.0
 11
6.80085299999996
 21
308.427923
 31
0.0
  0
LINE
  5
10B4
  8
DETAIL
  6
CONTINUOUS
 62
     5
 10
2.978621999999973
 20
309.578634
 30
0.0
 11
6.80085299999996
 21
308.427923
 31
0.0
  0
ARC
  5
10B5
  8
DETAIL
  6
CONTINUOUS
 62
     5
 10
2.313758000000007
 20
307.370204
 30
0.0
 40
2.306341
 50
73.245195
 51
180.0
  0
LINE
  5
10B6
  8
DETAIL
  6
CONTINUOUS
 62
     5
 10
26.07909300000005
 20
202.3687009999999
 30
0.0
 11
20.06255199999998
 21
202.3687009999999
 31
0.0
  0
LINE
  5
10B7
  8
DETAIL
  6
CONTINUOUS
 62
     5
 10
26.07909300000005
 20
-202.7073669999999
 30
0.0
 11
20.06255199999998
 21
-202.7073669999999
 31
0.0
  0
LINE
  5
10B8
  8
SIZE
  6
CONTINUOUS
 62
    30
 10
-40.0
 20
280.0
 30
0.0
 11
-114.774488
 21
280.0
 31
0.0
  0
LINE
  5
10B9
  8
SIZE
  6
CONTINUOUS
 62
    30
 10
-40.0
 20
-279.9999999999999
 30
0.0
 11
-114.774488
 21
-279.9999999999999
 31
0.0
  0
LINE
  5
10BA
  8
SIZE
  6
CONTINUOUS
 62
    30
 10
-84.77448800000003
 20
278.0
 30
0.0
 11
-84.77448800000003
 21
-277.9999999999997
 31
0.0
  0
CIRCLE
  5
10BB
  8
SIZE
  6
CONTINUOUS
 62
    30
 10
-84.77448800000003
 20
280.0
 30
0.0
 40
6.0
  0
CIRCLE
  5
10BC
  8
SIZE
  6
CONTINUOUS
 62
    30
 10
-84.77448800000003
 20
-279.9999999999999
 30
0.0
 40
6.0
  0
TEXT
  5
10BD
  8
SIZE
  6
CONTINUOUS
 62
    30
 10
-109.774488
 20
-80.95679999999996
 30
0.0
 40
64.0
  1
560
 50
90.0
 41
0.9
 72
     1
 11
-109.774488
 21
0.0000000000000497
 31
0.0
  0
LINE
  5
10BE
  8
SIZE
  6
CONTINUOUS
 62
    30
 10
-17.78182700000002
 20
310.000335
 30
0.0
 11
-254.1496249999996
 21
310.000335
 31
0.0
  0
LINE
  5
10BF
  8
SIZE
  6
CONTINUOUS
 62
    30
 10
-17.64710100000002
 20
-309.9996479999999
 30
0.0
 11
-254.1496249999996
 21
-309.9996479999999
 31
0.0
  0
LINE
  5
10C0
  8
SIZE
  6
CONTINUOUS
 62
    30
 10
-224.1496249999999
 20
308.000335
 30
0.0
 11
-224.1496249999999
 21
-307.9996479999999
 31
0.0
  0
CIRCLE
  5
10C1
  8
SIZE
  6
CONTINUOUS
 62
    30
 10
-224.1496249999999
 20
310.000335
 30
0.0
 40
6.0
  0
CIRCLE
  5
10C2
  8
SIZE
  6
CONTINUOUS
 62
    30
 10
-224.1496249999999
 20
-309.9996479999999
 30
0.0
 40
6.0
  0
TEXT
  5
10C3
  8
SIZE
  6
CONTINUOUS
 62
    30
 10
-249.1496249999999
 20
-80.95645599999992
 30
0.0
 40
64.0
  1
620
 50
90.0
 41
0.9
 72
     1
 11
-249.1496249999999
 21
0.0003440000000907
 31
0.0
  0
LINE
  5
10C4
  8
OUTLINE
  6
CONTINUOUS
 62
     3
 10
0.0074176563679202
 20
307.3559093382287
 30
0.0
 11
0.0000246563679411
 21
-0.183627661771137
 31
0.0
  0
LINE
  5
10C6
  8
OUTLINE
  6
CONTINUOUS
 62
     3
 10
20.06255165636787
 20
286.3527663382288
 30
0.0
 11
20.05515965636789
 21
-0.1866296617710681
 31
0.0
  0
LINE
  5
10C7
  8
OUTLINE
  6
CONTINUOUS
 62
     3
 10
7.728644656367919
 20
307.1653853382288
 30
0.0
 11
7.72125165636794
 21
-0.1847836617711778
 31
0.0
  0
LINE
  5
10C8
  8
OUTLINE
  6
CONTINUOUS
 62
     3
 10
94.96667165636791
 20
222.6693323382287
 30
0.0
 11
95.01555065636784
 21
-103.909138661771
 31
0.0
  0
LINE
  5
10C9
  8
OUTLINE
  6
CONTINUOUS
 62
     3
 10
89.37384165636784
 20
-222.8396646617708
 30
0.0
 11
89.30918965636795
 21
222.6721883382287
 31
0.0
  0
LINE
  5
10CA
  8
OUTLINE
  6
CONTINUOUS
 62
     3
 10
95.03335065636793
 20
-222.8388176617708
 30
0.0
 11
94.98447165636787
 21
103.7396533382287
 31
0.0
  0
POINT
  5
10CB
  8
ARRANGE
  6
CONTINUOUS
 62
     1
 10
-0.0000003436321094
 20
-0.0142946617710891
 30
0.0
  0
LINE
  5
10CD
  8
OUTLINE
  6
CONTINUOUS
 62
     3
 10
9.99314765636791
 20
-302.9646816617709
 30
0.0
 11
9.993146447821687
 21
302.597425123208
 31
0.0
  0
LINE
  5
10CE
  8
OUTLINE
  6
CONTINUOUS
 62
     3
 10
20.06255165636787
 20
-286.7200226617709
 30
0.0
 11
20.05515965636789
 21
-0.1806266617711003
 31
0.0
  0
LINE
  5
10CF
  8
OUTLINE
  6
CONTINUOUS
 62
     3
 10
7.728644656367919
 20
-307.5326416617707
 30
0.0
 11
7.72125165636794
 21
-0.182472661771218
 31
0.0
  0
LINE
  5
10D0
  8
OUTLINE
  6
CONTINUOUS
 62
     3
 10
0.0074176563679202
 20
-307.723164661771
 30
0.0
 11
0.0000246563679411
 21
-0.183627661771137
 31
0.0
  0
LINE
  5
10D1
  8
OUTLINE
  6
CONTINUOUS
 62
     3
 10
16.05152465636786
 20
-290.7310496617709
 30
0.0
 11
14.0460116563679
 21
-290.7310496617709
 31
0.0
  0
LINE
  5
10D2
  8
OUTLINE
  6
CONTINUOUS
 62
     3
 10
14.0460116563679
 20
-289.5049866617711
 30
0.0
 11
16.05152465636786
 21
-289.5049866617711
 31
0.0
  0
ARC
  5
10D3
  8
OUTLINE
  6
CONTINUOUS
 62
     3
 10
6.1139186563679
 20
-303.066736661771
 30
0.0
 40
3.880569999999999
 50
294.6344799999999
 51
1.506996999999617
  0
ARC
  5
10D4
  8
OUTLINE
  6
CONTINUOUS
 62
     3
 10
14.07611565636784
 20
-294.814754661771
 30
0.0
 40
4.083815999999997
 50
90.422366
 51
178.9802870000001
  0
ARC
  5
10D5
  8
OUTLINE
  6
CONTINUOUS
 62
     3
 10
14.0460116563679
 20
-293.5160136617709
 30
0.0
 40
4.011026999999999
 50
90.0
 51
180.0
  0
LINE
  5
10D6
  8
OUTLINE
  6
CONTINUOUS
 62
     3
 10
2.978621656367863
 20
-309.9315946617709
 30
0.0
 11
6.800852656367851
 21
-308.7808846617708
 31
0.0
  0
LINE
  5
10D7
  8
OUTLINE
  6
CONTINUOUS
 62
     3
 10
2.978621656367863
 20
-309.9315946617709
 30
0.0
 11
6.800852656367851
 21
-308.7808846617708
 31
0.0
  0
ARC
  5
10D8
  8
OUTLINE
  6
CONTINUOUS
 62
     3
 10
6.425060656367918
 20
-307.5326416617707
 30
0.0
 40
1.303584
 50
286.7548049999997
 51
0.0
  0
ARC
  5
10D9
  8
OUTLINE
  6
CONTINUOUS
 62
     3
 10
2.313757656367897
 20
-307.723164661771
 30
0.0
 40
2.306341
 50
180.0
 51
286.7548049999999
  0
LINE
  5
10DB
  8
OUTLINE
  6
CONTINUOUS
 62
     3
 10
20.06255165636787
 20
-272.2091546617709
 30
0.0
 11
20.06255165636787
 21
-202.721661661771
 31
0.0
  0
LINE
  5
10DC
  8
OUTLINE
  6
CONTINUOUS
 62
     3
 10
26.12704965636794
 20
-273.338753661771
 30
0.0
 11
26.07909265636795
 21
-202.721661661771
 31
0.0
  0
LINE
  5
10DD
  8
OUTLINE
  6
CONTINUOUS
 62
     3
 10
26.07909265636795
 20
-265.0188256617708
 30
0.0
 11
26.07909265636795
 21
-245.3647926617711
 31
0.0
  0
ARC
  5
10DE
  8
OUTLINE
  6
CONTINUOUS
 62
     3
 10
59.64757765636784
 20
-289.200922661771
 30
0.0
 40
35.763804
 50
33.75949700000001
 51
90.00857499999996
  0
LINE
  5
10DF
  8
OUTLINE
  6
CONTINUOUS
 62
     3
 10
35.16846065636787
 20
-253.6087026617705
 30
0.0
 11
44.6117116563679
 21
-253.6087026617705
 31
0.0
  0
LINE
  5
10E0
  8
OUTLINE
  6
CONTINUOUS
 62
     3
 10
20.09944165636784
 20
-287.6646836617709
 30
0.0
 11
20.09944165636784
 21
-268.6777206617707
 31
0.0
  0
LINE
  5
10E1
  8
OUTLINE
  6
CONTINUOUS
 62
     3
 10
20.11050865636787
 20
-273.338753661771
 30
0.0
 11
26.12704965636794
 21
-273.338753661771
 31
0.0
  0
ARC
  5
10E2
  8
OUTLINE
  6
CONTINUOUS
 62
     3
 10
16.05152465636786
 20
-286.7200226617709
 30
0.0
 40
4.011026999999999
 50
270.0
 51
0.0
  0
ARC
  5
10E3
  8
OUTLINE
  6
CONTINUOUS
 62
     3
 10
16.05152465636786
 20
-285.4939596617711
 30
0.0
 40
4.011026999999999
 50
270.0
 51
0.0
  0
LINE
  5
10E4
  8
OUTLINE
  6
CONTINUOUS
 62
     3
 10
26.12704965636794
 20
-264.7135686617709
 30
0.0
 11
26.12704965636794
 21
-256.6225056617708
 31
0.0
  0
ARC
  5
10E5
  8
OUTLINE
  6
CONTINUOUS
 62
     3
 10
35.16846065636787
 20
-268.6777206617707
 30
0.0
 40
15.069018
 50
90.0
 51
127.0981669999998
  0
LINE
  5
10E6
  8
OUTLINE
  6
CONTINUOUS
 62
     3
 10
35.19899865636785
 20
-253.6101106617708
 30
0.0
 11
59.64224965636788
 21
-253.6064526617709
 31
0.0
  0
LINE
  5
10E7
  8
OUTLINE
  6
CONTINUOUS
 62
     3
 10
94.98190765636787
 20
-293.1135786617709
 30
0.0
 11
94.97552965636783
 21
-250.4992626617708
 31
0.0
  0
LINE
  5
10E8
  8
OUTLINE
  6
CONTINUOUS
 62
     3
 10
89.37798165636787
 20
-250.5001006617712
 30
0.0
 11
89.3843596563679
 21
-293.1144166617709
 31
0.0
  0
ARC
  5
10E9
  8
OUTLINE
  6
CONTINUOUS
 62
     3
 10
92.18316565636792
 20
-293.3270776617711
 30
0.0
 40
2.806872999999999
 50
175.654849
 51
4.362301999999721
  0
LINE
  5
10EA
  8
OUTLINE
  6
CONTINUOUS
 62
     3
 10
26.07909265636795
 20
-229.5660266617709
 30
0.0
 11
26.07909265636795
 21
-209.9119946617708
 31
0.0
  0
LINE
  5
10EB
  8
OUTLINE
  6
CONTINUOUS
 62
     3
 10
26.07909265636795
 20
-202.721661661771
 30
0.0
 11
20.06038465636788
 21
-202.7218176617708
 31
0.0
  0
ARC
  5
10EC
  8
OUTLINE
  6
CONTINUOUS
 62
     3
 10
186.0128686563679
 20
-157.4288866617709
 30
0.0
 40
70.322086
 50
281.282049
 51
0.0085750000637014
  0
ARC
  5
10ED
  8
OUTLINE
  6
CONTINUOUS
 62
     3
 10
185.9736376563678
 20
-148.0207936617709
 30
0.0
 40
102.4693249999999
 50
270.0085749999999
 51
0.0085750000211982
  0
ARC
  5
10EE
  8
OUTLINE
  6
CONTINUOUS
 62
     3
 10
186.0123896563676
 20
-154.2322056617708
 30
0.0
 40
70.322086
 50
282.738606
 51
0.0085750000637014
  0
LINE
  5
10EF
  8
OUTLINE
  6
CONTINUOUS
 62
     3
 10
288.4561756563679
 20
-147.8382596617708
 30
0.0
 11
288.4435606563678
 21
-95.1135326617711
 31
0.0
  0
LINE
  5
10F0
  8
OUTLINE
  6
CONTINUOUS
 62
     3
 10
256.3482456563679
 20
-154.0573586617708
 30
0.0
 11
256.2963226563677
 21
-95.12122266177101
 31
0.0
  0
LINE
  5
10F1
  8
OUTLINE
  6
CONTINUOUS
 62
     3
 10
201.4519766563678
 20
222.6768063382286
 30
0.0
 11
26.07909300000005
 21
222.6531793382286
 31
0.0
  0
LINE
  5
10F2
  8
OUTLINE
  6
CONTINUOUS
 62
     3
 10
94.8993976563678
 20
104.3820593382289
 30
0.0
 11
94.8993976563678
 21
104.3820593382289
 31
0.0
  0
LINE
  5
10F3
  8
OUTLINE
  6
CONTINUOUS
 62
     3
 10
14.0460116563679
 20
289.1377303382288
 30
0.0
 11
16.05152465636786
 21
289.1377303382288
 31
0.0
  0
LINE
  5
10F4
  8
OUTLINE
  6
CONTINUOUS
 62
     3
 10
16.05152465636786
 20
290.3637933382288
 30
0.0
 11
14.0460116563679
 21
290.3637933382288
 31
0.0
  0
ARC
  5
10F6
  8
OUTLINE
  6
CONTINUOUS
 62
     3
 10
6.1139186563679
 20
302.6994803382288
 30
0.0
 40
3.880569999999999
 50
358.4930029999994
 51
65.36551999999988
  0
ARC
  5
10F7
  8
OUTLINE
  6
CONTINUOUS
 62
     3
 10
14.0460116563679
 20
293.1487573382288
 30
0.0
 40
4.011026999999999
 50
180.0
 51
270.0
  0
ARC
  5
10F8
  8
OUTLINE
  6
CONTINUOUS
 62
     3
 10
14.07611565636784
 20
294.4474993382287
 30
0.0
 40
4.083815999999997
 50
181.0197129999999
 51
269.577634
  0
LINE
  5
10F9
  8
OUTLINE
  6
CONTINUOUS
 62
     3
 10
2.978621656367863
 20
309.5643393382288
 30
0.0
 11
6.800852656367851
 21
308.4136283382288
 31
0.0
  0
LINE
  5
10FA
  8
OUTLINE
  6
CONTINUOUS
 62
     3
 10
2.978621656367863
 20
309.5643393382288
 30
0.0
 11
6.800852656367851
 21
308.4136283382288
 31
0.0
  0
ARC
  5
10FB
  8
OUTLINE
  6
CONTINUOUS
 62
     3
 10
6.425060656367918
 20
307.1653853382288
 30
0.0
 40
1.303584
 50
0.0
 51
73.24519500000024
  0
ARC
  5
10FC
  8
OUTLINE
  6
CONTINUOUS
 62
     3
 10
2.313757656367897
 20
307.3559093382287
 30
0.0
 40
2.306341
 50
73.24519500000001
 51
180.0
  0
LINE
  5
10FD
  8
OUTLINE
  6
CONTINUOUS
 62
     3
 10
20.06255165636787
 20
271.8418983382287
 30
0.0
 11
20.06255165636787
 21
202.3544063382288
 31
0.0
  0
LINE
  5
10FE
  8
OUTLINE
  6
CONTINUOUS
 62
     3
 10
26.07909265636795
 20
272.985793
 30
0.0
 11
26.07909265636795
 21
202.3544063382288
 31
0.0
  0
LINE
  5
10FF
  8
OUTLINE
  6
CONTINUOUS
 62
     3
 10
26.07909265636795
 20
264.6515693382287
 30
0.0
 11
26.07909265636795
 21
244.9975373382287
 31
0.0
  0
LINE
  5
1100
  8
OUTLINE
  6
CONTINUOUS
 62
     3
 10
26.07909265636795
 20
229.1987703382288
 30
0.0
 11
26.07909265636795
 21
209.5447383382286
 31
0.0
  0
LINE
  5
1101
  8
OUTLINE
  6
CONTINUOUS
 62
     3
 10
26.07909265636795
 20
202.3544063382288
 30
0.0
 11
20.06038465636788
 21
202.3545613382287
 31
0.0
  0
ARC
  5
1102
  8
OUTLINE
  6
CONTINUOUS
 62
     3
 10
59.56103465636783
 20
289.0208423382287
 30
0.0
 40
35.763804
 50
270.0085749999999
 51
326.2576539999999
  0
LINE
  5
1103
  8
OUTLINE
  6
CONTINUOUS
 62
     3
 10
35.16846065636787
 20
253.2414463382288
 30
0.0
 11
44.6117116563679
 21
253.2414463382288
 31
0.0
  0
LINE
  5
1104
  8
OUTLINE
  6
CONTINUOUS
 62
     3
 10
26.12704965636794
 20
264.3463123382287
 30
0.0
 11
26.12704965636794
 21
256.2552503382288
 31
0.0
  0
ARC
  5
1105
  8
OUTLINE
  6
CONTINUOUS
 62
     3
 10
35.16846065636787
 20
268.3104643382288
 30
0.0
 40
15.069018
 50
232.901833
 51
270.0
  0
LINE
  5
1106
  8
OUTLINE
  6
CONTINUOUS
 62
     3
 10
20.11050865636787
 20
272.9714983382287
 30
0.0
 11
26.12704965636794
 21
272.9714983382287
 31
0.0
  0
LINE
  5
1107
  8
OUTLINE
  6
CONTINUOUS
 62
     3
 10
20.09944165636784
 20
287.2974283382288
 30
0.0
 11
20.09944165636784
 21
268.3104643382288
 31
0.0
  0
ARC
  5
1108
  8
OUTLINE
  6
CONTINUOUS
 62
     3
 10
16.05152465636786
 20
286.3527663382288
 30
0.0
 40
4.011026999999999
 50
0.0
 51
90.0
  0
ARC
  5
1109
  8
OUTLINE
  6
CONTINUOUS
 62
     3
 10
16.05152465636786
 20
285.1267033382288
 30
0.0
 40
4.011026999999999
 50
0.0
 51
90.0
  0
LINE
  5
110A
  8
OUTLINE
  6
CONTINUOUS
 62
     3
 10
35.19899865636785
 20
253.2428553382287
 30
0.0
 11
59.64224965636788
 21
253.2391963382288
 31
0.0
  0
LINE
  5
110B
  8
OUTLINE
  6
CONTINUOUS
 62
     3
 10
94.99681065636787
 20
292.9440753382287
 30
0.0
 11
95.0031886563678
 21
250.3297593382287
 31
0.0
  0
LINE
  5
110C
  8
OUTLINE
  6
CONTINUOUS
 62
     3
 10
89.50825965636784
 20
250.3289213382287
 30
0.0
 11
89.50188165636791
 21
292.9432373382288
 31
0.0
  0
ARC
  5
110D
  8
OUTLINE
  6
CONTINUOUS
 62
     3
 10
92.24930665636793
 20
293.2042953382288
 30
0.0
 40
2.759799
 50
354.5895649999997
 51
185.4275859999995
  0
ARC
  5
110E
  8
OUTLINE
  6
CONTINUOUS
 62
     3
 10
185.9293516563677
 20
147.8695533382286
 30
0.0
 40
102.4693249999999
 50
0.0085750000211982
 51
90.00857499999996
  0
ARC
  5
110F
  8
OUTLINE
  6
CONTINUOUS
 62
     3
 10
185.9662446563676
 20
154.0809763382286
 30
0.0
 40
70.322086
 50
0.008574999978695
 51
77.27854499999998
  0
ARC
  5
1110
  8
OUTLINE
  6
CONTINUOUS
 62
     3
 10
185.9657656563678
 20
157.2776583382287
 30
0.0
 40
70.322086
 50
0.0085750000637014
 51
78.73510200000001
  0
LINE
  5
1111
  8
OUTLINE
  6
CONTINUOUS
 62
     3
 10
288.3986756563678
 20
147.8848893382288
 30
0.0
 11
288.4065646563679
 21
95.16016133822879
 31
0.0
  0
LINE
  5
1112
  8
OUTLINE
  6
CONTINUOUS
 62
     3
 10
256.2883296563678
 20
154.0915023382288
 30
0.0
 11
256.2593256563678
 21
95.15534933822879
 31
0.0
  0
TEXT
  5
1113
  8
ETC
  6
CONTINUOUS
 62
    61
 10
468.2257215646861
 20
698.3630377016036
 30
0.0
 40
40.0
  1
EG-50ETB3-PR
 41
0.9
  0
TEXT
  5
1114
  8
ETC
  6
CONTINUOUS
 62
    61
 10
421.6671417353522
 20
822.292266701604
 30
0.0
 40
50.0
  1
EG-50ETB3-PR_5
 41
0.9
  0
TEXT
  5
1115
  8
ETC
  6
CONTINUOUS
 62
    61
 10
421.6671417353522
 20
761.106353701604
 30
0.0
 40
50.0
  1
産業扇
 41
0.9
  0
LINE
  5
1116
  8
DETAIL
  6
CONTINUOUS
 62
     5
 10
288.4177510940903
 20
91.86617573177479
 30
0.0
 11
256.2991303732349
 21
91.86617573177479
 31
0.0
  0
LINE
  5
1117
  8
DETAIL
  6
CONTINUOUS
 62
     5
 10
288.4519363508331
 20
-93.21009742050245
 30
0.0
 11
256.3050663088578
 21
-93.20960133519924
 31
0.0
  0
LINE
  5
1118
  8
DETAIL
  6
CONTINUOUS
 62
     5
 10
205.2979624213321
 20
81.32587510172878
 30
0.0
 11
205.3041742678111
 21
-82.67412478062754
 31
0.0
  0
LINE
  5
1119
  8
DETAIL
  6
CONTINUOUS
 62
     5
 10
251.2976593735976
 20
89.32756029092958
 30
0.0
 11
251.304478326775
 21
-90.70076525673329
 31
0.0
  0
LINE
  5
111A
  8
DETAIL
  6
CONTINUOUS
 62
     5
 10
251.3041742348139
 20
-82.67238243344438
 30
0.0
 11
205.3041742678111
 21
-82.67412478062754
 31
0.0
  0
LINE
  5
111B
  8
DETAIL
  6
CONTINUOUS
 62
     5
 10
251.3037197094614
 20
-70.67238244205252
 30
0.0
 11
205.3037197424589
 21
-70.67412478923569
 31
0.0
  0
ARC
  5
111C
  8
DETAIL
  6
CONTINUOUS
 62
     5
 10
256.3044783231879
 20
-90.70057587116997
 30
0.0
 40
5.0
 50
180.0021701987321
 51
270.0504778246686
  0
LINE
  5
111D
  8
DETAIL
  6
CONTINUOUS
 62
     5
 10
251.3032651841092
 20
-58.67238245066045
 30
0.0
 11
205.3032652171069
 21
-58.6741247978436
 31
0.0
  0
LINE
  5
111E
  8
DETAIL
  6
CONTINUOUS
 62
     5
 10
251.3030757985457
 20
-53.67238245424727
 30
0.0
 11
205.3030758315434
 21
-53.67412480143042
 31
0.0
  0
LINE
  5
111F
  8
DETAIL
  6
CONTINUOUS
 62
     5
 10
251.3026212731938
 20
-41.6723824628554
 30
0.0
 11
205.3026213061914
 21
-41.67412481003856
 31
0.0
  0
LINE
  5
1120
  8
DETAIL
  6
CONTINUOUS
 62
     5
 10
251.3021667478415
 20
-29.67238247146332
 30
0.0
 11
205.3021667808391
 21
-29.67412481864647
 31
0.0
  0
LINE
  5
1121
  8
DETAIL
  6
CONTINUOUS
 62
     5
 10
251.3019773622784
 20
-24.67238247504991
 30
0.0
 11
205.3019773952755
 21
-24.67412482223329
 31
0.0
  0
LINE
  5
1122
  8
DETAIL
  6
CONTINUOUS
 62
     5
 10
251.3015228369259
 20
-12.67238248365806
 30
0.0
 11
205.3015228699237
 21
-12.67412483084121
 31
0.0
  0
LINE
  5
1123
  8
DETAIL
  6
CONTINUOUS
 62
     5
 10
251.300613786222
 20
11.32761749912589
 30
0.0
 11
205.3006138192192
 21
11.32587515194251
 31
0.0
  0
LINE
  5
1124
  8
DETAIL
  6
CONTINUOUS
 62
     5
 10
251.3010683115739
 20
-0.6723824922661876
 30
0.0
 11
205.3010683445716
 21
-0.6741248394493482
 31
0.0
  0
LINE
  5
1125
  8
DETAIL
  6
CONTINUOUS
 62
     5
 10
251.2979623883343
 20
81.3276174489121
 30
0.0
 11
205.2979624213321
 21
81.32587510172878
 31
0.0
  0
LINE
  5
1126
  8
DETAIL
  6
CONTINUOUS
 62
     5
 10
251.2984169136868
 20
69.32761745752015
 30
0.0
 11
205.298416946684
 21
69.325875110337
 31
0.0
  0
LINE
  5
1127
  8
DETAIL
  6
CONTINUOUS
 62
     5
 10
251.2988714390388
 20
57.32761746612829
 30
0.0
 11
205.2988714720361
 21
57.32587511894513
 31
0.0
  0
LINE
  5
1128
  8
DETAIL
  6
CONTINUOUS
 62
     5
 10
251.2990608246023
 20
52.32761746971499
 30
0.0
 11
205.2990608575996
 21
52.32587512253184
 31
0.0
  0
LINE
  5
1129
  8
DETAIL
  6
CONTINUOUS
 62
     5
 10
251.2995153499541
 20
40.32761747832302
 30
0.0
 11
205.2995153829519
 21
40.32587513113975
 31
0.0
  0
LINE
  5
112A
  8
DETAIL
  6
CONTINUOUS
 62
     5
 10
251.2999698753063
 20
28.32761748693105
 30
0.0
 11
205.2999699083041
 21
28.3258751397479
 31
0.0
  0
LINE
  5
112B
  8
DETAIL
  6
CONTINUOUS
 62
     5
 10
251.3001592608698
 20
23.32761749051775
 30
0.0
 11
205.3001592938672
 21
23.32587514333437
 31
0.0
  0
ARC
  5
112C
  8
DETAIL
  6
CONTINUOUS
 62
     5
 10
256.2976593700108
 20
89.32774967649299
 30
0.0
 40
5.0
 50
90.00183764760503
 51
180.0021701987321
  0
LINE
  5
112D
  8
DETAIL
  6
CONTINUOUS
 62
     5
 10
302.0113192342423
 20
-62.13490526822481
 30
0.0
 11
302.0113192342423
 21
60.79135673177501
 31
0.0
  0
ARC
  5
112E
  8
DETAIL
  6
CONTINUOUS
 62
     5
 10
309.0113192342422
 20
-58.17177426822484
 30
0.0
 40
8.0
 50
270.0
 51
0.0
  0
LINE
  5
112F
  8
DETAIL
  6
CONTINUOUS
 62
     5
 10
294.5212612342422
 20
-66.17177426822484
 30
0.0
 11
294.5212612342422
 21
-95.67177426822484
 31
0.0
  0
LINE
  5
1130
  8
DETAIL
  6
CONTINUOUS
 62
     5
 10
288.4523938475236
 20
-95.67225535439087
 30
0.0
 11
294.5212612342422
 21
-95.67177426822484
 31
0.0
  0
LINE
  5
1131
  8
DETAIL
  6
CONTINUOUS
 62
     5
 10
294.5212612342422
 20
-66.17177426822484
 30
0.0
 11
302.0113192342423
 21
-62.13490526822481
 31
0.0
  0
LINE
  5
1132
  8
DETAIL
  6
CONTINUOUS
 62
     5
 10
294.5212612342422
 20
-66.17177426822484
 30
0.0
 11
309.0113192342422
 21
-66.17177426822484
 31
0.0
  0
LINE
  5
1133
  8
DETAIL
  6
CONTINUOUS
 62
     5
 10
317.0113192342423
 20
-58.17177426822484
 30
0.0
 11
317.0113192342423
 21
56.82822573177504
 31
0.0
  0
LINE
  5
1134
  8
DETAIL
  6
CONTINUOUS
 62
     5
 10
294.5212612342422
 20
94.32915773177469
 30
0.0
 11
294.5212612342422
 21
64.82822573177492
 31
0.0
  0
LINE
  5
1135
  8
DETAIL
  6
CONTINUOUS
 62
     5
 10
294.5212612342422
 20
64.82822573177492
 30
0.0
 11
302.0113192342423
 21
60.79135673177501
 31
0.0
  0
LINE
  5
1136
  8
DETAIL
  6
CONTINUOUS
 62
     5
 10
294.5212612342422
 20
64.82822573177492
 30
0.0
 11
309.0113192342422
 21
64.82822573177492
 31
0.0
  0
ARC
  5
1137
  8
DETAIL
  6
CONTINUOUS
 62
     5
 10
309.0113192342422
 20
56.82822573177504
 30
0.0
 40
8.0
 50
0.0
 51
90.0
  0
LINE
  5
1138
  8
DETAIL
  6
CONTINUOUS
 62
     5
 10
288.417296228901
 20
94.32877985221658
 30
0.0
 11
294.5212612342422
 21
94.32915773177469
 31
0.0
  0
LINE
  5
1139
  8
OUTLINE
  6
CONTINUOUS
 62
     3
 10
256.2883298688057
 20
154.091500881054
 30
0.0
 11
256.2968330639924
 21
-95.70057002616767
 31
0.0
  0
LINE
  5
113A
  8
OUTLINE
  6
CONTINUOUS
 62
     3
 10
288.3986759999999
 20
147.8991839999998
 30
0.0
 11
288.4179841910863
 21
-95.67225808208417
 31
0.0
  0
LINE
  5
113B
  8
OUTLINE
  6
CONTINUOUS
 62
     3
 10
288.4031178016395
 20
91.86617573177479
 30
0.0
 11
256.2991303732349
 21
91.86617573177479
 31
0.0
  0
LINE
  5
113C
  8
OUTLINE
  6
CONTINUOUS
 62
     3
 10
288.4177890127094
 20
-93.21009689354622
 30
0.0
 11
256.3050663088578
 21
-93.20960133519924
 31
0.0
  0
LINE
  5
113D
  8
OUTLINE
  6
CONTINUOUS
 62
     3
 10
288.4179841910863
 20
-95.67225808208417
 30
0.0
 11
294.5212612342422
 21
-95.67225808208417
 31
0.0
  0
LINE
  5
113E
  8
OUTLINE
  6
CONTINUOUS
 62
     3
 10
294.5212612342422
 20
-95.67225808208417
 30
0.0
 11
294.5212612342422
 21
-66.17177426822484
 31
0.0
  0
LINE
  5
113F
  8
OUTLINE
  6
CONTINUOUS
 62
     3
 10
294.5212612342422
 20
-66.17177426822484
 30
0.0
 11
302.0113192342423
 21
-62.13490526822481
 31
0.0
  0
LINE
  5
1140
  8
OUTLINE
  6
CONTINUOUS
 62
     3
 10
302.0113192342423
 20
-62.13490526822481
 30
0.0
 11
302.0113192342423
 21
60.79135673177501
 31
0.0
  0
LINE
  5
1141
  8
OUTLINE
  6
CONTINUOUS
 62
     3
 10
302.0113192342423
 20
60.79135673177501
 30
0.0
 11
294.5212612342422
 21
64.82822573177492
 31
0.0
  0
LINE
  5
1142
  8
OUTLINE
  6
CONTINUOUS
 62
     3
 10
294.5212612342422
 20
64.82822573177492
 30
0.0
 11
294.5212612342422
 21
94.32915773177469
 31
0.0
  0
LINE
  5
1143
  8
OUTLINE
  6
CONTINUOUS
 62
     3
 10
294.5212612342422
 20
94.32915773177469
 30
0.0
 11
288.417296228901
 21
94.32877985221658
 31
0.0
  0
LINE
  5
1144
  8
OUTLINE
  6
CONTINUOUS
 62
     3
 10
294.5212612342422
 20
64.82822573177492
 30
0.0
 11
309.0113192342422
 21
64.82822573177502
 31
0.0
  0
LINE
  5
1145
  8
OUTLINE
  6
CONTINUOUS
 62
     3
 10
294.5212612342422
 20
-66.17177426822484
 30
0.0
 11
309.0113192342422
 21
-66.17177426822484
 31
0.0
  0
LINE
  5
1146
  8
OUTLINE
  6
CONTINUOUS
 62
     3
 10
317.0113192342423
 20
-58.17177426822484
 30
0.0
 11
317.0113192342423
 21
56.82822573177504
 31
0.0
  0
ARC
  5
1147
  8
OUTLINE
  6
CONTINUOUS
 62
     3
 10
309.0113192342422
 20
56.82822573177504
 30
0.0
 40
8.0
 50
0.0
 51
90.00000000000082
  0
ARC
  5
1148
  8
OUTLINE
  6
CONTINUOUS
 62
     3
 10
309.0113192342422
 20
-58.17177426822484
 30
0.0
 40
8.0
 50
269.9999999999996
 51
0.0
  0
LINE
  5
1149
  8
OUTLINE
  6
CONTINUOUS
 62
     3
 10
251.2976593735976
 20
89.32756029092958
 30
0.0
 11
251.3044783267014
 21
-90.70076331631225
 31
0.0
  0
ARC
  5
114A
  8
OUTLINE
  6
CONTINUOUS
 62
     3
 10
256.2976593700108
 20
89.32774967649299
 30
0.0
 40
5.0
 50
90.00183764760503
 51
180.0021701987321
  0
ARC
  5
114B
  8
OUTLINE
  6
CONTINUOUS
 62
     3
 10
256.3044783231148
 20
-90.70057393074892
 30
0.0
 40
5.0
 50
180.0021701987321
 51
270.0
  0
LINE
  5
114C
  8
OUTLINE
  6
CONTINUOUS
 62
     3
 10
185.9140158940121
 20
250.3388771906384
 30
0.0
 11
26.07909265636795
 21
250.3388771906384
 31
0.0
  0
LINE
  5
1151
  8
DETAIL
  6
CONTINUOUS
 62
     5
 10
201.5186540748322
 20
-222.8091025178102
 30
0.0
 11
34.10114099999998
 21
-222.8091025178102
 31
0.0
  0
LINE
  5
1152
  8
DETAIL
  6
CONTINUOUS
 62
     5
 10
199.7706048378424
 20
-226.3777740902104
 30
0.0
 11
34.10114099999998
 21
-226.3777740902104
 31
0.0
  0
LINE
  5
1154
  8
DETAIL
  6
CONTINUOUS
 62
     5
 10
199.7028576849127
 20
226.259250260598
 30
0.0
 11
34.10114099999998
 21
226.259250260598
 31
0.0
  0
LINE
  5
1155
  8
OUTLINE
  6
CONTINUOUS
 62
     3
 10
199.7028573412805
 20
226.2449555988267
 30
0.0
 11
26.07909300000005
 21
226.2449555988267
 31
0.0
  0
LINE
  5
1156
  8
OUTLINE
  6
CONTINUOUS
 62
     3
 10
201.5186540748322
 20
-222.8091025178102
 30
0.0
 11
26.07909300000005
 21
-222.8091025178102
 31
0.0
  0
LINE
  5
1157
  8
OUTLINE
  6
CONTINUOUS
 62
     3
 10
185.9889749999999
 20
-250.4758229999997
 30
0.0
 11
26.157149
 21
-250.6646019999997
 31
0.0
  0
LINE
  5
1158
  8
OUTLINE
  6
CONTINUOUS
 62
     3
 10
199.7706044942103
 20
-226.3920687519816
 30
0.0
 11
26.07909265636795
 21
-226.3920687519816
 31
0.0
  0
ENDSEC
  0
EOF
