  0
SECTION
  2
HEADER
  9
$ACADVER
  1
AC1009
  9
$DWGCODEPAGE
  3
ansi_932
  9
$INSBASE
 10
0.0
 20
0.0
 30
0.0
  9
$EXTMIN
 10
-566.3959602609024
 20
-612.1275339999999
 30
0.0
  9
$EXTMAX
 10
1268.61714035382
 20
856.2594220863207
 30
50.0
  9
$LIMMIN
 10
-2970.0
 20
-2100.0
  9
$LIMMAX
 10
2970.0
 20
2100.0
  9
$ORTHOMODE
 70
     1
  9
$REGENMODE
 70
     0
  9
$FILLMODE
 70
     1
  9
$QTEXTMODE
 70
     0
  9
$MIRRTEXT
 70
     0
  9
$DRAGMODE
 70
     2
  9
$LTSCALE
 40
20.0
  9
$OSMODE
 70
    37
  9
$ATTMODE
 70
     1
  9
$TEXTSIZE
 40
64.0
  9
$TRACEWID
 40
0.05
  9
$TEXTSTYLE
  7
STANDARD
  9
$CLAYER
  8
SIZE
  9
$CELTYPE
  6
CONTINUOUS
  9
$CECOLOR
 62
     8
  9
$DIMSCALE
 40
1.0
  9
$DIMASZ
 40
12.0
  9
$DIMEXO
 40
20.0
  9
$DIMDLI
 40
200.0
  9
$DIMRND
 40
0.0
  9
$DIMDLE
 40
0.0
  9
$DIMEXE
 40
20.0
  9
$DIMTP
 40
0.0
  9
$DIMTM
 40
0.0
  9
$DIMTXT
 40
64.0
  9
$DIMCEN
 40
0.09
  9
$DIMTSZ
 40
0.0
  9
$DIMTOL
 70
     0
  9
$DIMLIM
 70
     0
  9
$DIMTIH
 70
     0
  9
$DIMTOH
 70
     0
  9
$DIMSE1
 70
     0
  9
$DIMSE2
 70
     0
  9
$DIMTAD
 70
     1
  9
$DIMZIN
 70
     8
  9
$DIMBLK
  1
DOT1
  9
$DIMASO
 70
     1
  9
$DIMSHO
 70
     0
  9
$DIMPOST
  1

  9
$DIMAPOST
  1

  9
$DIMALT
 70
     0
  9
$DIMALTD
 70
     2
  9
$DIMALTF
 40
25.4
  9
$DIMLFAC
 40
1.0
  9
$DIMTOFL
 70
     1
  9
$DIMTVP
 40
0.0
  9
$DIMTIX
 70
     1
  9
$DIMSOXD
 70
     0
  9
$DIMSAH
 70
     1
  9
$DIMBLK1
  1
ORIGIN
  9
$DIMBLK2
  1
ORIGIN
  9
$DIMSTYLE
  2
STANDARD
  9
$DIMCLRD
 70
     0
  9
$DIMCLRE
 70
     0
  9
$DIMCLRT
 70
     0
  9
$DIMTFAC
 40
1.0
  9
$DIMGAP
 40
0.09
  9
$LUNITS
 70
     2
  9
$LUPREC
 70
     4
  9
$SKETCHINC
 40
0.1
  9
$FILLETRAD
 40
5.0
  9
$AUNITS
 70
     1
  9
$AUPREC
 70
     3
  9
$MENU
  1
ACAD
  9
$ELEVATION
 40
0.0
  9
$PELEVATION
 40
0.0
  9
$THICKNESS
 40
50.0
  9
$LIMCHECK
 70
     0
  9
$CHAMFERA
 40
0.0
  9
$CHAMFERB
 40
0.0
  9
$SKPOLY
 70
     0
  9
$TDCREATE
 40
2452310.657101389
  9
$TDUPDATE
 40
2457485.55569816
  9
$TDINDWG
 40
0.0721651968
  9
$TDUSRTIMER
 40
0.0721650116
  9
$USRTIMER
 70
     1
  9
$ANGBASE
 50
0.0
  9
$ANGDIR
 70
     0
  9
$PDMODE
 70
     3
  9
$PDSIZE
 40
-2.0
  9
$PLINEWID
 40
0.0
  9
$COORDS
 70
     1
  9
$SPLFRAME
 70
     0
  9
$SPLINETYPE
 70
     6
  9
$SPLINESEGS
 70
     8
  9
$ATTDIA
 70
     0
  9
$ATTREQ
 70
     1
  9
$HANDLING
 70
     1
  9
$HANDSEED
  5
2B6
  9
$SURFTAB1
 70
     6
  9
$SURFTAB2
 70
     6
  9
$SURFTYPE
 70
     6
  9
$SURFU
 70
     6
  9
$SURFV
 70
     6
  9
$UCSNAME
  2

  9
$UCSORG
 10
0.0
 20
0.0
 30
0.0
  9
$UCSXDIR
 10
1.0
 20
0.0
 30
0.0
  9
$UCSYDIR
 10
0.0
 20
1.0
 30
0.0
  9
$PUCSNAME
  2

  9
$PUCSORG
 10
0.0
 20
0.0
 30
0.0
  9
$PUCSXDIR
 10
1.0
 20
0.0
 30
0.0
  9
$PUCSYDIR
 10
0.0
 20
1.0
 30
0.0
  9
$USERI1
 70
     0
  9
$USERI2
 70
     0
  9
$USERI3
 70
     0
  9
$USERI4
 70
     0
  9
$USERI5
 70
     0
  9
$USERR1
 40
20.0
  9
$USERR2
 40
0.0
  9
$USERR3
 40
0.0
  9
$USERR4
 40
0.0
  9
$USERR5
 40
0.0
  9
$WORLDVIEW
 70
     1
  9
$SHADEDGE
 70
     3
  9
$SHADEDIF
 70
    70
  9
$TILEMODE
 70
     1
  9
$MAXACTVP
 70
    64
  9
$PLIMCHECK
 70
     0
  9
$PEXTMIN
 10
1.000000000000000E+20
 20
1.000000000000000E+20
 30
1.000000000000000E+20
  9
$PEXTMAX
 10
-1.000000000000000E+20
 20
-1.000000000000000E+20
 30
-1.000000000000000E+20
  9
$PLIMMIN
 10
0.0
 20
0.0
  9
$PLIMMAX
 10
12.0
 20
9.0
  9
$UNITMODE
 70
     0
  9
$VISRETAIN
 70
     1
  9
$PLINEGEN
 70
     0
  9
$PSLTSCALE
 70
     1
  0
ENDSEC
  0
SECTION
  2
TABLES
  0
TABLE
  2
VPORT
 70
     1
  0
VPORT
  2
*ACTIVE
 70
     0
 10
0.0
 20
0.0
 11
1.0
 21
1.0
 12
176.4638091447165
 22
110.6960089344198
 13
0.0
 23
0.0
 14
1.0
 24
1.0
 15
0.0
 25
0.0
 16
0.0
 26
0.0
 36
1.0
 17
0.0
 27
0.0
 37
0.0
 40
1950.923843283116
 41
1.447268106734434
 42
50.0
 43
0.0
 44
0.0
 50
0.0
 51
0.0
 71
     0
 72
   100
 73
     1
 74
     0
 75
     0
 76
     0
 77
     0
 78
     0
  0
ENDTAB
  0
TABLE
  2
LTYPE
 70
     2
  0
LTYPE
  2
CONTINUOUS
 70
     0
  3
実線
 72
    65
 73
     0
 40
0.0
  0
LTYPE
  2
DASHDOT
 70
     0
  3
____ _ ____ _ ____ _ ____ _ ____ _ ____ _ ____
 72
    65
 73
     4
 40
5.5
 49
4.0
 49
-0.6
 49
0.3
 49
-0.6
  0
ENDTAB
  0
TABLE
  2
LAYER
 70
    12
  0
LAYER
  2
0
 70
     0
 62
     7
  6
CONTINUOUS
  0
LAYER
  2
SIZE
 70
     0
 62
    30
  6
CONTINUOUS
  0
LAYER
  2
BASIS
 70
     0
 62
     6
  6
DASHDOT
  0
LAYER
  2
OUTLINE
 70
     0
 62
     3
  6
CONTINUOUS
  0
LAYER
  2
DETAIL
 70
     0
 62
     5
  6
CONTINUOUS
  0
LAYER
  2
ARRANGE
 70
     0
 62
     1
  6
CONTINUOUS
  0
LAYER
  2
DEFPOINTS
 70
     0
 62
     7
  6
CONTINUOUS
  0
LAYER
  2
ETC
 70
     0
 62
    61
  6
CONTINUOUS
  0
LAYER
  2
FIX
 70
     0
 62
    11
  6
CONTINUOUS
  0
LAYER
  2
NOTE
 70
     0
 62
     4
  6
CONTINUOUS
  0
LAYER
  2
SERVICESPACE
 70
     0
 62
     2
  6
DASHDOT
  0
LAYER
  2
SYMBOLLINE
 70
     0
 62
    15
  6
CONTINUOUS
  0
ENDTAB
  0
TABLE
  2
STYLE
 70
     1
  0
STYLE
  2
STANDARD
 70
     0
 40
64.0
 41
0.9
 50
0.0
 71
     0
 42
64.0
  3
SIMPLEX.shx
  4
BIGFONT.shx
  0
ENDTAB
  0
TABLE
  2
VIEW
 70
     1
  0
VIEW
  2
ALL
 70
     0
 40
4282.619807999998
 10
0.0
 20
41.30990399999999
 41
5940.0
 11
0.0
 21
0.0
 31
1.0
 12
0.0
 22
0.0
 32
0.0
 42
50.0
 43
0.0
 44
0.0
 50
0.0
 71
     0
  0
ENDTAB
  0
TABLE
  2
UCS
 70
     0
  0
ENDTAB
  0
TABLE
  2
APPID
 70
     1
  0
APPID
  2
ACAD
 70
     0
  0
ENDTAB
  0
TABLE
  2
DIMSTYLE
 70
     1
  0
DIMSTYLE
  2
STANDARD
 70
     0
  3

  4

  5

  6

  7

 40
1.0
 41
0.18
 42
0.0625
 43
0.38
 44
0.18
 45
0.0
 46
0.0
 47
0.0
 48
0.0
140
0.18
141
0.09
142
0.0
143
25.4
144
1.0
145
0.0
146
1.0
147
0.09
 71
     0
 72
     0
 73
     1
 74
     1
 75
     0
 76
     0
 77
     0
 78
     0
170
     0
171
     2
172
     0
173
     0
174
     0
175
     0
176
     0
177
     0
178
     0
  0
ENDTAB
  0
ENDSEC
  0
SECTION
  2
BLOCKS
  0
BLOCK
  8
0
  2
$MODEL_SPACE
 70
     0
 10
0.0
 20
0.0
 30
0.0
  3
$MODEL_SPACE
  1

  0
ENDBLK
  5
13C
  8
0
  0
BLOCK
 67
     1
  8
0
  2
$PAPER_SPACE
 70
     0
 10
0.0
 20
0.0
 30
0.0
  3
$PAPER_SPACE
  1

  0
ENDBLK
  5
138
 67
     1
  8
0
  0
BLOCK
  8
0
  2
DOT1
 70
     0
 10
0.0
 20
0.0
 30
0.0
  3
DOT1
  1

  0
CIRCLE
  5
157
  8
SIZE
  6
CONTINUOUS
 62
     7
 10
0.0
 20
0.0
 30
0.0
 40
3.0
  0
ENDBLK
  5
158
  8
0
  0
BLOCK
  8
0
  2
_ORIGIN
 70
     0
 10
0.0
 20
0.0
 30
0.0
  3
_ORIGIN
  1

  0
CIRCLE
  5
15B
  8
0
  6
CONTINUOUS
 62
     7
 10
0.0
 20
0.0
 30
0.0
 40
0.5
  0
LINE
  5
15C
  8
0
  6
CONTINUOUS
 62
     7
 10
0.0
 20
0.0
 30
0.0
 11
-1.0
 21
0.0
 31
0.0
  0
ENDBLK
  5
15D
  8
0
  0
ENDSEC
  0
SECTION
  2
ENTITIES
  0
LINE
  5
15E
  8
BASIS
  6
DASHDOT
 62
     6
 10
0.0
 20
390.447285
 30
0.0
 11
0.0
 21
-391.761544
 31
0.0
  0
LINE
  5
15F
  8
BASIS
  6
DASHDOT
 62
     6
 10
-399.2959159999998
 20
0.0
 30
0.0
 11
399.9370540000001
 21
0.0
 31
0.0
  0
LINE
  5
160
  8
DETAIL
  6
CONTINUOUS
 62
     5
 10
310.000002
 20
280.000002
 30
0.0
 11
310.000002
 21
-280.000002
 31
0.0
  0
LINE
  5
161
  8
DETAIL
  6
CONTINUOUS
 62
     5
 10
-310.0000019999998
 20
280.000002
 30
0.0
 11
-310.0000019999998
 21
-280.000002
 31
0.0
  0
LINE
  5
162
  8
DETAIL
  6
CONTINUOUS
 62
     5
 10
-280.0000019999998
 20
310.0000019999999
 30
0.0
 11
280.0000019999999
 21
310.0000019999999
 31
0.0
  0
LINE
  5
163
  8
DETAIL
  6
CONTINUOUS
 62
     5
 10
-280.0000019999998
 20
-310.0000019999999
 30
0.0
 11
280.0000019999999
 21
-310.0000019999999
 31
0.0
  0
LINE
  5
164
  8
NOTE
  6
CONTINUOUS
 62
     4
 10
279.9999999999999
 20
260.0
 30
0.0
 11
279.9999999999999
 21
300.0
 31
0.0
  0
LINE
  5
165
  8
NOTE
  6
CONTINUOUS
 62
     4
 10
259.9999999999999
 20
280.0
 30
0.0
 11
300.0
 21
280.0
 31
0.0
  0
LINE
  5
166
  8
NOTE
  6
CONTINUOUS
 62
     4
 10
279.9999999999999
 20
-300.0
 30
0.0
 11
279.9999999999999
 21
-260.0
 31
0.0
  0
LINE
  5
167
  8
NOTE
  6
CONTINUOUS
 62
     4
 10
259.9999999999999
 20
-280.0
 30
0.0
 11
300.0
 21
-280.0
 31
0.0
  0
LINE
  5
168
  8
NOTE
  6
CONTINUOUS
 62
     4
 10
-279.9999999999998
 20
-300.0
 30
0.0
 11
-279.9999999999998
 21
-260.0
 31
0.0
  0
LINE
  5
169
  8
NOTE
  6
CONTINUOUS
 62
     4
 10
-299.9999999999998
 20
-280.0
 30
0.0
 11
-259.9999999999998
 21
-280.0
 31
0.0
  0
LINE
  5
16A
  8
NOTE
  6
CONTINUOUS
 62
     4
 10
-279.9999999999998
 20
260.0
 30
0.0
 11
-279.9999999999998
 21
300.0
 31
0.0
  0
LINE
  5
16B
  8
NOTE
  6
CONTINUOUS
 62
     4
 10
-299.9999999999998
 20
280.0
 30
0.0
 11
-259.9999999999998
 21
280.0
 31
0.0
  0
TEXT
  5
16C
  8
NOTE
  6
CONTINUOUS
 62
     4
 10
-675.7617119999999
 20
444.0883669999999
 30
0.0
 40
64.0
  1
4-φ14
 41
0.9
  0
LINE
  5
16D
  8
NOTE
  6
CONTINUOUS
 62
     4
 10
-704.065321
 20
418.9888179999999
 30
0.0
 11
-386.9558459999998
 21
418.9888179999999
 31
0.0
  0
LINE
  5
16E
  8
NOTE
  6
CONTINUOUS
 62
     4
 10
-279.9999999999998
 20
280.0
 30
0.0
 11
-386.9558459999998
 21
418.9888179999999
 31
0.0
  0
LINE
  5
16F
  8
NOTE
  6
CONTINUOUS
 62
     4
 10
-311.9591449999998
 20
304.0543769999998
 30
0.0
 11
-279.9999999999998
 21
280.0
 31
0.0
  0
LINE
  5
170
  8
NOTE
  6
CONTINUOUS
 62
     4
 10
-279.9999999999998
 20
280.0
 30
0.0
 11
-295.6502419999998
 21
316.8112740000001
 31
0.0
  0
POINT
  5
171
  8
ARRANGE
  6
CONTINUOUS
 62
     1
 10
0.0
 20
0.0
 30
0.0
  0
CIRCLE
  5
172
  8
ARRANGE
  6
CONTINUOUS
 62
     1
 10
0.0
 20
0.0
 30
0.0
 40
40.0
  0
LINE
  5
173
  8
SIZE
  6
CONTINUOUS
 62
    30
 10
279.9999999999999
 20
320.0
 30
0.0
 11
279.9999999999999
 21
496.0316879999999
 31
0.0
  0
LINE
  5
174
  8
SIZE
  6
CONTINUOUS
 62
    30
 10
-279.9999999999998
 20
320.0
 30
0.0
 11
-279.9999999999998
 21
496.0316879999999
 31
0.0
  0
LINE
  5
175
  8
SIZE
  6
CONTINUOUS
 62
    30
 10
267.9999999999999
 20
476.0316879999999
 30
0.0
 11
-267.9999999999998
 21
476.0316879999999
 31
0.0
  0
CIRCLE
  5
176
  8
SIZE
  6
CONTINUOUS
 62
    30
 10
279.9999999999999
 20
476.0316879999999
 30
0.0
 40
6.0
  0
LINE
  5
177
  8
SIZE
  6
CONTINUOUS
 62
    30
 10
279.9999999999999
 20
476.0316879999999
 30
0.0
 11
267.9999999999999
 21
476.0316879999999
 31
0.0
  0
CIRCLE
  5
178
  8
SIZE
  6
CONTINUOUS
 62
    30
 10
-279.9999999999998
 20
476.0316879999999
 30
0.0
 40
6.0
  0
LINE
  5
179
  8
SIZE
  6
CONTINUOUS
 62
    30
 10
-279.9999999999998
 20
476.0316879999999
 30
0.0
 11
-267.9999999999998
 21
476.0316879999999
 31
0.0
  0
TEXT
  5
17A
  8
SIZE
  6
CONTINUOUS
 62
    30
 10
-82.28571428571429
 20
501.0316879999999
 30
0.0
 40
64.0
  1
560
 41
0.9
 72
     1
 11
0.0
 21
501.0316879999999
 31
0.0
  0
POINT
  5
17B
  8
DEFPOINTS
  6
CONTINUOUS
 62
    30
 10
279.9999999999999
 20
300.0
 30
0.0
  0
POINT
  5
17C
  8
DEFPOINTS
  6
CONTINUOUS
 62
    30
 10
-279.9999999999998
 20
300.0
 30
0.0
  0
POINT
  5
17D
  8
DEFPOINTS
  6
CONTINUOUS
 62
    30
 10
-279.9999999999998
 20
476.0316879999999
 30
0.0
  0
LINE
  5
17E
  8
SIZE
  6
CONTINUOUS
 62
    30
 10
310.000002
 20
306.1538479999999
 30
0.0
 11
310.000002
 21
622.5476539999999
 31
0.0
  0
LINE
  5
17F
  8
SIZE
  6
CONTINUOUS
 62
    30
 10
-310.0000019999998
 20
306.1538479999999
 30
0.0
 11
-310.0000019999998
 21
622.5476539999999
 31
0.0
  0
LINE
  5
180
  8
SIZE
  6
CONTINUOUS
 62
    30
 10
298.000002
 20
602.5476539999999
 30
0.0
 11
-298.0000019999998
 21
602.5476539999999
 31
0.0
  0
CIRCLE
  5
181
  8
SIZE
  6
CONTINUOUS
 62
    30
 10
310.000002
 20
602.5476539999999
 30
0.0
 40
6.0
  0
LINE
  5
182
  8
SIZE
  6
CONTINUOUS
 62
    30
 10
310.000002
 20
602.5476539999999
 30
0.0
 11
298.000002
 21
602.5476539999999
 31
0.0
  0
CIRCLE
  5
183
  8
SIZE
  6
CONTINUOUS
 62
    30
 10
-310.0000019999998
 20
602.5476539999999
 30
0.0
 40
6.0
  0
LINE
  5
184
  8
SIZE
  6
CONTINUOUS
 62
    30
 10
-310.0000019999998
 20
602.5476539999999
 30
0.0
 11
-298.0000019999998
 21
602.5476539999999
 31
0.0
  0
TEXT
  5
185
  8
SIZE
  6
CONTINUOUS
 62
    30
 10
-83.65714285714286
 20
627.5476539999999
 30
0.0
 40
64.0
  1
620
 41
0.9
 72
     1
 11
0.0
 21
627.5476539999999
 31
0.0
  0
POINT
  5
186
  8
DEFPOINTS
  6
CONTINUOUS
 62
    30
 10
310.000002
 20
286.1538479999999
 30
0.0
  0
POINT
  5
187
  8
DEFPOINTS
  6
CONTINUOUS
 62
    30
 10
-310.0000019999998
 20
286.1538479999999
 30
0.0
  0
POINT
  5
188
  8
DEFPOINTS
  6
CONTINUOUS
 62
    30
 10
-310.0000019999998
 20
602.5476539999999
 30
0.0
  0
LINE
  5
189
  8
SIZE
  6
CONTINUOUS
 62
    30
 10
310.606602
 20
280.0
 30
0.0
 11
584.1368090000001
 21
280.0
 31
0.0
  0
LINE
  5
18A
  8
SIZE
  6
CONTINUOUS
 62
    30
 10
320.0
 20
-280.0
 30
0.0
 11
584.1368090000001
 21
-280.0
 31
0.0
  0
LINE
  5
18B
  8
SIZE
  6
CONTINUOUS
 62
    30
 10
564.1368090000001
 20
268.0
 30
0.0
 11
564.1368090000001
 21
-268.0
 31
0.0
  0
CIRCLE
  5
18C
  8
SIZE
  6
CONTINUOUS
 62
    30
 10
564.1368090000001
 20
280.0
 30
0.0
 40
6.0
  0
LINE
  5
18D
  8
SIZE
  6
CONTINUOUS
 62
    30
 10
564.1368090000001
 20
280.0
 30
0.0
 11
564.1368090000001
 21
268.0
 31
0.0
  0
CIRCLE
  5
18E
  8
SIZE
  6
CONTINUOUS
 62
    30
 10
564.1368090000001
 20
-280.0
 30
0.0
 40
6.0
  0
LINE
  5
18F
  8
SIZE
  6
CONTINUOUS
 62
    30
 10
564.1368090000001
 20
-280.0
 30
0.0
 11
564.1368090000001
 21
-268.0
 31
0.0
  0
TEXT
  5
190
  8
SIZE
  6
CONTINUOUS
 62
    30
 10
539.1368090000001
 20
-82.28571428571429
 30
0.0
 40
64.0
  1
560
 50
90.0
 41
0.9
 72
     1
 11
539.1368090000001
 21
0.0
 31
0.0
  0
POINT
  5
191
  8
DEFPOINTS
  6
CONTINUOUS
 62
    30
 10
290.606602
 20
280.0
 30
0.0
  0
POINT
  5
192
  8
DEFPOINTS
  6
CONTINUOUS
 62
    30
 10
300.0
 20
-280.0
 30
0.0
  0
POINT
  5
193
  8
DEFPOINTS
  6
CONTINUOUS
 62
    30
 10
564.1368090000001
 20
-280.0
 30
0.0
  0
LINE
  5
194
  8
SIZE
  6
CONTINUOUS
 62
    30
 10
306.1538480000002
 20
310.0000019999999
 30
0.0
 11
725.624044
 21
310.0000019999999
 31
0.0
  0
LINE
  5
195
  8
SIZE
  6
CONTINUOUS
 62
    30
 10
306.1538480000002
 20
-310.0000019999999
 30
0.0
 11
725.624044
 21
-310.0000019999999
 31
0.0
  0
LINE
  5
196
  8
SIZE
  6
CONTINUOUS
 62
    30
 10
705.624044
 20
298.0000019999998
 30
0.0
 11
705.624044
 21
-298.0000019999998
 31
0.0
  0
CIRCLE
  5
197
  8
SIZE
  6
CONTINUOUS
 62
    30
 10
705.624044
 20
310.0000019999999
 30
0.0
 40
6.0
  0
LINE
  5
198
  8
SIZE
  6
CONTINUOUS
 62
    30
 10
705.624044
 20
310.0000019999999
 30
0.0
 11
705.624044
 21
298.0000019999998
 31
0.0
  0
CIRCLE
  5
199
  8
SIZE
  6
CONTINUOUS
 62
    30
 10
705.624044
 20
-310.0000019999999
 30
0.0
 40
6.0
  0
LINE
  5
19A
  8
SIZE
  6
CONTINUOUS
 62
    30
 10
705.624044
 20
-310.0000019999999
 30
0.0
 11
705.624044
 21
-298.0000019999998
 31
0.0
  0
TEXT
  5
19B
  8
SIZE
  6
CONTINUOUS
 62
    30
 10
680.624044
 20
-83.65714285714286
 30
0.0
 40
64.0
  1
620
 50
90.0
 41
0.9
 72
     1
 11
680.624044
 21
0.0
 31
0.0
  0
POINT
  5
19C
  8
DEFPOINTS
  6
CONTINUOUS
 62
    30
 10
286.1538480000002
 20
310.0000019999999
 30
0.0
  0
POINT
  5
19D
  8
DEFPOINTS
  6
CONTINUOUS
 62
    30
 10
286.1538480000002
 20
-310.0000019999999
 30
0.0
  0
POINT
  5
19E
  8
DEFPOINTS
  6
CONTINUOUS
 62
    30
 10
705.624044
 20
-310.0000019999999
 30
0.0
  0
ARC
  5
19F
  8
DETAIL
  6
CONTINUOUS
 62
     5
 10
-280.0000019999998
 20
280.000002
 30
0.0
 40
30.0
 50
90.0
 51
180.0
  0
ARC
  5
1A0
  8
DETAIL
  6
CONTINUOUS
 62
     5
 10
-280.0000019999998
 20
-280.000002
 30
0.0
 40
30.0
 50
180.0
 51
270.0
  0
ARC
  5
1A1
  8
DETAIL
  6
CONTINUOUS
 62
     5
 10
280.0000019999999
 20
-280.000002
 30
0.0
 40
30.0
 50
270.0
 51
0.0
  0
ARC
  5
1A2
  8
DETAIL
  6
CONTINUOUS
 62
     5
 10
280.0000019999999
 20
280.000002
 30
0.0
 40
30.0
 50
0.0
 51
90.0
  0
CIRCLE
  5
1A3
  8
DETAIL
  6
CONTINUOUS
 62
     5
 10
-279.9999999999998
 20
280.0
 30
0.0
 40
7.0
  0
CIRCLE
  5
1A4
  8
FIX
  6
CONTINUOUS
 62
    11
 39
50.0
 10
-279.9999999999998
 20
280.0
 30
0.0
 40
7.0
  0
CIRCLE
  5
1A5
  8
FIX
  6
CONTINUOUS
 62
    11
 39
50.0
 10
279.9999999999999
 20
280.0
 30
0.0
 40
7.0
  0
CIRCLE
  5
1A6
  8
DETAIL
  6
CONTINUOUS
 62
     5
 10
279.9999999999999
 20
280.0
 30
0.0
 40
7.0
  0
CIRCLE
  5
1A7
  8
FIX
  6
CONTINUOUS
 62
    11
 39
50.0
 10
279.9999999999999
 20
-280.0
 30
0.0
 40
7.0
  0
CIRCLE
  5
1A8
  8
DETAIL
  6
CONTINUOUS
 62
     5
 10
279.9999999999999
 20
-280.0
 30
0.0
 40
7.0
  0
CIRCLE
  5
1A9
  8
FIX
  6
CONTINUOUS
 62
    11
 39
50.0
 10
-279.9999999999998
 20
-280.0
 30
0.0
 40
7.0
  0
CIRCLE
  5
1AA
  8
DETAIL
  6
CONTINUOUS
 62
     5
 10
-279.9999999999998
 20
-280.0
 30
0.0
 40
7.0
  0
LINE
  5
1AB
  8
OUTLINE
  6
CONTINUOUS
 62
     3
 10
-280.0000019999998
 20
310.0000019999999
 30
0.0
 11
280.0000019999999
 21
310.0000019999999
 31
0.0
  0
LINE
  5
1AC
  8
OUTLINE
  6
CONTINUOUS
 62
     3
 10
-280.0000019999998
 20
-310.0000019999999
 30
0.0
 11
280.0000019999999
 21
-310.0000019999999
 31
0.0
  0
LINE
  5
1AD
  8
OUTLINE
  6
CONTINUOUS
 62
     3
 10
-310.0000019999998
 20
280.000002
 30
0.0
 11
-310.0000019999998
 21
-280.000002
 31
0.0
  0
ARC
  5
1AE
  8
OUTLINE
  6
CONTINUOUS
 62
     3
 10
-280.0000019999998
 20
-280.000002
 30
0.0
 40
30.0
 50
180.0
 51
270.0
  0
ARC
  5
1AF
  8
OUTLINE
  6
CONTINUOUS
 62
     3
 10
-280.0000019999998
 20
280.000002
 30
0.0
 40
30.0
 50
90.0
 51
180.0
  0
LINE
  5
1B0
  8
OUTLINE
  6
CONTINUOUS
 62
     3
 10
310.000002
 20
280.000002
 30
0.0
 11
310.000002
 21
-280.000002
 31
0.0
  0
ARC
  5
1B1
  8
OUTLINE
  6
CONTINUOUS
 62
     3
 10
280.0000019999999
 20
-280.000002
 30
0.0
 40
30.0
 50
270.0
 51
0.0
  0
ARC
  5
1B2
  8
OUTLINE
  6
CONTINUOUS
 62
     3
 10
280.0000019999999
 20
280.000002
 30
0.0
 40
30.0
 50
0.0
 51
90.0
  0
LINE
  5
1B3
  8
SIZE
  6
CONTINUOUS
 62
    30
 10
254.9999999999999
 20
-20.0
 30
0.0
 11
254.9999999999999
 21
-545.368206
 31
0.0
  0
LINE
  5
1B4
  8
SIZE
  6
CONTINUOUS
 62
    30
 10
-254.9999999999998
 20
-20.0
 30
0.0
 11
-254.9999999999998
 21
-545.368206
 31
0.0
  0
LINE
  5
1B5
  8
SIZE
  6
CONTINUOUS
 62
    30
 10
242.9999999999999
 20
-525.368206
 30
0.0
 11
-242.9999999999998
 21
-525.368206
 31
0.0
  0
CIRCLE
  5
1B6
  8
SIZE
  6
CONTINUOUS
 62
    30
 10
254.9999999999999
 20
-525.368206
 30
0.0
 40
6.0
  0
LINE
  5
1B7
  8
SIZE
  6
CONTINUOUS
 62
    30
 10
254.9999999999999
 20
-525.368206
 30
0.0
 11
242.9999999999999
 21
-525.368206
 31
0.0
  0
CIRCLE
  5
1B8
  8
SIZE
  6
CONTINUOUS
 62
    30
 10
-254.9999999999998
 20
-525.368206
 30
0.0
 40
6.0
  0
LINE
  5
1B9
  8
SIZE
  6
CONTINUOUS
 62
    30
 10
-254.9999999999998
 20
-525.368206
 30
0.0
 11
-242.9999999999998
 21
-525.368206
 31
0.0
  0
TEXT
  5
1BA
  8
SIZE
  6
CONTINUOUS
 62
    30
 10
-106.9714285714286
 20
-500.368206
 30
0.0
 40
64.0
  1
φ510
 41
0.9
 72
     1
 11
0.0
 21
-500.368206
 31
0.0
  0
POINT
  5
1BB
  8
DEFPOINTS
  6
CONTINUOUS
 62
    30
 10
254.9999999999999
 20
0.0
 30
0.0
  0
POINT
  5
1BC
  8
DEFPOINTS
  6
CONTINUOUS
 62
    30
 10
-254.9999999999998
 20
0.0
 30
0.0
  0
POINT
  5
1BD
  8
DEFPOINTS
  6
CONTINUOUS
 62
    30
 10
-254.9999999999998
 20
-525.368206
 30
0.0
  0
CIRCLE
  5
1BE
  8
DETAIL
  6
CONTINUOUS
 62
     5
 10
0.0
 20
0.0
 30
0.0
 40
255.0
  0
ARC
  5
1BF
  8
DETAIL
  6
CONTINUOUS
 62
     5
 10
0.0
 20
0.0
 30
0.0
 40
250.0
 50
165.8158989999998
 51
229.1887499999999
  0
ARC
  5
1C0
  8
DETAIL
  6
CONTINUOUS
 62
     5
 10
0.0
 20
0.0
 30
0.0
 40
250.0
 50
291.2675029999999
 51
3.123984999999991
  0
CIRCLE
  5
1C1
  8
DETAIL
  6
CONTINUOUS
 62
     5
 10
0.0
 20
0.0
 30
0.0
 40
65.5
  0
ARC
  5
1C2
  8
DETAIL
  6
CONTINUOUS
 62
     5
 10
-73.20088799999994
 20
128.317974
 30
0.0
 40
164.150591
 50
203.5293489999999
 51
276.2090799999999
  0
LINE
  5
1C3
  8
DETAIL
  6
CONTINUOUS
 62
     5
 10
-94.99999999999993
 20
58.42659600000001
 30
0.0
 11
-94.99999999999993
 21
-34.378723
 31
0.0
  0
ARC
  5
1C4
  8
DETAIL
  6
CONTINUOUS
 62
     5
 10
-0.000001999999995
 20
172.0164499999999
 30
0.0
 40
267.01645
 50
267.4300479999998
 51
284.8166349999999
  0
ARC
  5
1C5
  8
DETAIL
  6
CONTINUOUS
 62
     5
 10
-44.75404699999994
 20
-164.857297
 30
0.0
 40
137.756089
 50
335.4059049999999
 51
53.57272100000001
  0
ARC
  5
1C6
  8
DETAIL
  6
CONTINUOUS
 62
     5
 10
-198.7520229999999
 20
28.816953
 30
0.0
 40
223.9435049999999
 50
280.901931
 51
335.1342159999999
  0
ARC
  5
1C7
  8
DETAIL
  6
CONTINUOUS
 62
     5
 10
-157.9676829999999
 20
-182.9346909999999
 30
0.0
 40
8.3
 50
229.1887500000001
 51
280.9019310000002
  0
LINE
  5
1C8
  8
DETAIL
  6
CONTINUOUS
 62
     5
 10
-171.7205749999999
 20
-188.5127159999999
 30
0.0
 11
-168.1812819999999
 21
-184.973124
 31
0.0
  0
LINE
  5
1C9
  8
DETAIL
  6
CONTINUOUS
 62
     5
 10
-178.5698719999999
 20
-174.965142
 30
0.0
 11
-182.1054629999999
 21
-178.500981
 31
0.0
  0
LINE
  5
1CA
  8
DETAIL
  6
CONTINUOUS
 62
     5
 10
-174.9703799999999
 20
-178.56474
 30
0.0
 11
-178.5059689999999
 21
-182.1005729999999
 31
0.0
  0
ARC
  5
1CB
  8
DETAIL
  6
CONTINUOUS
 62
     5
 10
87.77890400000001
 20
-225.519099
 30
0.0
 40
8.0
 50
155.405905
 51
291.267503
  0
LINE
  5
1CC
  8
DETAIL
  6
CONTINUOUS
 62
     5
 10
172.3124719999999
 20
-181.1309249999999
 30
0.0
 11
175.976833
 21
-184.5458049999998
 31
0.0
  0
LINE
  5
1CD
  8
DETAIL
  6
CONTINUOUS
 62
     5
 10
175.9670449999999
 20
-177.5826539999999
 30
0.0
 11
179.627747
 21
-180.9941219999998
 31
0.0
  0
ARC
  5
1CE
  8
DETAIL
  6
CONTINUOUS
 62
     5
 10
-232.7801639999999
 20
58.83371
 30
0.0
 40
9.9
 50
23.52934900000002
 51
165.8158989999998
  0
ARC
  5
1CF
  8
DETAIL
  6
CONTINUOUS
 62
     5
 10
-0.000001999999995
 20
-172.0164499999999
 30
0.0
 40
267.01645
 50
69.15853899999999
 51
89.85738799999999
  0
ARC
  5
1D0
  8
DETAIL
  6
CONTINUOUS
 62
     5
 10
142.8767000000001
 20
49.820907
 30
0.0
 40
149.215794
 50
97.75039699999999
 51
174.0589579999999
  0
ARC
  5
1D1
  8
DETAIL
  6
CONTINUOUS
 62
     5
 10
0.0
 20
0.0
 30
0.0
 40
250.0
 50
59.750765
 51
123.1252229999999
  0
LINE
  5
1D2
  8
DETAIL
  6
CONTINUOUS
 62
     5
 10
-130.4147949999999
 20
142.085786
 30
0.0
 11
-175.9768329999999
 21
184.5458049999998
 31
0.0
  0
LINE
  5
1D3
  8
DETAIL
  6
CONTINUOUS
 62
     5
 10
-128.7975829999999
 20
133.6246649999999
 30
0.0
 11
-179.6277469999999
 21
180.9941219999998
 31
0.0
  0
ARC
  5
1D4
  8
DETAIL
  6
CONTINUOUS
 62
     5
 10
59.08366099999989
 20
204.3234809999999
 30
0.0
 40
199.457253
 50
180.4112350000001
 51
198.181927
  0
ARC
  5
1D5
  8
DETAIL
  6
CONTINUOUS
 62
     5
 10
110.0325809999999
 20
195.772129
 30
0.0
 40
246.7836189999999
 50
194.585816
 51
225.6219079999998
  0
LINE
  5
1D6
  8
DETAIL
  6
CONTINUOUS
 62
     5
 10
-130.4147949999999
 20
142.085786
 30
0.0
 11
-128.7975829999999
 21
133.6246649999999
 31
0.0
  0
ARC
  5
1D7
  8
DETAIL
  6
CONTINUOUS
 62
     5
 10
-132.0819669999999
 20
202.418487
 30
0.0
 40
8.3
 50
123.1252229999998
 51
176.7301540000002
  0
LINE
  5
1D8
  8
DETAIL
  6
CONTINUOUS
 62
     5
 10
96.59118000000001
 20
103.6109929999999
 30
0.0
 11
179.627747
 21
180.9941219999998
 31
0.0
  0
LINE
  5
1D9
  8
DETAIL
  6
CONTINUOUS
 62
     5
 10
91.5006789999999
 20
105.821076
 30
0.0
 11
175.976833
 21
184.5458049999998
 31
0.0
  0
ARC
  5
1DA
  8
DETAIL
  6
CONTINUOUS
 62
     5
 10
116.8358490000001
 20
-164.651703
 30
0.0
 40
225.377668
 50
55.001825
 51
95.559857
  0
LINE
  5
1DB
  8
DETAIL
  6
CONTINUOUS
 62
     5
 10
89.9094999999999
 20
79.407626
 30
0.0
 11
89.9094999999999
 21
102.1632149999999
 31
0.0
  0
LINE
  5
1DC
  8
DETAIL
  6
CONTINUOUS
 62
     5
 10
95.00000000000011
 20
77.528705
 30
0.0
 11
95.00000000000011
 21
99.953132
 31
0.0
  0
ARC
  5
1DD
  8
DETAIL
  6
CONTINUOUS
 62
     5
 10
152.085792
 20
-74.12252999999998
 30
0.0
 40
145.4581499999999
 50
113.107349
 51
131.5757279999999
  0
LINE
  5
1DE
  8
DETAIL
  6
CONTINUOUS
 62
     5
 10
95.00000000000011
 20
77.528705
 30
0.0
 11
95.00000000000011
 21
59.665682
 31
0.0
  0
ARC
  5
1DF
  8
DETAIL
  6
CONTINUOUS
 62
     5
 10
94.9094999999999
 20
102.1632149999999
 30
0.0
 40
5.0
 50
132.9816529999998
 51
180.0
  0
ARC
  5
1E0
  8
DETAIL
  6
CONTINUOUS
 62
     5
 10
99.99999999999991
 20
99.953132
 30
0.0
 40
5.0
 50
132.9816429999999
 51
180.0
  0
ARC
  5
1E1
  8
DETAIL
  6
CONTINUOUS
 62
     5
 10
241.34082
 20
13.171879
 30
0.0
 40
8.3
 50
3.123984999999991
 51
55.00182500000005
  0
ARC
  5
1E2
  8
DETAIL
  6
CONTINUOUS
 62
     5
 10
120.953364
 20
207.4085189999999
 30
0.0
 40
9.9
 50
280.4781719999997
 51
59.75076500000004
  0
LINE
  5
1E3
  8
SIZE
  6
CONTINUOUS
 62
    30
 10
389.678053
 20
-612.1275339999999
 30
0.0
 11
140.6979600000001
 21
-221.016027
 31
0.0
  0
LINE
  5
1E4
  8
SIZE
  6
CONTINUOUS
 62
    30
 10
-140.6979599999999
 20
221.0160259999999
 30
0.0
 11
-147.1421409999999
 21
231.138898
 31
0.0
  0
TEXT
  5
1E5
  8
SIZE
  6
CONTINUOUS
 62
    30
 10
286.1338537999827
 20
-402.9209765974711
 30
0.0
 40
64.0
  1
φ500
 50
302.4806579999999
 41
0.9
 72
     1
 11
343.5791009999999
 21
-493.1591619999999
 31
0.0
  0
LINE
  5
1E6
  8
SIZE
  6
CONTINUOUS
 62
    30
 10
-134.2537779999999
 20
210.8931549999998
 30
0.0
 11
134.253778
 21
-210.893156
 31
0.0
  0
CIRCLE
  5
1E7
  8
SIZE
  6
CONTINUOUS
 62
    30
 10
-134.2537779999999
 20
210.8931549999998
 30
0.0
 40
6.0
  0
LINE
  5
1E8
  8
SIZE
  6
CONTINUOUS
 62
    30
 10
-134.2537779999999
 20
210.8931549999998
 30
0.0
 11
-140.6979589999999
 21
221.0160259999999
 31
0.0
  0
CIRCLE
  5
1E9
  8
SIZE
  6
CONTINUOUS
 62
    30
 10
134.253778
 20
-210.893156
 30
0.0
 40
6.0
  0
LINE
  5
1EA
  8
SIZE
  6
CONTINUOUS
 62
    30
 10
134.253778
 20
-210.893156
 30
0.0
 11
140.697959
 21
-221.016027
 31
0.0
  0
POINT
  5
1EB
  8
DEFPOINTS
  6
CONTINUOUS
 62
    30
 10
134.253778
 20
-210.893156
 30
0.0
  0
POINT
  5
1EC
  8
DEFPOINTS
  6
CONTINUOUS
 62
    30
 10
-134.2537779999999
 20
210.8931549999998
 30
0.0
  0
TEXT
  5
1ED
  8
ETC
  6
CONTINUOUS
 62
    61
 10
537.7318748202458
 20
792.2594220863202
 30
0.0
 40
64.0
  1
EG-50ETB_3
 41
0.9
  0
TEXT
  5
1EE
  8
ETC
  6
CONTINUOUS
 62
    61
 10
645.4437130974217
 20
597.5577741823159
 30
0.0
 40
50.0
  1
EG-50ETB
 41
0.9
  0
TEXT
  5
1EF
  8
ETC
  6
CONTINUOUS
 62
    61
 10
648.8049224718658
 20
517.5450250159173
 30
0.0
 40
50.0
  1
EG-50ETB-PR
 41
0.9
  0
TEXT
  5
1F0
  8
ETC
  6
CONTINUOUS
 62
    61
 10
534.523947820246
 20
692.2591410863201
 30
0.0
 40
64.0
  1
産業扇
 41
0.9
  0
TEXT
  5
1F1
  8
ETC
  6
CONTINUOUS
 62
    61
 10
534.523947820246
 20
692.2591410863201
 30
0.0
 40
64.0
  1
産業扇
 41
0.9
  0
ENDSEC
  0
EOF
