  0
SECTION
  2
HEADER
  9
$ACADVER
  1
AC1009
  9
$DWGCODEPAGE
  3
ansi_932
  9
$INSBASE
 10
0.0
 20
0.0
 30
0.0
  9
$EXTMIN
 10
-424.475528045892
 20
-404.9847619999999
 30
0.0
  9
$EXTMAX
 10
1201.660758285348
 20
860.4450183874584
 30
50.0
  9
$LIMMIN
 10
-2970.0
 20
-2100.0
  9
$LIMMAX
 10
2970.0
 20
2100.0
  9
$ORTHOMODE
 70
     1
  9
$REGENMODE
 70
     0
  9
$FILLMODE
 70
     1
  9
$QTEXTMODE
 70
     0
  9
$MIRRTEXT
 70
     0
  9
$DRAGMODE
 70
     2
  9
$LTSCALE
 40
20.0
  9
$OSMODE
 70
    37
  9
$ATTMODE
 70
     1
  9
$TEXTSIZE
 40
64.0
  9
$TRACEWID
 40
0.05
  9
$TEXTSTYLE
  7
STANDARD
  9
$CLAYER
  8
OUTLINE
  9
$CELTYPE
  6
CONTINUOUS
  9
$CECOLOR
 62
     3
  9
$DIMSCALE
 40
1.0
  9
$DIMASZ
 40
12.0
  9
$DIMEXO
 40
20.0
  9
$DIMDLI
 40
200.0
  9
$DIMRND
 40
0.0
  9
$DIMDLE
 40
0.0
  9
$DIMEXE
 40
20.0
  9
$DIMTP
 40
0.0
  9
$DIMTM
 40
0.0
  9
$DIMTXT
 40
64.0
  9
$DIMCEN
 40
0.09
  9
$DIMTSZ
 40
0.0
  9
$DIMTOL
 70
     0
  9
$DIMLIM
 70
     0
  9
$DIMTIH
 70
     0
  9
$DIMTOH
 70
     0
  9
$DIMSE1
 70
     0
  9
$DIMSE2
 70
     0
  9
$DIMTAD
 70
     1
  9
$DIMZIN
 70
     8
  9
$DIMBLK
  1
DOT1
  9
$DIMASO
 70
     1
  9
$DIMSHO
 70
     0
  9
$DIMPOST
  1

  9
$DIMAPOST
  1

  9
$DIMALT
 70
     0
  9
$DIMALTD
 70
     2
  9
$DIMALTF
 40
25.4
  9
$DIMLFAC
 40
1.0
  9
$DIMTOFL
 70
     1
  9
$DIMTVP
 40
0.0
  9
$DIMTIX
 70
     1
  9
$DIMSOXD
 70
     0
  9
$DIMSAH
 70
     1
  9
$DIMBLK1
  1
ORIGIN
  9
$DIMBLK2
  1
ORIGIN
  9
$DIMSTYLE
  2
STANDARD
  9
$DIMCLRD
 70
     0
  9
$DIMCLRE
 70
     0
  9
$DIMCLRT
 70
     0
  9
$DIMTFAC
 40
1.0
  9
$DIMGAP
 40
0.09
  9
$LUNITS
 70
     2
  9
$LUPREC
 70
     4
  9
$SKETCHINC
 40
0.1
  9
$FILLETRAD
 40
5.0
  9
$AUNITS
 70
     1
  9
$AUPREC
 70
     3
  9
$MENU
  1
ACAD
  9
$ELEVATION
 40
0.0
  9
$PELEVATION
 40
0.0
  9
$THICKNESS
 40
50.0
  9
$LIMCHECK
 70
     0
  9
$CHAMFERA
 40
0.0
  9
$CHAMFERB
 40
0.0
  9
$SKPOLY
 70
     0
  9
$TDCREATE
 40
2452310.657101389
  9
$TDUPDATE
 40
2457485.555699236
  9
$TDINDWG
 40
0.1296565509
  9
$TDUSRTIMER
 40
0.1296565509
  9
$USRTIMER
 70
     1
  9
$ANGBASE
 50
0.0
  9
$ANGDIR
 70
     0
  9
$PDMODE
 70
     3
  9
$PDSIZE
 40
-2.0
  9
$PLINEWID
 40
0.0
  9
$COORDS
 70
     1
  9
$SPLFRAME
 70
     0
  9
$SPLINETYPE
 70
     6
  9
$SPLINESEGS
 70
     8
  9
$ATTDIA
 70
     0
  9
$ATTREQ
 70
     1
  9
$HANDLING
 70
     1
  9
$HANDSEED
  5
42B
  9
$SURFTAB1
 70
     6
  9
$SURFTAB2
 70
     6
  9
$SURFTYPE
 70
     6
  9
$SURFU
 70
     6
  9
$SURFV
 70
     6
  9
$UCSNAME
  2

  9
$UCSORG
 10
0.0
 20
0.0
 30
0.0
  9
$UCSXDIR
 10
1.0
 20
0.0
 30
0.0
  9
$UCSYDIR
 10
0.0
 20
1.0
 30
0.0
  9
$PUCSNAME
  2

  9
$PUCSORG
 10
0.0
 20
0.0
 30
0.0
  9
$PUCSXDIR
 10
1.0
 20
0.0
 30
0.0
  9
$PUCSYDIR
 10
0.0
 20
1.0
 30
0.0
  9
$USERI1
 70
     0
  9
$USERI2
 70
     0
  9
$USERI3
 70
     0
  9
$USERI4
 70
     0
  9
$USERI5
 70
     0
  9
$USERR1
 40
20.0
  9
$USERR2
 40
0.0
  9
$USERR3
 40
0.0
  9
$USERR4
 40
0.0
  9
$USERR5
 40
0.0
  9
$WORLDVIEW
 70
     1
  9
$SHADEDGE
 70
     3
  9
$SHADEDIF
 70
    70
  9
$TILEMODE
 70
     1
  9
$MAXACTVP
 70
    64
  9
$PLIMCHECK
 70
     0
  9
$PEXTMIN
 10
1.000000000000000E+20
 20
1.000000000000000E+20
 30
1.000000000000000E+20
  9
$PEXTMAX
 10
-1.000000000000000E+20
 20
-1.000000000000000E+20
 30
-1.000000000000000E+20
  9
$PLIMMIN
 10
0.0
 20
0.0
  9
$PLIMMAX
 10
12.0
 20
9.0
  9
$UNITMODE
 70
     0
  9
$VISRETAIN
 70
     1
  9
$PLINEGEN
 70
     0
  9
$PSLTSCALE
 70
     1
  0
ENDSEC
  0
SECTION
  2
TABLES
  0
TABLE
  2
VPORT
 70
     1
  0
VPORT
  2
*ACTIVE
 70
     0
 10
0.0
 20
0.0
 11
1.0
 21
1.0
 12
123.7425365936712
 22
163.5234231012066
 13
0.0
 23
0.0
 14
1.0
 24
1.0
 15
0.0
 25
0.0
 16
0.0
 26
0.0
 36
1.0
 17
0.0
 27
0.0
 37
0.0
 40
1724.962112239798
 41
1.447268106734434
 42
50.0
 43
0.0
 44
0.0
 50
0.0
 51
0.0
 71
     0
 72
   100
 73
     1
 74
     0
 75
     0
 76
     0
 77
     0
 78
     0
  0
ENDTAB
  0
TABLE
  2
LTYPE
 70
     2
  0
LTYPE
  2
CONTINUOUS
 70
     0
  3
実線
 72
    65
 73
     0
 40
0.0
  0
LTYPE
  2
DASHDOT
 70
     0
  3
____ _ ____ _ ____ _ ____ _ ____ _ ____ _ ____
 72
    65
 73
     4
 40
5.5
 49
4.0
 49
-0.6
 49
0.3
 49
-0.6
  0
ENDTAB
  0
TABLE
  2
LAYER
 70
    12
  0
LAYER
  2
0
 70
     0
 62
     7
  6
CONTINUOUS
  0
LAYER
  2
OUTLINE
 70
     0
 62
     3
  6
CONTINUOUS
  0
LAYER
  2
SIZE
 70
     0
 62
    30
  6
CONTINUOUS
  0
LAYER
  2
BASIS
 70
     0
 62
     6
  6
DASHDOT
  0
LAYER
  2
DETAIL
 70
     0
 62
     5
  6
CONTINUOUS
  0
LAYER
  2
ARRANGE
 70
     0
 62
     1
  6
CONTINUOUS
  0
LAYER
  2
DEFPOINTS
 70
     0
 62
     7
  6
CONTINUOUS
  0
LAYER
  2
ETC
 70
     0
 62
    61
  6
CONTINUOUS
  0
LAYER
  2
FIX
 70
     0
 62
    11
  6
CONTINUOUS
  0
LAYER
  2
NOTE
 70
     0
 62
     4
  6
CONTINUOUS
  0
LAYER
  2
SERVICESPACE
 70
     0
 62
     2
  6
DASHDOT
  0
LAYER
  2
SYMBOLLINE
 70
     0
 62
    15
  6
CONTINUOUS
  0
ENDTAB
  0
TABLE
  2
STYLE
 70
     1
  0
STYLE
  2
STANDARD
 70
     0
 40
64.0
 41
0.9
 50
0.0
 71
     0
 42
64.0
  3
SIMPLEX.shx
  4
BIGFONT.shx
  0
ENDTAB
  0
TABLE
  2
VIEW
 70
     1
  0
VIEW
  2
ALL
 70
     0
 40
4282.619807999998
 10
0.0
 20
41.30990399999999
 41
5940.0
 11
0.0
 21
0.0
 31
1.0
 12
0.0
 22
0.0
 32
0.0
 42
50.0
 43
0.0
 44
0.0
 50
0.0
 71
     0
  0
ENDTAB
  0
TABLE
  2
UCS
 70
     0
  0
ENDTAB
  0
TABLE
  2
APPID
 70
     1
  0
APPID
  2
ACAD
 70
     0
  0
ENDTAB
  0
TABLE
  2
DIMSTYLE
 70
     1
  0
DIMSTYLE
  2
STANDARD
 70
     0
  3

  4

  5

  6

  7

 40
1.0
 41
0.18
 42
0.0625
 43
0.38
 44
0.18
 45
0.0
 46
0.0
 47
0.0
 48
0.0
140
0.18
141
0.09
142
0.0
143
25.4
144
1.0
145
0.0
146
1.0
147
0.09
 71
     0
 72
     0
 73
     1
 74
     1
 75
     0
 76
     0
 77
     0
 78
     0
170
     0
171
     2
172
     0
173
     0
174
     0
175
     0
176
     0
177
     0
178
     0
  0
ENDTAB
  0
ENDSEC
  0
SECTION
  2
BLOCKS
  0
BLOCK
  8
0
  2
$MODEL_SPACE
 70
     0
 10
0.0
 20
0.0
 30
0.0
  3
$MODEL_SPACE
  1

  0
ENDBLK
  5
243
  8
0
  0
BLOCK
 67
     1
  8
0
  2
$PAPER_SPACE
 70
     0
 10
0.0
 20
0.0
 30
0.0
  3
$PAPER_SPACE
  1

  0
ENDBLK
  5
23F
 67
     1
  8
0
  0
BLOCK
  8
0
  2
DOT1
 70
     0
 10
0.0
 20
0.0
 30
0.0
  3
DOT1
  1

  0
CIRCLE
  5
25E
  8
SIZE
  6
CONTINUOUS
 62
     7
 10
0.0
 20
0.0
 30
0.0
 40
3.0
  0
ENDBLK
  5
25F
  8
0
  0
BLOCK
  8
0
  2
_ORIGIN
 70
     0
 10
0.0
 20
0.0
 30
0.0
  3
_ORIGIN
  1

  0
CIRCLE
  5
262
  8
0
  6
CONTINUOUS
 62
     7
 10
0.0
 20
0.0
 30
0.0
 40
0.5
  0
LINE
  5
263
  8
0
  6
CONTINUOUS
 62
     7
 10
0.0
 20
0.0
 30
0.0
 11
-1.0
 21
0.0
 31
0.0
  0
ENDBLK
  5
264
  8
0
  0
ENDSEC
  0
SECTION
  2
ENTITIES
  0
LINE
  5
265
  8
DETAIL
  6
CONTINUOUS
 62
     5
 10
0.0
 20
-310.0
 30
0.0
 11
0.0
 21
310.0
 31
0.0
  0
LINE
  5
266
  8
BASIS
  6
DASHDOT
 62
     6
 10
54.26140100000001
 20
0.0
 30
0.0
 11
-370.2051169999998
 21
0.0
 31
0.0
  0
LINE
  5
267
  8
DETAIL
  6
CONTINUOUS
 62
     5
 10
-20.0
 20
250.0
 30
0.0
 11
-208.4608339999999
 21
250.0
 31
0.0
  0
LINE
  5
268
  8
DETAIL
  6
CONTINUOUS
 62
     5
 10
-20.0
 20
-250.0
 30
0.0
 11
-208.4608339999999
 21
-250.0
 31
0.0
  0
LINE
  5
269
  8
DETAIL
  6
CONTINUOUS
 62
     5
 10
-10.0
 20
-303.0
 30
0.0
 11
-10.0
 21
-290.4999999999999
 31
0.0
  0
LINE
  5
26A
  8
DETAIL
  6
CONTINUOUS
 62
     5
 10
-3.0
 20
-310.0
 30
0.0
 11
0.0
 21
-310.0
 31
0.0
  0
LINE
  5
26B
  8
DETAIL
  6
CONTINUOUS
 62
     5
 10
-3.0
 20
310.0
 30
0.0
 11
0.0
 21
310.0
 31
0.0
  0
LINE
  5
26C
  8
DETAIL
  6
CONTINUOUS
 62
     5
 10
-10.0
 20
-290.4999999999999
 30
0.0
 11
-10.0
 21
290.5
 31
0.0
  0
LINE
  5
26D
  8
DETAIL
  6
CONTINUOUS
 62
     5
 10
-10.0
 20
290.5
 30
0.0
 11
-10.0
 21
303.0
 31
0.0
  0
LINE
  5
26E
  8
DETAIL
  6
CONTINUOUS
 62
     5
 10
-250.4608339999999
 20
-90.0
 30
0.0
 11
-250.4608339999999
 21
0.0
 31
0.0
  0
LINE
  5
26F
  8
NOTE
  6
CONTINUOUS
 62
     4
 10
-20.0
 20
280.0
 30
0.0
 11
20.0
 21
280.0
 31
0.0
  0
LINE
  5
270
  8
NOTE
  6
CONTINUOUS
 62
     4
 10
0.0
 20
300.0
 30
0.0
 11
0.0
 21
260.0
 31
0.0
  0
LINE
  5
271
  8
NOTE
  6
CONTINUOUS
 62
     4
 10
-20.0
 20
-280.0
 30
0.0
 11
20.0
 21
-280.0
 31
0.0
  0
LINE
  5
272
  8
NOTE
  6
CONTINUOUS
 62
     4
 10
0.0
 20
-260.0
 30
0.0
 11
0.0
 21
-300.0
 31
0.0
  0
LINE
  5
273
  8
DETAIL
  6
CONTINUOUS
 62
     5
 10
-20.0
 20
286.2857649999999
 30
0.0
 11
-10.0
 21
286.2857649999999
 31
0.0
  0
LINE
  5
274
  8
DETAIL
  6
CONTINUOUS
 62
     5
 10
-20.0
 20
-287.0540109999999
 30
0.0
 11
-10.0
 21
-287.0540109999999
 31
0.0
  0
LINE
  5
275
  8
DETAIL
  6
CONTINUOUS
 62
     5
 10
-250.4608339999999
 20
-90.0
 30
0.0
 11
-250.4608339999999
 21
-175.0
 31
0.0
  0
LINE
  5
276
  8
DETAIL
  6
CONTINUOUS
 62
     5
 10
-250.4608339999999
 20
0.0
 30
0.0
 11
-250.4608339999999
 21
175.0
 31
0.0
  0
LINE
  5
277
  8
DETAIL
  6
CONTINUOUS
 62
     5
 10
-20.0
 20
-287.0540109999999
 30
0.0
 11
-20.0
 21
286.2857649999999
 31
0.0
  0
ARC
  5
278
  8
DETAIL
  6
CONTINUOUS
 62
     5
 10
-3.0
 20
303.0
 30
0.0
 40
7.0
 50
90.0
 51
180.0
  0
ARC
  5
279
  8
DETAIL
  6
CONTINUOUS
 62
     5
 10
-3.0
 20
-303.0
 30
0.0
 40
7.0
 50
180.0
 51
270.0
  0
LINE
  5
27A
  8
DETAIL
  6
CONTINUOUS
 62
     5
 10
-88.0
 20
-225.0
 30
0.0
 11
-88.0
 21
225.0
 31
0.0
  0
LINE
  5
27B
  8
DETAIL
  6
CONTINUOUS
 62
     5
 10
-88.0
 20
250.0
 30
0.0
 11
-88.0
 21
302.5
 31
0.0
  0
LINE
  5
27C
  8
DETAIL
  6
CONTINUOUS
 62
     5
 10
-88.0
 20
-250.0
 30
0.0
 11
-88.0
 21
-302.5
 31
0.0
  0
LINE
  5
27D
  8
NOTE
  6
CONTINUOUS
 62
     4
 10
-20.00000199999999
 20
-243.000002
 30
0.0
 11
-221.7822169999999
 21
-437.387075
 31
0.0
  0
LINE
  5
27E
  8
NOTE
  6
CONTINUOUS
 62
     4
 10
-40.37128500000011
 20
-277.423988
 30
0.0
 11
-20.00000199999999
 21
-243.000002
 31
0.0
  0
LINE
  5
27F
  8
NOTE
  6
CONTINUOUS
 62
     4
 10
-20.00000199999999
 20
-243.000002
 30
0.0
 11
-54.8540440000001
 21
-262.6264069999998
 31
0.0
  0
TEXT
  5
280
  8
NOTE
  6
CONTINUOUS
 62
     4
 10
-315.0503249999998
 20
-415.9630809999999
 30
0.0
 40
64.0
  1
EL
 41
0.9
  0
LINE
  5
281
  8
NOTE
  6
CONTINUOUS
 62
     4
 10
-40.00000199999999
 20
-243.000002
 30
0.0
 11
-0.000001999999995
 21
-243.000002
 31
0.0
  0
LINE
  5
282
  8
NOTE
  6
CONTINUOUS
 62
     4
 10
-20.00000199999999
 20
-223.0000019999999
 30
0.0
 11
-20.00000199999999
 21
-263.0000019999998
 31
0.0
  0
LINE
  5
283
  8
DETAIL
  6
CONTINUOUS
 62
     5
 10
-104.9999999999999
 20
5.0
 30
0.0
 11
-116.274431
 21
5.0
 31
0.0
  0
LINE
  5
284
  8
DETAIL
  6
CONTINUOUS
 62
     5
 10
-104.9999999999999
 20
-5.0
 30
0.0
 11
-116.274431
 21
-5.0
 31
0.0
  0
LINE
  5
285
  8
SIZE
  6
CONTINUOUS
 62
    30
 10
0.0
 20
330.0
 30
0.0
 11
0.0
 21
448.537785
 31
0.0
  0
LINE
  5
286
  8
SIZE
  6
CONTINUOUS
 62
    30
 10
-10.0
 20
323.0
 30
0.0
 11
-10.0
 21
448.537785
 31
0.0
  0
LINE
  5
287
  8
SIZE
  6
CONTINUOUS
 62
    30
 10
-22.0
 20
428.537785
 30
0.0
 11
-34.00000000000011
 21
428.537785
 31
0.0
  0
LINE
  5
288
  8
SIZE
  6
CONTINUOUS
 62
    30
 10
11.99999999999989
 20
428.537785
 30
0.0
 11
156.285714
 21
428.537785
 31
0.0
  0
LINE
  5
289
  8
SIZE
  6
CONTINUOUS
 62
    30
 10
-10.0
 20
428.537785
 30
0.0
 11
0.0
 21
428.537785
 31
0.0
  0
CIRCLE
  5
28A
  8
SIZE
  6
CONTINUOUS
 62
    30
 10
-10.0
 20
428.537785
 30
0.0
 40
6.0
  0
LINE
  5
28B
  8
SIZE
  6
CONTINUOUS
 62
    30
 10
-10.0
 20
428.537785
 30
0.0
 11
-22.0
 21
428.537785
 31
0.0
  0
CIRCLE
  5
28C
  8
SIZE
  6
CONTINUOUS
 62
    30
 10
0.0
 20
428.537785
 30
0.0
 40
6.0
  0
LINE
  5
28D
  8
SIZE
  6
CONTINUOUS
 62
    30
 10
0.0
 20
428.537785
 30
0.0
 11
11.99999999999989
 21
428.537785
 31
0.0
  0
TEXT
  5
28E
  8
SIZE
  6
CONTINUOUS
 62
    30
 10
31.17142842857142
 20
453.537785
 30
0.0
 40
64.0
  1
10
 41
0.9
 72
     1
 11
90.14285699999999
 21
453.537785
 31
0.0
  0
LINE
  5
28F
  8
SIZE
  6
CONTINUOUS
 62
    30
 10
0.0
 20
330.0
 30
0.0
 11
0.0
 21
577.9475309999998
 31
0.0
  0
LINE
  5
290
  8
SIZE
  6
CONTINUOUS
 62
    30
 10
-95.0
 20
322.5
 30
0.0
 11
-95.0
 21
577.9475309999998
 31
0.0
  0
LINE
  5
291
  8
SIZE
  6
CONTINUOUS
 62
    30
 10
-83.0000000000001
 20
557.9475309999997
 30
0.0
 11
-12.0
 21
557.9475309999997
 31
0.0
  0
LINE
  5
292
  8
SIZE
  6
CONTINUOUS
 62
    30
 10
0.0
 20
557.9475309999997
 30
0.0
 11
155.2571429999999
 21
557.9475309999997
 31
0.0
  0
CIRCLE
  5
293
  8
SIZE
  6
CONTINUOUS
 62
    30
 10
-95.0
 20
557.9475309999997
 30
0.0
 40
6.0
  0
LINE
  5
294
  8
SIZE
  6
CONTINUOUS
 62
    30
 10
-95.0
 20
557.9475309999997
 30
0.0
 11
-83.0000000000001
 21
557.9475309999997
 31
0.0
  0
CIRCLE
  5
295
  8
SIZE
  6
CONTINUOUS
 62
    30
 10
0.0
 20
557.9475309999997
 30
0.0
 40
6.0
  0
LINE
  5
296
  8
SIZE
  6
CONTINUOUS
 62
    30
 10
0.0
 20
557.9475309999997
 30
0.0
 11
-12.0
 21
557.9475309999997
 31
0.0
  0
TEXT
  5
297
  8
SIZE
  6
CONTINUOUS
 62
    30
 10
28.77142814285716
 20
582.9475309999997
 30
0.0
 40
64.0
  1
95
 41
0.9
 72
     1
 11
83.62857100000002
 21
582.9475309999997
 31
0.0
  0
LINE
  5
298
  8
NOTE
  6
CONTINUOUS
 62
     4
 10
0.0
 20
-280.0
 30
0.0
 11
152.7836069999999
 21
-444.9847619999999
 31
0.0
  0
LINE
  5
299
  8
NOTE
  6
CONTINUOUS
 62
     4
 10
18.617627
 20
-315.403163
 30
0.0
 11
0.0
 21
-280.0
 31
0.0
  0
LINE
  5
29A
  8
NOTE
  6
CONTINUOUS
 62
     4
 10
0.0
 20
-280.0
 30
0.0
 11
33.82491899999999
 21
-301.3512249999998
 31
0.0
  0
LINE
  5
29B
  8
SIZE
  6
CONTINUOUS
 62
    30
 10
40.0
 20
280.0
 30
0.0
 11
258.8216179999999
 21
280.0
 31
0.0
  0
LINE
  5
29C
  8
SIZE
  6
CONTINUOUS
 62
    30
 10
40.0
 20
-280.0
 30
0.0
 11
258.8216179999999
 21
-280.0
 31
0.0
  0
LINE
  5
29D
  8
SIZE
  6
CONTINUOUS
 62
    30
 10
238.8216180000001
 20
268.0
 30
0.0
 11
238.8216180000001
 21
-268.0
 31
0.0
  0
CIRCLE
  5
29E
  8
SIZE
  6
CONTINUOUS
 62
    30
 10
238.8216180000001
 20
280.0
 30
0.0
 40
6.0
  0
LINE
  5
29F
  8
SIZE
  6
CONTINUOUS
 62
    30
 10
238.8216180000001
 20
280.0
 30
0.0
 11
238.8216180000001
 21
268.0
 31
0.0
  0
CIRCLE
  5
2A0
  8
SIZE
  6
CONTINUOUS
 62
    30
 10
238.8216180000001
 20
-280.0
 30
0.0
 40
6.0
  0
LINE
  5
2A1
  8
SIZE
  6
CONTINUOUS
 62
    30
 10
238.8216180000001
 20
-280.0
 30
0.0
 11
238.8216180000001
 21
-268.0
 31
0.0
  0
TEXT
  5
2A2
  8
SIZE
  6
CONTINUOUS
 62
    30
 10
213.8216180000001
 20
-88.40338028571429
 30
0.0
 40
64.0
  1
560
 50
90.0
 41
0.9
 72
     1
 11
213.8216180000001
 21
-6.117666
 31
0.0
  0
LINE
  5
2A3
  8
SIZE
  6
CONTINUOUS
 62
    30
 10
17.0
 20
310.0
 30
0.0
 11
390.9011820000002
 21
310.0
 31
0.0
  0
LINE
  5
2A4
  8
SIZE
  6
CONTINUOUS
 62
    30
 10
17.0
 20
-310.0
 30
0.0
 11
390.9011820000002
 21
-310.0
 31
0.0
  0
LINE
  5
2A5
  8
SIZE
  6
CONTINUOUS
 62
    30
 10
370.9011820000002
 20
298.0
 30
0.0
 11
370.9011820000002
 21
-298.0
 31
0.0
  0
CIRCLE
  5
2A6
  8
SIZE
  6
CONTINUOUS
 62
    30
 10
370.9011820000002
 20
310.0
 30
0.0
 40
6.0
  0
LINE
  5
2A7
  8
SIZE
  6
CONTINUOUS
 62
    30
 10
370.9011820000002
 20
310.0
 30
0.0
 11
370.9011820000002
 21
298.0
 31
0.0
  0
CIRCLE
  5
2A8
  8
SIZE
  6
CONTINUOUS
 62
    30
 10
370.9011820000002
 20
-310.0
 30
0.0
 40
6.0
  0
LINE
  5
2A9
  8
SIZE
  6
CONTINUOUS
 62
    30
 10
370.9011820000002
 20
-310.0
 30
0.0
 11
370.9011820000002
 21
-298.0
 31
0.0
  0
TEXT
  5
2AA
  8
SIZE
  6
CONTINUOUS
 62
    30
 10
345.9011820000001
 20
-83.65714285714286
 30
0.0
 40
64.0
  1
620
 50
90.0
 41
0.9
 72
     1
 11
345.9011820000001
 21
0.0
 31
0.0
  0
LINE
  5
2AB
  8
NOTE
  6
CONTINUOUS
 62
     4
 10
-329.5211429999999
 20
-437.387075
 30
0.0
 11
-221.7822169999999
 21
-437.387075
 31
0.0
  0
LINE
  5
2AC
  8
DETAIL
  6
CONTINUOUS
 62
     5
 10
-95.0
 20
250.0
 30
0.0
 11
-95.0
 21
302.5
 31
0.0
  0
LINE
  5
2AD
  8
DETAIL
  6
CONTINUOUS
 62
     5
 10
-95.0
 20
-225.0
 30
0.0
 11
-95.0
 21
225.0
 31
0.0
  0
LINE
  5
2AE
  8
DETAIL
  6
CONTINUOUS
 62
     5
 10
-95.0
 20
-250.0
 30
0.0
 11
-95.0
 21
-302.5
 31
0.0
  0
LINE
  5
2AF
  8
DETAIL
  6
CONTINUOUS
 62
     5
 10
-95.0
 20
302.5
 30
0.0
 11
-88.0
 21
302.5
 31
0.0
  0
LINE
  5
2B0
  8
DETAIL
  6
CONTINUOUS
 62
     5
 10
-95.0
 20
-302.5
 30
0.0
 11
-88.0
 21
-302.5
 31
0.0
  0
LINE
  5
2B1
  8
DETAIL
  6
CONTINUOUS
 62
     5
 10
-288.4608339999999
 20
92.53794999999991
 30
0.0
 11
-250.4608339999999
 21
92.53794999999991
 31
0.0
  0
LINE
  5
2B2
  8
DETAIL
  6
CONTINUOUS
 62
     5
 10
-243.301797
 20
-90.0
 30
0.0
 11
-243.301797
 21
90.0
 31
0.0
  0
LINE
  5
2B3
  8
DETAIL
  6
CONTINUOUS
 62
     5
 10
-250.4608339999999
 20
95.0
 30
0.0
 11
-248.301797
 21
95.0
 31
0.0
  0
LINE
  5
2B4
  8
DETAIL
  6
CONTINUOUS
 62
     5
 10
-250.4608339999999
 20
-95.0
 30
0.0
 11
-248.301797
 21
-95.0
 31
0.0
  0
LINE
  5
2B5
  8
SIZE
  6
CONTINUOUS
 62
    30
 10
-10.0
 20
323.0
 30
0.0
 11
-10.0
 21
448.537785
 31
0.0
  0
LINE
  5
2B6
  8
SIZE
  6
CONTINUOUS
 62
    30
 10
-20.0
 20
306.2857649999999
 30
0.0
 11
-20.0
 21
448.537785
 31
0.0
  0
LINE
  5
2B7
  8
SIZE
  6
CONTINUOUS
 62
    30
 10
2.0
 20
428.537785
 30
0.0
 11
13.99999999999989
 21
428.537785
 31
0.0
  0
LINE
  5
2B8
  8
SIZE
  6
CONTINUOUS
 62
    30
 10
-32.00000000000011
 20
428.537785
 30
0.0
 11
-255.2501839999999
 21
428.537785
 31
0.0
  0
LINE
  5
2B9
  8
SIZE
  6
CONTINUOUS
 62
    30
 10
-10.0
 20
428.537785
 30
0.0
 11
-20.0
 21
428.537785
 31
0.0
  0
CIRCLE
  5
2BA
  8
SIZE
  6
CONTINUOUS
 62
    30
 10
-10.0
 20
428.537785
 30
0.0
 40
6.0
  0
LINE
  5
2BB
  8
SIZE
  6
CONTINUOUS
 62
    30
 10
-10.0
 20
428.537785
 30
0.0
 11
2.0
 21
428.537785
 31
0.0
  0
CIRCLE
  5
2BC
  8
SIZE
  6
CONTINUOUS
 62
    30
 10
-20.0
 20
428.537785
 30
0.0
 40
6.0
  0
LINE
  5
2BD
  8
SIZE
  6
CONTINUOUS
 62
    30
 10
-20.0
 20
428.537785
 30
0.0
 11
-32.00000000000011
 21
428.537785
 31
0.0
  0
TEXT
  5
2BE
  8
SIZE
  6
CONTINUOUS
 62
    30
 10
-248.0787545714285
 20
453.537785
 30
0.0
 40
64.0
  1
10
 41
0.9
 72
     1
 11
-189.1073259999999
 21
453.537785
 31
0.0
  0
TEXT
  5
2BF
  8
NOTE
  6
CONTINUOUS
 62
     4
 10
161.2694729999999
 20
-419.8852129999999
 30
0.0
 40
64.0
  1
4-φ14
 41
0.9
  0
LINE
  5
2C0
  8
NOTE
  6
CONTINUOUS
 62
     4
 10
469.893082
 20
-444.9847619999999
 30
0.0
 11
152.7836069999999
 21
-444.9847619999999
 31
0.0
  0
CIRCLE
  5
2C1
  8
FIX
  6
CONTINUOUS
 62
    11
 10
0.0
 20
-280.0
 30
0.0
 40
7.0
  0
CIRCLE
  5
2C2
  8
FIX
  6
CONTINUOUS
 62
    11
 10
0.0
 20
280.0
 30
0.0
 40
7.0
  0
LINE
  5
2C3
  8
SIZE
  6
CONTINUOUS
 62
    30
 10
-312.5099419999999
 20
65.4999999999999
 30
0.0
 11
-423.5200259999998
 21
65.4999999999999
 31
0.0
  0
LINE
  5
2C4
  8
SIZE
  6
CONTINUOUS
 62
    30
 10
-312.5099419999999
 20
-65.5
 30
0.0
 11
-423.5200259999998
 21
-65.5
 31
0.0
  0
LINE
  5
2C5
  8
SIZE
  6
CONTINUOUS
 62
    30
 10
-403.5200259999998
 20
53.49999999999999
 30
0.0
 11
-403.5200259999998
 21
-53.5
 31
0.0
  0
TEXT
  5
2C6
  8
SIZE
  6
CONTINUOUS
 62
    30
 10
-428.5200259999998
 20
-98.14689714285716
 30
0.0
 40
64.0
  1
φ131
 50
90.0
 41
0.9
 72
     1
 11
-428.5200259999998
 21
0.5959599999999909
 31
0.0
  0
CIRCLE
  5
2C7
  8
SIZE
  6
CONTINUOUS
 62
    30
 10
-403.5200259999998
 20
65.4999999999999
 30
0.0
 40
6.0
  0
LINE
  5
2C8
  8
SIZE
  6
CONTINUOUS
 62
    30
 10
-403.5200259999998
 20
65.4999999999999
 30
0.0
 11
-403.5200259999998
 21
53.49999999999999
 31
0.0
  0
CIRCLE
  5
2C9
  8
SIZE
  6
CONTINUOUS
 62
    30
 10
-403.5200259999998
 20
-65.5
 30
0.0
 40
6.0
  0
LINE
  5
2CA
  8
SIZE
  6
CONTINUOUS
 62
    30
 10
-403.5200259999998
 20
-65.5
 30
0.0
 11
-403.5200259999998
 21
-53.5
 31
0.0
  0
LINE
  5
2CB
  8
DETAIL
  6
CONTINUOUS
 62
     5
 10
-314.9999999999998
 20
-57.5
 30
0.0
 11
-314.9999999999998
 21
57.5
 31
0.0
  0
LINE
  5
2CC
  8
DETAIL
  6
CONTINUOUS
 62
     5
 10
-299.9999999999999
 20
-61.46313099999999
 30
0.0
 11
-299.9999999999999
 21
61.4631309999999
 31
0.0
  0
LINE
  5
2CD
  8
DETAIL
  6
CONTINUOUS
 62
     5
 10
-288.451787
 20
-95.0
 30
0.0
 11
-292.5099419999999
 21
-95.0
 31
0.0
  0
LINE
  5
2CE
  8
DETAIL
  6
CONTINUOUS
 62
     5
 10
-288.451787
 20
95.0009319999998
 30
0.0
 11
-292.5099419999999
 21
95.0009319999998
 31
0.0
  0
LINE
  5
2CF
  8
DETAIL
  6
CONTINUOUS
 62
     5
 10
-288.4608339999999
 20
170.0
 30
0.0
 11
-288.4608339999999
 21
-170.0
 31
0.0
  0
LINE
  5
2D0
  8
DETAIL
  6
CONTINUOUS
 62
     5
 10
-292.5099419999999
 20
65.4999999999999
 30
0.0
 11
-306.9999999999998
 21
65.4999999999999
 31
0.0
  0
LINE
  5
2D1
  8
DETAIL
  6
CONTINUOUS
 62
     5
 10
-292.5099419999999
 20
-65.5
 30
0.0
 11
-306.9999999999998
 21
-65.5
 31
0.0
  0
ARC
  5
2D2
  8
DETAIL
  6
CONTINUOUS
 62
     5
 10
-306.9999999999998
 20
57.5
 30
0.0
 40
8.0
 50
90.0
 51
180.0
  0
ARC
  5
2D3
  8
DETAIL
  6
CONTINUOUS
 62
     5
 10
-306.9999999999998
 20
-57.5
 30
0.0
 40
8.0
 50
180.0
 51
270.0
  0
ARC
  5
2D4
  8
DETAIL
  6
CONTINUOUS
 62
     5
 10
-248.301797
 20
90.0
 30
0.0
 40
5.0
 50
0.0
 51
90.0
  0
ARC
  5
2D5
  8
DETAIL
  6
CONTINUOUS
 62
     5
 10
-248.301797
 20
-90.0
 30
0.0
 40
5.0
 50
270.0
 51
0.0
  0
LINE
  5
2D6
  8
DETAIL
  6
CONTINUOUS
 62
     5
 10
-20.0
 20
225.0
 30
0.0
 11
-200.4608339999999
 21
225.0
 31
0.0
  0
LINE
  5
2D7
  8
DETAIL
  6
CONTINUOUS
 62
     5
 10
-20.0
 20
-225.0
 30
0.0
 11
-200.4608339999999
 21
-225.0
 31
0.0
  0
ARC
  5
2D8
  8
DETAIL
  6
CONTINUOUS
 62
     5
 10
-200.4608339999999
 20
175.0
 30
0.0
 40
50.0
 50
90.0
 51
180.0
  0
ARC
  5
2D9
  8
DETAIL
  6
CONTINUOUS
 62
     5
 10
-200.4608339999999
 20
-175.0
 30
0.0
 40
50.0
 50
180.0
 51
270.0
  0
ARC
  5
2DA
  8
DETAIL
  6
CONTINUOUS
 62
     5
 10
-208.4608339999999
 20
170.0
 30
0.0
 40
80.0
 50
90.0
 51
180.0
  0
ARC
  5
2DB
  8
DETAIL
  6
CONTINUOUS
 62
     5
 10
-208.4608339999999
 20
-170.0
 30
0.0
 40
80.0
 50
180.0
 51
270.0
  0
LINE
  5
2DC
  8
SIZE
  6
CONTINUOUS
 62
    30
 10
-114.9999999999999
 20
302.5
 30
0.0
 11
-553.1441789999998
 21
302.5
 31
0.0
  0
LINE
  5
2DD
  8
SIZE
  6
CONTINUOUS
 62
    30
 10
-114.9999999999999
 20
-302.5
 30
0.0
 11
-553.1441789999998
 21
-302.5
 31
0.0
  0
LINE
  5
2DE
  8
SIZE
  6
CONTINUOUS
 62
    30
 10
-533.1441789999998
 20
290.5
 30
0.0
 11
-533.1441789999998
 21
-290.4999999999999
 31
0.0
  0
CIRCLE
  5
2DF
  8
SIZE
  6
CONTINUOUS
 62
    30
 10
-533.1441789999998
 20
302.5
 30
0.0
 40
6.0
  0
LINE
  5
2E0
  8
SIZE
  6
CONTINUOUS
 62
    30
 10
-533.1441789999998
 20
302.5
 30
0.0
 11
-533.1441789999998
 21
290.5
 31
0.0
  0
CIRCLE
  5
2E1
  8
SIZE
  6
CONTINUOUS
 62
    30
 10
-533.1441789999998
 20
-302.5
 30
0.0
 40
6.0
  0
LINE
  5
2E2
  8
SIZE
  6
CONTINUOUS
 62
    30
 10
-533.1441789999998
 20
-302.5
 30
0.0
 11
-533.1441789999998
 21
-290.4999999999999
 31
0.0
  0
TEXT
  5
2E3
  8
SIZE
  6
CONTINUOUS
 62
    30
 10
-558.1441789999998
 20
-106.9714285714286
 30
0.0
 40
64.0
  1
φ605
 50
90.0
 41
0.9
 72
     1
 11
-558.1441789999998
 21
0.0
 31
0.0
  0
ARC
  5
2E4
  8
DETAIL
  6
CONTINUOUS
 62
     5
 10
-46.94774100000001
 20
300.032394
 30
0.0
 40
46.069328
 50
206.9885279999999
 51
280.6790029999999
  0
LINE
  5
2E5
  8
DETAIL
  6
CONTINUOUS
 62
     5
 10
-38.41079500000001
 20
254.7609509999999
 30
0.0
 11
-20.0
 21
257.069096
 31
0.0
  0
ARC
  5
2E6
  8
DETAIL
  6
CONTINUOUS
 62
     5
 10
-46.94774100000001
 20
-300.032394
 30
0.0
 40
46.069328
 50
79.32099699999996
 51
153.011472
  0
LINE
  5
2E7
  8
DETAIL
  6
CONTINUOUS
 62
     5
 10
-38.41079500000001
 20
-254.7609509999998
 30
0.0
 11
-20.0
 21
-257.0690959999999
 31
0.0
  0
LINE
  5
2E8
  8
DETAIL
  6
CONTINUOUS
 62
     5
 10
-104.9999999999999
 20
-8.32006500000001
 30
0.0
 11
-104.9999999999999
 21
8.320065
 31
0.0
  0
LINE
  5
2E9
  8
DETAIL
  6
CONTINUOUS
 62
     5
 10
-104.9999999999999
 20
8.320065
 30
0.0
 11
-95.0
 21
10.956924
 31
0.0
  0
LINE
  5
2EA
  8
DETAIL
  6
CONTINUOUS
 62
     5
 10
-104.9999999999999
 20
-8.32006500000001
 30
0.0
 11
-95.0
 21
-10.956924
 31
0.0
  0
LINE
  5
2EB
  8
DETAIL
  6
CONTINUOUS
 62
     5
 10
-189.0880679999999
 20
84.8006069999999
 30
0.0
 11
-189.0880679999999
 21
-84.800607
 31
0.0
  0
LINE
  5
2EC
  8
DETAIL
  6
CONTINUOUS
 62
     5
 10
-131.2744309999999
 20
0.6936510000000027
 30
0.0
 11
-131.2744309999999
 21
55.5
 31
0.0
  0
LINE
  5
2ED
  8
DETAIL
  6
CONTINUOUS
 62
     5
 10
-141.2744309999999
 20
-65.5
 30
0.0
 11
-189.0880679999999
 21
-65.5
 31
0.0
  0
LINE
  5
2EE
  8
DETAIL
  6
CONTINUOUS
 62
     5
 10
-243.301797
 20
-78.80060699999999
 30
0.0
 11
-189.0880679999999
 21
-78.80060699999999
 31
0.0
  0
LINE
  5
2EF
  8
DETAIL
  6
CONTINUOUS
 62
     5
 10
-243.301797
 20
-6.800606999999999
 30
0.0
 11
-189.0880679999999
 21
-6.800606999999999
 31
0.0
  0
LINE
  5
2F0
  8
DETAIL
  6
CONTINUOUS
 62
     5
 10
-243.301797
 20
-18.80060700000002
 30
0.0
 11
-189.0880679999999
 21
-18.80060700000002
 31
0.0
  0
LINE
  5
2F1
  8
DETAIL
  6
CONTINUOUS
 62
     5
 10
-243.301797
 20
6.800606999999999
 30
0.0
 11
-189.0880679999999
 21
6.800606999999999
 31
0.0
  0
LINE
  5
2F2
  8
DETAIL
  6
CONTINUOUS
 62
     5
 10
-243.301797
 20
-30.800607
 30
0.0
 11
-189.0880679999999
 21
-30.800607
 31
0.0
  0
LINE
  5
2F3
  8
DETAIL
  6
CONTINUOUS
 62
     5
 10
-243.301797
 20
-54.80060699999999
 30
0.0
 11
-189.0880679999999
 21
-54.80060699999999
 31
0.0
  0
LINE
  5
2F4
  8
DETAIL
  6
CONTINUOUS
 62
     5
 10
-243.301797
 20
-54.80060699999999
 30
0.0
 11
-189.0880679999999
 21
-54.80060699999999
 31
0.0
  0
LINE
  5
2F5
  8
DETAIL
  6
CONTINUOUS
 62
     5
 10
-243.301797
 20
-54.80060699999999
 30
0.0
 11
-189.0880679999999
 21
-54.80060699999999
 31
0.0
  0
LINE
  5
2F6
  8
DETAIL
  6
CONTINUOUS
 62
     5
 10
-243.301797
 20
-42.800607
 30
0.0
 11
-189.0880679999999
 21
-42.800607
 31
0.0
  0
LINE
  5
2F7
  8
DETAIL
  6
CONTINUOUS
 62
     5
 10
-243.301797
 20
-54.80060699999999
 30
0.0
 11
-189.0880679999999
 21
-54.80060699999999
 31
0.0
  0
LINE
  5
2F8
  8
DETAIL
  6
CONTINUOUS
 62
     5
 10
-243.301797
 20
-66.800607
 30
0.0
 11
-189.0880679999999
 21
-66.800607
 31
0.0
  0
ARC
  5
2F9
  8
DETAIL
  6
CONTINUOUS
 62
     5
 10
-141.2744309999999
 20
-55.5
 30
0.0
 40
10.0
 50
270.0
 51
301.4648899999999
  0
LINE
  5
2FA
  8
DETAIL
  6
CONTINUOUS
 62
     5
 10
-141.2744309999999
 20
65.4999999999999
 30
0.0
 11
-189.0880679999999
 21
65.4999999999999
 31
0.0
  0
LINE
  5
2FB
  8
DETAIL
  6
CONTINUOUS
 62
     5
 10
-243.301797
 20
18.800607
 30
0.0
 11
-189.0880679999999
 21
18.800607
 31
0.0
  0
LINE
  5
2FC
  8
DETAIL
  6
CONTINUOUS
 62
     5
 10
-243.301797
 20
30.800607
 30
0.0
 11
-189.0880679999999
 21
30.800607
 31
0.0
  0
LINE
  5
2FD
  8
DETAIL
  6
CONTINUOUS
 62
     5
 10
-243.301797
 20
42.80060699999999
 30
0.0
 11
-189.0880679999999
 21
42.80060699999999
 31
0.0
  0
LINE
  5
2FE
  8
DETAIL
  6
CONTINUOUS
 62
     5
 10
-243.301797
 20
54.80060699999999
 30
0.0
 11
-189.0880679999999
 21
54.80060699999999
 31
0.0
  0
LINE
  5
2FF
  8
DETAIL
  6
CONTINUOUS
 62
     5
 10
-243.301797
 20
66.800607
 30
0.0
 11
-189.0880679999999
 21
66.800607
 31
0.0
  0
LINE
  5
300
  8
DETAIL
  6
CONTINUOUS
 62
     5
 10
-243.301797
 20
78.8006069999999
 30
0.0
 11
-189.0880679999999
 21
78.8006069999999
 31
0.0
  0
ARC
  5
301
  8
DETAIL
  6
CONTINUOUS
 62
     5
 10
-141.2744309999999
 20
55.5
 30
0.0
 40
10.0
 50
0.0
 51
90.0
  0
LINE
  5
302
  8
DETAIL
  6
CONTINUOUS
 62
     5
 10
-116.274431
 20
-13.853983
 30
0.0
 11
-116.274431
 21
15.0
 31
0.0
  0
LINE
  5
303
  8
DETAIL
  6
CONTINUOUS
 62
     5
 10
-121.274431
 20
20.0
 30
0.0
 11
-131.2744309999999
 21
20.0
 31
0.0
  0
ARC
  5
304
  8
DETAIL
  6
CONTINUOUS
 62
     5
 10
-121.274431
 20
15.0
 30
0.0
 40
5.0
 50
0.0
 51
90.0
  0
LINE
  5
305
  8
DETAIL
  6
CONTINUOUS
 62
     5
 10
-288.4608339999999
 20
-92.53795
 30
0.0
 11
-250.4608339999999
 21
-92.53795
 31
0.0
  0
LINE
  5
306
  8
DETAIL
  6
CONTINUOUS
 62
     5
 10
-292.5099419999999
 20
95.0009319999998
 30
0.0
 11
-292.5099419999999
 21
65.4999999999999
 31
0.0
  0
LINE
  5
307
  8
DETAIL
  6
CONTINUOUS
 62
     5
 10
-292.5099419999999
 20
65.4999999999999
 30
0.0
 11
-299.9999999999999
 21
61.4631309999999
 31
0.0
  0
LINE
  5
308
  8
DETAIL
  6
CONTINUOUS
 62
     5
 10
-292.5099419999999
 20
-65.5
 30
0.0
 11
-299.9999999999999
 21
-61.46313099999999
 31
0.0
  0
LINE
  5
309
  8
DETAIL
  6
CONTINUOUS
 62
     5
 10
-292.5099419999999
 20
-65.5
 30
0.0
 11
-292.5099419999999
 21
-95.0
 31
0.0
  0
LINE
  5
30A
  8
DETAIL
  6
CONTINUOUS
 62
     5
 10
-243.301797
 20
84.8006069999999
 30
0.0
 11
-189.0880679999999
 21
84.8006069999999
 31
0.0
  0
LINE
  5
30B
  8
DETAIL
  6
CONTINUOUS
 62
     5
 10
-243.301797
 20
-84.800607
 30
0.0
 11
-189.0880679999999
 21
-84.800607
 31
0.0
  0
LINE
  5
30C
  8
SIZE
  6
CONTINUOUS
 62
    30
 10
0.0
 20
330.0
 30
0.0
 11
0.0
 21
674.6561009999998
 31
0.0
  0
LINE
  5
30D
  8
SIZE
  6
CONTINUOUS
 62
    30
 10
-314.9999999999998
 20
77.5
 30
0.0
 11
-314.9999999999998
 21
674.6561009999998
 31
0.0
  0
LINE
  5
30E
  8
SIZE
  6
CONTINUOUS
 62
    30
 10
-12.0
 20
654.6561009999998
 30
0.0
 11
-302.9999999999999
 21
654.6561009999998
 31
0.0
  0
CIRCLE
  5
30F
  8
SIZE
  6
CONTINUOUS
 62
    30
 10
0.0
 20
654.6561009999998
 30
0.0
 40
6.0
  0
LINE
  5
310
  8
SIZE
  6
CONTINUOUS
 62
    30
 10
0.0
 20
654.6561009999998
 30
0.0
 11
-12.0
 21
654.6561009999998
 31
0.0
  0
CIRCLE
  5
311
  8
SIZE
  6
CONTINUOUS
 62
    30
 10
-314.9999999999998
 20
654.6561009999998
 30
0.0
 40
6.0
  0
LINE
  5
312
  8
SIZE
  6
CONTINUOUS
 62
    30
 10
-314.9999999999998
 20
654.6561009999998
 30
0.0
 11
-302.9999999999999
 21
654.6561009999998
 31
0.0
  0
TEXT
  5
313
  8
SIZE
  6
CONTINUOUS
 62
    30
 10
-239.7857142857142
 20
679.6561009999998
 30
0.0
 40
64.0
  1
315
 41
0.9
 72
     1
 11
-157.4999999999999
 21
679.6561009999998
 31
0.0
  0
ARC
  5
314
  8
DETAIL
  6
CONTINUOUS
 62
     5
 10
-335.4699929999999
 20
-101.347002
 30
0.0
 40
301.540096
 50
37.11056399999999
 51
51.974195
  0
ARC
  5
315
  8
DETAIL
  6
CONTINUOUS
 62
     5
 10
-165.5795639999999
 20
110.7233029999999
 30
0.0
 40
30.0
 50
58.07741300000002
 51
90.0
  0
ARC
  5
316
  8
DETAIL
  6
CONTINUOUS
 62
     5
 10
-82.440746
 20
148.402035
 30
0.0
 40
93.13253700000001
 50
125.974936
 51
184.7293779999999
  0
LINE
  5
317
  8
DETAIL
  6
CONTINUOUS
 62
     5
 10
-175.2561899999999
 20
140.7233029999999
 30
0.0
 11
-165.5795639999999
 21
140.7233029999999
 31
0.0
  0
ARC
  5
318
  8
DETAIL
  6
CONTINUOUS
 62
     5
 10
194.2999209999999
 20
88.04074700000001
 30
0.0
 40
363.6750579999999
 50
185.2337839999997
 51
217.298425
  0
ARC
  5
319
  8
DETAIL
  6
CONTINUOUS
 62
     5
 10
21.766468
 20
143.486398
 30
0.0
 40
209.311455
 50
205.0486869999997
 51
236.092075
  0
ARC
  5
31A
  8
DETAIL
  6
CONTINUOUS
 62
     5
 10
88.28120999999999
 20
-264.8270329999999
 30
0.0
 40
269.960179
 50
140.7004839999999
 51
171.3722389999998
  0
ARC
  5
31B
  8
DETAIL
  6
CONTINUOUS
 62
     5
 10
60.73193600000002
 20
-351.092282
 30
0.0
 40
268.5284869999999
 50
125.4467219999998
 51
151.914532
  0
TEXT
  5
31C
  8
ETC
  6
CONTINUOUS
 62
    61
 10
410.7762025367635
 20
756.445018387458
 30
0.0
 40
64.0
  1
EG-50ETB_4
 41
0.9
  0
TEXT
  5
31D
  8
ETC
  6
CONTINUOUS
 62
    61
 10
518.4880408139395
 20
561.7433704834536
 30
0.0
 40
50.0
  1
EG-50ETB
 41
0.9
  0
TEXT
  5
31E
  8
ETC
  6
CONTINUOUS
 62
    61
 10
521.8492501883836
 20
481.7306213170554
 30
0.0
 40
50.0
  1
EG-50ETB-PR
 41
0.9
  0
TEXT
  5
31F
  8
ETC
  6
CONTINUOUS
 62
    61
 10
407.5682755367637
 20
656.4447373874581
 30
0.0
 40
64.0
  1
産業扇
 41
0.9
  0
TEXT
  5
320
  8
ETC
  6
CONTINUOUS
 62
    61
 10
407.5682755367637
 20
656.4447373874581
 30
0.0
 40
64.0
  1
産業扇
 41
0.9
  0
LINE
  5
321
  8
OUTLINE
  6
CONTINUOUS
 62
     3
 10
-95.0
 20
-225.0
 30
0.0
 11
-95.0
 21
225.0
 31
0.0
  0
LINE
  5
322
  8
OUTLINE
  6
CONTINUOUS
 62
     3
 10
-88.0
 20
-225.0
 30
0.0
 11
-88.0
 21
225.0
 31
0.0
  0
LINE
  5
323
  8
OUTLINE
  6
CONTINUOUS
 62
     3
 10
-20.0
 20
-287.0540109999999
 30
0.0
 11
-20.0
 21
286.2857649999999
 31
0.0
  0
LINE
  5
324
  8
OUTLINE
  6
CONTINUOUS
 62
     3
 10
-10.0
 20
-290.4999999999999
 30
0.0
 11
-10.0
 21
290.5
 31
0.0
  0
LINE
  5
325
  8
OUTLINE
  6
CONTINUOUS
 62
     3
 10
0.0
 20
-310.0
 30
0.0
 11
0.0
 21
310.0
 31
0.0
  0
CIRCLE
  5
326
  8
ARRANGE
  6
CONTINUOUS
 62
     1
 10
0.0
 20
0.0
 30
0.0
 40
40.0
  0
LINE
  5
327
  8
OUTLINE
  6
CONTINUOUS
 62
     3
 10
-314.9999999999998
 20
-57.5
 30
0.0
 11
-314.9999999999998
 21
57.5
 31
0.0
  0
LINE
  5
328
  8
OUTLINE
  6
CONTINUOUS
 62
     3
 10
-299.9999999999999
 20
-61.46313099999999
 30
0.0
 11
-299.9999999999999
 21
61.4631309999999
 31
0.0
  0
LINE
  5
329
  8
OUTLINE
  6
CONTINUOUS
 62
     3
 10
-288.4608339999999
 20
170.0
 30
0.0
 11
-288.4608339999999
 21
-170.0
 31
0.0
  0
LINE
  5
32A
  8
OUTLINE
  6
CONTINUOUS
 62
     3
 39
50.0
 10
-243.301797
 20
90.0
 30
0.0
 11
-243.301797
 21
-90.0
 31
0.0
  0
LINE
  5
32B
  8
OUTLINE
  6
CONTINUOUS
 62
     3
 10
-250.4608339999999
 20
-90.0
 30
0.0
 11
-250.4608339999999
 21
0.0
 31
0.0
  0
ARC
  5
32C
  8
OUTLINE
  6
CONTINUOUS
 62
     3
 39
50.0
 10
-248.301797
 20
-90.0
 30
0.0
 40
5.0
 50
270.0
 51
0.0
  0
LINE
  5
32D
  8
OUTLINE
  6
CONTINUOUS
 62
     3
 39
50.0
 10
-250.4608339999999
 20
-95.0
 30
0.0
 11
-248.301797
 21
-95.0
 31
0.0
  0
LINE
  5
32E
  8
OUTLINE
  6
CONTINUOUS
 62
     3
 10
-288.4608339999999
 20
-92.53795
 30
0.0
 11
-250.4608339999999
 21
-92.53795
 31
0.0
  0
ARC
  5
32F
  8
OUTLINE
  6
CONTINUOUS
 62
     3
 10
-208.4608339999999
 20
-170.0
 30
0.0
 40
80.0
 50
180.0
 51
270.0
  0
LINE
  5
330
  8
OUTLINE
  6
CONTINUOUS
 62
     3
 10
-292.5099419999999
 20
-65.5
 30
0.0
 11
-292.5099419999999
 21
-95.0
 31
0.0
  0
LINE
  5
331
  8
OUTLINE
  6
CONTINUOUS
 62
     3
 10
-288.4517869999999
 20
-95.0
 30
0.0
 11
-292.5099419999999
 21
-95.0
 31
0.0
  0
POINT
  5
332
  8
DEFPOINTS
  6
CONTINUOUS
 62
    30
 10
-292.5099419999999
 20
-65.5
 30
0.0
  0
LINE
  5
333
  8
OUTLINE
  6
CONTINUOUS
 62
     3
 10
-292.5099419999999
 20
-65.5
 30
0.0
 11
-306.9999999999998
 21
-65.5
 31
0.0
  0
LINE
  5
334
  8
OUTLINE
  6
CONTINUOUS
 62
     3
 10
-292.5099419999999
 20
-65.5
 30
0.0
 11
-299.9999999999999
 21
-61.46313099999999
 31
0.0
  0
ARC
  5
335
  8
OUTLINE
  6
CONTINUOUS
 62
     3
 10
-306.9999999999998
 20
-57.5
 30
0.0
 40
8.0
 50
180.0
 51
270.0
  0
ARC
  5
336
  8
OUTLINE
  6
CONTINUOUS
 62
     3
 10
-46.94774099999989
 20
-300.032394
 30
0.0
 40
46.069328
 50
79.32099699999996
 51
153.011472
  0
LINE
  5
337
  8
OUTLINE
  6
CONTINUOUS
 62
     3
 10
-20.0
 20
-225.0
 30
0.0
 11
-200.4608339999999
 21
-225.0
 31
0.0
  0
LINE
  5
338
  8
OUTLINE
  6
CONTINUOUS
 62
     3
 10
-20.0
 20
-250.0
 30
0.0
 11
-208.4608339999999
 21
-250.0
 31
0.0
  0
ARC
  5
339
  8
OUTLINE
  6
CONTINUOUS
 62
     3
 10
-200.4608339999999
 20
-175.0
 30
0.0
 40
50.0
 50
180.0
 51
270.0
  0
LINE
  5
33A
  8
OUTLINE
  6
CONTINUOUS
 62
     3
 10
-95.0
 20
-250.0
 30
0.0
 11
-95.0
 21
-302.5
 31
0.0
  0
LINE
  5
33B
  8
OUTLINE
  6
CONTINUOUS
 62
     3
 10
-88.0
 20
-250.0
 30
0.0
 11
-88.0
 21
-302.5
 31
0.0
  0
POINT
  5
33C
  8
DEFPOINTS
  6
CONTINUOUS
 62
    30
 10
-95.0
 20
-302.5
 30
0.0
  0
LINE
  5
33D
  8
OUTLINE
  6
CONTINUOUS
 62
     3
 10
-95.0
 20
-302.5
 30
0.0
 11
-88.0
 21
-302.5
 31
0.0
  0
LINE
  5
33E
  8
OUTLINE
  6
CONTINUOUS
 62
     3
 10
-250.4608339999999
 20
-90.0
 30
0.0
 11
-250.4608339999999
 21
-175.0
 31
0.0
  0
POINT
  5
33F
  8
DEFPOINTS
  6
CONTINUOUS
 62
    30
 10
-3.0
 20
-310.0
 30
0.0
  0
ARC
  5
340
  8
OUTLINE
  6
CONTINUOUS
 62
     3
 10
-3.0
 20
-303.0
 30
0.0
 40
7.0
 50
180.0
 51
270.0
  0
LINE
  5
341
  8
OUTLINE
  6
CONTINUOUS
 62
     3
 10
-20.0
 20
-287.0540109999999
 30
0.0
 11
-10.0
 21
-287.0540109999999
 31
0.0
  0
LINE
  5
342
  8
OUTLINE
  6
CONTINUOUS
 62
     3
 10
-3.0
 20
-310.0
 30
0.0
 11
0.0
 21
-310.0
 31
0.0
  0
LINE
  5
343
  8
OUTLINE
  6
CONTINUOUS
 62
     3
 10
-10.0
 20
-303.0
 30
0.0
 11
-10.0
 21
-290.4999999999999
 31
0.0
  0
LINE
  5
344
  8
OUTLINE
  6
CONTINUOUS
 62
     3
 10
-38.41079500000001
 20
-254.7609509999998
 30
0.0
 11
-20.0
 21
-257.0690959999999
 31
0.0
  0
ARC
  5
345
  8
OUTLINE
  6
CONTINUOUS
 62
     3
 39
50.0
 10
-248.301797
 20
90.0
 30
0.0
 40
5.0
 50
0.0
 51
90.00000000000064
  0
LINE
  5
346
  8
OUTLINE
  6
CONTINUOUS
 62
     3
 39
50.0
 10
-250.4608339999999
 20
95.0
 30
0.0
 11
-248.301797
 21
95.0
 31
0.0
  0
ARC
  5
347
  8
OUTLINE
  6
CONTINUOUS
 62
     3
 10
-208.4608339999999
 20
170.0
 30
0.0
 40
80.0
 50
90.0
 51
180.0
  0
LINE
  5
348
  8
OUTLINE
  6
CONTINUOUS
 62
     3
 10
-288.4608339999999
 20
92.53794999999991
 30
0.0
 11
-250.4608339999999
 21
92.53794999999991
 31
0.0
  0
LINE
  5
349
  8
OUTLINE
  6
CONTINUOUS
 62
     3
 10
-292.5099419999999
 20
95.0009319999998
 30
0.0
 11
-292.5099419999999
 21
65.4999999999999
 31
0.0
  0
POINT
  5
34A
  8
DEFPOINTS
  6
CONTINUOUS
 62
    30
 10
-292.5099419999999
 20
65.4999999999999
 30
0.0
  0
LINE
  5
34B
  8
OUTLINE
  6
CONTINUOUS
 62
     3
 10
-292.5099419999999
 20
65.4999999999999
 30
0.0
 11
-306.9999999999998
 21
65.4999999999999
 31
0.0
  0
LINE
  5
34C
  8
OUTLINE
  6
CONTINUOUS
 62
     3
 10
-292.5099419999999
 20
65.4999999999999
 30
0.0
 11
-299.9999999999999
 21
61.4631309999999
 31
0.0
  0
LINE
  5
34D
  8
OUTLINE
  6
CONTINUOUS
 62
     3
 10
-288.4517869999999
 20
95.0009319999998
 30
0.0
 11
-292.5099419999999
 21
95.0009319999998
 31
0.0
  0
POINT
  5
34E
  8
DEFPOINTS
  6
CONTINUOUS
 62
    30
 10
-314.9999999999998
 20
57.5
 30
0.0
  0
ARC
  5
34F
  8
OUTLINE
  6
CONTINUOUS
 62
     3
 10
-306.9999999999998
 20
57.5
 30
0.0
 40
8.0
 50
90.0
 51
180.0
  0
LINE
  5
350
  8
OUTLINE
  6
CONTINUOUS
 62
     3
 10
-95.0
 20
250.0
 30
0.0
 11
-95.0
 21
302.5
 31
0.0
  0
LINE
  5
351
  8
OUTLINE
  6
CONTINUOUS
 62
     3
 10
-88.0
 20
250.0
 30
0.0
 11
-88.0
 21
302.5
 31
0.0
  0
ARC
  5
352
  8
OUTLINE
  6
CONTINUOUS
 62
     3
 10
-46.94774099999989
 20
300.032394
 30
0.0
 40
46.069328
 50
206.9885279999999
 51
280.6790029999999
  0
LINE
  5
353
  8
OUTLINE
  6
CONTINUOUS
 62
     3
 10
-20.0
 20
250.0
 30
0.0
 11
-208.4608339999999
 21
250.0
 31
0.0
  0
LINE
  5
354
  8
OUTLINE
  6
CONTINUOUS
 62
     3
 10
-20.0
 20
225.0
 30
0.0
 11
-200.4608339999999
 21
225.0
 31
0.0
  0
LINE
  5
355
  8
OUTLINE
  6
CONTINUOUS
 62
     3
 10
-250.4608339999999
 20
0.0
 30
0.0
 11
-250.4608339999999
 21
175.0
 31
0.0
  0
ARC
  5
356
  8
OUTLINE
  6
CONTINUOUS
 62
     3
 10
-200.4608339999999
 20
175.0
 30
0.0
 40
50.0
 50
90.0
 51
180.0
  0
POINT
  5
357
  8
ARRANGE
  6
CONTINUOUS
 62
     1
 10
0.0
 20
0.0
 30
0.0
  0
POINT
  5
358
  8
DEFPOINTS
  6
CONTINUOUS
 62
    30
 10
-20.0
 20
286.2857649999999
 30
0.0
  0
LINE
  5
359
  8
OUTLINE
  6
CONTINUOUS
 62
     3
 10
-20.0
 20
286.2857649999999
 30
0.0
 11
-10.0
 21
286.2857649999999
 31
0.0
  0
LINE
  5
35A
  8
OUTLINE
  6
CONTINUOUS
 62
     3
 10
-38.41079500000001
 20
254.7609509999999
 30
0.0
 11
-20.0
 21
257.069096
 31
0.0
  0
POINT
  5
35B
  8
DEFPOINTS
  6
CONTINUOUS
 62
    30
 10
-95.0
 20
302.5
 30
0.0
  0
POINT
  5
35C
  8
DEFPOINTS
  6
CONTINUOUS
 62
    30
 10
-95.0
 20
302.5
 30
0.0
  0
LINE
  5
35D
  8
OUTLINE
  6
CONTINUOUS
 62
     3
 10
-95.0
 20
302.5
 30
0.0
 11
-88.0
 21
302.5
 31
0.0
  0
POINT
  5
35E
  8
DEFPOINTS
  6
CONTINUOUS
 62
    30
 10
0.0
 20
310.0
 30
0.0
  0
POINT
  5
35F
  8
DEFPOINTS
  6
CONTINUOUS
 62
    30
 10
-10.0
 20
303.0
 30
0.0
  0
POINT
  5
360
  8
DEFPOINTS
  6
CONTINUOUS
 62
    30
 10
0.0
 20
310.0
 30
0.0
  0
POINT
  5
361
  8
DEFPOINTS
  6
CONTINUOUS
 62
    30
 10
-3.0
 20
310.0
 30
0.0
  0
POINT
  5
362
  8
DEFPOINTS
  6
CONTINUOUS
 62
    30
 10
-10.0
 20
303.0
 30
0.0
  0
POINT
  5
363
  8
DEFPOINTS
  6
CONTINUOUS
 62
    30
 10
0.0
 20
310.0
 30
0.0
  0
ARC
  5
364
  8
OUTLINE
  6
CONTINUOUS
 62
     3
 10
-3.0
 20
303.0
 30
0.0
 40
7.0
 50
90.0
 51
180.0
  0
LINE
  5
365
  8
OUTLINE
  6
CONTINUOUS
 62
     3
 10
-10.0
 20
290.5
 30
0.0
 11
-10.0
 21
303.0
 31
0.0
  0
LINE
  5
366
  8
OUTLINE
  6
CONTINUOUS
 62
     3
 10
-3.0
 20
310.0
 30
0.0
 11
0.0
 21
310.0
 31
0.0
  0
ENDSEC
  0
EOF
