  0
SECTION
  2
HEADER
  9
$ACADVER
  1
AC1009
  9
$DWGCODEPAGE
  3
ansi_932
  9
$INSBASE
 10
0.0
 20
0.0
 30
0.0
  9
$EXTMIN
 10
-275.014775
 20
-387.484762
 30
0.0
  9
$EXTMAX
 10
1347.210555816633
 20
892.2934276243919
 30
50.0
  9
$LIMMIN
 10
-2970.0
 20
-2100.0
  9
$LIMMAX
 10
2970.0
 20
2100.0
  9
$ORTHOMODE
 70
     1
  9
$REGENMODE
 70
     0
  9
$FILLMODE
 70
     1
  9
$QTEXTMODE
 70
     0
  9
$MIRRTEXT
 70
     0
  9
$DRAGMODE
 70
     2
  9
$LTSCALE
 40
20.0
  9
$OSMODE
 70
    37
  9
$ATTMODE
 70
     1
  9
$TEXTSIZE
 40
64.0
  9
$TRACEWID
 40
0.05
  9
$TEXTSTYLE
  7
STANDARD
  9
$CLAYER
  8
OUTLINE
  9
$CELTYPE
  6
CONTINUOUS
  9
$CECOLOR
 62
     3
  9
$DIMSCALE
 40
1.0
  9
$DIMASZ
 40
12.0
  9
$DIMEXO
 40
20.0
  9
$DIMDLI
 40
200.0
  9
$DIMRND
 40
0.0
  9
$DIMDLE
 40
0.0
  9
$DIMEXE
 40
20.0
  9
$DIMTP
 40
0.0
  9
$DIMTM
 40
0.0
  9
$DIMTXT
 40
64.0
  9
$DIMCEN
 40
0.09
  9
$DIMTSZ
 40
0.0
  9
$DIMTOL
 70
     0
  9
$DIMLIM
 70
     0
  9
$DIMTIH
 70
     0
  9
$DIMTOH
 70
     0
  9
$DIMSE1
 70
     0
  9
$DIMSE2
 70
     0
  9
$DIMTAD
 70
     1
  9
$DIMZIN
 70
     8
  9
$DIMBLK
  1
DOT1
  9
$DIMASO
 70
     1
  9
$DIMSHO
 70
     0
  9
$DIMPOST
  1

  9
$DIMAPOST
  1

  9
$DIMALT
 70
     0
  9
$DIMALTD
 70
     2
  9
$DIMALTF
 40
25.4
  9
$DIMLFAC
 40
1.0
  9
$DIMTOFL
 70
     1
  9
$DIMTVP
 40
0.0
  9
$DIMTIX
 70
     1
  9
$DIMSOXD
 70
     0
  9
$DIMSAH
 70
     1
  9
$DIMBLK1
  1
ORIGIN
  9
$DIMBLK2
  1
ORIGIN
  9
$DIMSTYLE
  2
STANDARD
  9
$DIMCLRD
 70
     0
  9
$DIMCLRE
 70
     0
  9
$DIMCLRT
 70
     0
  9
$DIMTFAC
 40
1.0
  9
$DIMGAP
 40
0.09
  9
$LUNITS
 70
     2
  9
$LUPREC
 70
     4
  9
$SKETCHINC
 40
0.1
  9
$FILLETRAD
 40
5.0
  9
$AUNITS
 70
     1
  9
$AUPREC
 70
     3
  9
$MENU
  1
ACAD
  9
$ELEVATION
 40
0.0
  9
$PELEVATION
 40
0.0
  9
$THICKNESS
 40
50.0
  9
$LIMCHECK
 70
     0
  9
$CHAMFERA
 40
0.0
  9
$CHAMFERB
 40
0.0
  9
$SKPOLY
 70
     0
  9
$TDCREATE
 40
2452310.657101389
  9
$TDUPDATE
 40
2457485.555700324
  9
$TDINDWG
 40
0.1270536458
  9
$TDUSRTIMER
 40
0.1270536458
  9
$USRTIMER
 70
     1
  9
$ANGBASE
 50
0.0
  9
$ANGDIR
 70
     0
  9
$PDMODE
 70
     3
  9
$PDSIZE
 40
-2.0
  9
$PLINEWID
 40
0.0
  9
$COORDS
 70
     1
  9
$SPLFRAME
 70
     0
  9
$SPLINETYPE
 70
     6
  9
$SPLINESEGS
 70
     8
  9
$ATTDIA
 70
     0
  9
$ATTREQ
 70
     1
  9
$HANDLING
 70
     1
  9
$HANDSEED
  5
3DC
  9
$SURFTAB1
 70
     6
  9
$SURFTAB2
 70
     6
  9
$SURFTYPE
 70
     6
  9
$SURFU
 70
     6
  9
$SURFV
 70
     6
  9
$UCSNAME
  2

  9
$UCSORG
 10
0.0
 20
0.0
 30
0.0
  9
$UCSXDIR
 10
1.0
 20
0.0
 30
0.0
  9
$UCSYDIR
 10
0.0
 20
1.0
 30
0.0
  9
$PUCSNAME
  2

  9
$PUCSORG
 10
0.0
 20
0.0
 30
0.0
  9
$PUCSXDIR
 10
1.0
 20
0.0
 30
0.0
  9
$PUCSYDIR
 10
0.0
 20
1.0
 30
0.0
  9
$USERI1
 70
     0
  9
$USERI2
 70
     0
  9
$USERI3
 70
     0
  9
$USERI4
 70
     0
  9
$USERI5
 70
     0
  9
$USERR1
 40
20.0
  9
$USERR2
 40
0.0
  9
$USERR3
 40
0.0
  9
$USERR4
 40
0.0
  9
$USERR5
 40
0.0
  9
$WORLDVIEW
 70
     1
  9
$SHADEDGE
 70
     3
  9
$SHADEDIF
 70
    70
  9
$TILEMODE
 70
     1
  9
$MAXACTVP
 70
    64
  9
$PLIMCHECK
 70
     0
  9
$PEXTMIN
 10
1.000000000000000E+20
 20
1.000000000000000E+20
 30
1.000000000000000E+20
  9
$PEXTMAX
 10
-1.000000000000000E+20
 20
-1.000000000000000E+20
 30
-1.000000000000000E+20
  9
$PLIMMIN
 10
0.0
 20
0.0
  9
$PLIMMAX
 10
12.0
 20
9.0
  9
$UNITMODE
 70
     0
  9
$VISRETAIN
 70
     1
  9
$PLINEGEN
 70
     0
  9
$PSLTSCALE
 70
     1
  0
ENDSEC
  0
SECTION
  2
TABLES
  0
TABLE
  2
VPORT
 70
     1
  0
VPORT
  2
*ACTIVE
 70
     0
 10
0.0
 20
0.0
 11
1.0
 21
1.0
 12
328.2560022013106
 22
194.9262845999152
 13
0.0
 23
0.0
 14
1.0
 24
1.0
 15
0.0
 25
0.0
 16
0.0
 26
0.0
 36
1.0
 17
0.0
 27
0.0
 37
0.0
 40
1786.521759460906
 41
1.447268106734434
 42
50.0
 43
0.0
 44
0.0
 50
0.0
 51
0.0
 71
     0
 72
   100
 73
     1
 74
     0
 75
     0
 76
     0
 77
     0
 78
     0
  0
ENDTAB
  0
TABLE
  2
LTYPE
 70
     2
  0
LTYPE
  2
CONTINUOUS
 70
     0
  3
実線
 72
    65
 73
     0
 40
0.0
  0
LTYPE
  2
DASHDOT
 70
     0
  3
____ _ ____ _ ____ _ ____ _ ____ _ ____ _ ____
 72
    65
 73
     4
 40
5.5
 49
4.0
 49
-0.6
 49
0.3
 49
-0.6
  0
ENDTAB
  0
TABLE
  2
LAYER
 70
    12
  0
LAYER
  2
0
 70
     0
 62
     7
  6
CONTINUOUS
  0
LAYER
  2
OUTLINE
 70
     0
 62
     3
  6
CONTINUOUS
  0
LAYER
  2
SIZE
 70
     0
 62
    30
  6
CONTINUOUS
  0
LAYER
  2
BASIS
 70
     0
 62
     6
  6
DASHDOT
  0
LAYER
  2
DETAIL
 70
     0
 62
     5
  6
CONTINUOUS
  0
LAYER
  2
ARRANGE
 70
     0
 62
     1
  6
CONTINUOUS
  0
LAYER
  2
DEFPOINTS
 70
     0
 62
     7
  6
CONTINUOUS
  0
LAYER
  2
ETC
 70
     0
 62
    61
  6
CONTINUOUS
  0
LAYER
  2
FIX
 70
     0
 62
    11
  6
CONTINUOUS
  0
LAYER
  2
NOTE
 70
     0
 62
     4
  6
CONTINUOUS
  0
LAYER
  2
SERVICESPACE
 70
     0
 62
     2
  6
DASHDOT
  0
LAYER
  2
SYMBOLLINE
 70
     0
 62
    15
  6
CONTINUOUS
  0
ENDTAB
  0
TABLE
  2
STYLE
 70
     1
  0
STYLE
  2
STANDARD
 70
     0
 40
64.0
 41
0.9
 50
0.0
 71
     0
 42
64.0
  3
SIMPLEX.shx
  4
BIGFONT.shx
  0
ENDTAB
  0
TABLE
  2
VIEW
 70
     1
  0
VIEW
  2
ALL
 70
     0
 40
4282.619807999998
 10
0.0
 20
41.30990399999999
 41
5940.0
 11
0.0
 21
0.0
 31
1.0
 12
0.0
 22
0.0
 32
0.0
 42
50.0
 43
0.0
 44
0.0
 50
0.0
 71
     0
  0
ENDTAB
  0
TABLE
  2
UCS
 70
     0
  0
ENDTAB
  0
TABLE
  2
APPID
 70
     1
  0
APPID
  2
ACAD
 70
     0
  0
ENDTAB
  0
TABLE
  2
DIMSTYLE
 70
     1
  0
DIMSTYLE
  2
STANDARD
 70
     0
  3

  4

  5

  6

  7

 40
1.0
 41
0.18
 42
0.0625
 43
0.38
 44
0.18
 45
0.0
 46
0.0
 47
0.0
 48
0.0
140
0.18
141
0.09
142
0.0
143
25.4
144
1.0
145
0.0
146
1.0
147
0.09
 71
     0
 72
     0
 73
     1
 74
     1
 75
     0
 76
     0
 77
     0
 78
     0
170
     0
171
     2
172
     0
173
     0
174
     0
175
     0
176
     0
177
     0
178
     0
  0
ENDTAB
  0
ENDSEC
  0
SECTION
  2
BLOCKS
  0
BLOCK
  8
0
  2
$MODEL_SPACE
 70
     0
 10
0.0
 20
0.0
 30
0.0
  3
$MODEL_SPACE
  1

  0
ENDBLK
  5
1F8
  8
0
  0
BLOCK
 67
     1
  8
0
  2
$PAPER_SPACE
 70
     0
 10
0.0
 20
0.0
 30
0.0
  3
$PAPER_SPACE
  1

  0
ENDBLK
  5
1F4
 67
     1
  8
0
  0
BLOCK
  8
0
  2
DOT1
 70
     0
 10
0.0
 20
0.0
 30
0.0
  3
DOT1
  1

  0
CIRCLE
  5
213
  8
SIZE
  6
CONTINUOUS
 62
     7
 10
0.0
 20
0.0
 30
0.0
 40
3.0
  0
ENDBLK
  5
214
  8
0
  0
BLOCK
  8
0
  2
_ORIGIN
 70
     0
 10
0.0
 20
0.0
 30
0.0
  3
_ORIGIN
  1

  0
CIRCLE
  5
217
  8
0
  6
CONTINUOUS
 62
     7
 10
0.0
 20
0.0
 30
0.0
 40
0.5
  0
LINE
  5
218
  8
0
  6
CONTINUOUS
 62
     7
 10
0.0
 20
0.0
 30
0.0
 11
-1.0
 21
0.0
 31
0.0
  0
ENDBLK
  5
219
  8
0
  0
ENDSEC
  0
SECTION
  2
ENTITIES
  0
LINE
  5
21A
  8
DETAIL
  6
CONTINUOUS
 62
     5
 10
0.0000000000001137
 20
-309.9999999999999
 30
0.0
 11
0.0000000000001137
 21
310.0
 31
0.0
  0
LINE
  5
21B
  8
BASIS
  6
DASHDOT
 62
     6
 10
-54.26140099999989
 20
0.0
 30
0.0
 11
370.2051169999999
 21
0.0
 31
0.0
  0
LINE
  5
21C
  8
DETAIL
  6
CONTINUOUS
 62
     5
 10
20.0
 20
250.0
 30
0.0
 11
208.4608340000001
 21
250.0
 31
0.0
  0
LINE
  5
21D
  8
DETAIL
  6
CONTINUOUS
 62
     5
 10
20.0
 20
-250.0
 30
0.0
 11
208.4608340000001
 21
-250.0
 31
0.0
  0
LINE
  5
21E
  8
DETAIL
  6
CONTINUOUS
 62
     5
 10
10.00000000000011
 20
-303.0
 30
0.0
 11
10.00000000000011
 21
-290.5
 31
0.0
  0
LINE
  5
21F
  8
DETAIL
  6
CONTINUOUS
 62
     5
 10
3.000000000000114
 20
-309.9999999999999
 30
0.0
 11
0.0000000000001137
 21
-309.9999999999999
 31
0.0
  0
LINE
  5
220
  8
DETAIL
  6
CONTINUOUS
 62
     5
 10
3.000000000000114
 20
310.0
 30
0.0
 11
0.0000000000001137
 21
310.0
 31
0.0
  0
LINE
  5
221
  8
DETAIL
  6
CONTINUOUS
 62
     5
 10
10.00000000000011
 20
-290.5
 30
0.0
 11
10.00000000000011
 21
290.5
 31
0.0
  0
LINE
  5
222
  8
DETAIL
  6
CONTINUOUS
 62
     5
 10
10.00000000000011
 20
290.5
 30
0.0
 11
10.00000000000011
 21
302.9999999999999
 31
0.0
  0
LINE
  5
223
  8
DETAIL
  6
CONTINUOUS
 62
     5
 10
250.4608340000001
 20
-90.0
 30
0.0
 11
250.4608340000001
 21
0.0
 31
0.0
  0
LINE
  5
224
  8
NOTE
  6
CONTINUOUS
 62
     4
 10
20.0
 20
280.0
 30
0.0
 11
-20.00000000000009
 21
280.0
 31
0.0
  0
LINE
  5
225
  8
NOTE
  6
CONTINUOUS
 62
     4
 10
0.0000000000001137
 20
300.0
 30
0.0
 11
0.0000000000001137
 21
260.0
 31
0.0
  0
LINE
  5
226
  8
NOTE
  6
CONTINUOUS
 62
     4
 10
20.0
 20
-280.0
 30
0.0
 11
-20.00000000000009
 21
-280.0
 31
0.0
  0
LINE
  5
227
  8
NOTE
  6
CONTINUOUS
 62
     4
 10
0.0000000000001137
 20
-259.9999999999999
 30
0.0
 11
0.0000000000001137
 21
-300.0
 31
0.0
  0
LINE
  5
228
  8
DETAIL
  6
CONTINUOUS
 62
     5
 10
20.0
 20
286.2857649999999
 30
0.0
 11
10.00000000000011
 21
286.2857649999999
 31
0.0
  0
LINE
  5
229
  8
DETAIL
  6
CONTINUOUS
 62
     5
 10
20.0
 20
-287.0540109999999
 30
0.0
 11
10.00000000000011
 21
-287.0540109999999
 31
0.0
  0
LINE
  5
22A
  8
DETAIL
  6
CONTINUOUS
 62
     5
 10
250.4608340000001
 20
-90.0
 30
0.0
 11
250.4608340000001
 21
-175.0
 31
0.0
  0
LINE
  5
22B
  8
DETAIL
  6
CONTINUOUS
 62
     5
 10
250.4608340000001
 20
0.0
 30
0.0
 11
250.4608340000001
 21
175.0
 31
0.0
  0
LINE
  5
22C
  8
DETAIL
  6
CONTINUOUS
 62
     5
 10
20.0
 20
-287.0540109999999
 30
0.0
 11
20.0
 21
286.2857649999999
 31
0.0
  0
ARC
  5
22D
  8
DETAIL
  6
CONTINUOUS
 62
     5
 10
3.000000000000114
 20
302.9999999999999
 30
0.0
 40
7.0
 50
0.0
 51
90.0
  0
ARC
  5
22E
  8
DETAIL
  6
CONTINUOUS
 62
     5
 10
3.000000000000114
 20
-303.0
 30
0.0
 40
7.0
 50
270.0
 51
0.0
  0
LINE
  5
22F
  8
DETAIL
  6
CONTINUOUS
 62
     5
 10
88.00000000000011
 20
-225.0
 30
0.0
 11
88.00000000000011
 21
225.0
 31
0.0
  0
LINE
  5
230
  8
DETAIL
  6
CONTINUOUS
 62
     5
 10
88.00000000000011
 20
250.0
 30
0.0
 11
88.00000000000011
 21
302.5
 31
0.0
  0
LINE
  5
231
  8
DETAIL
  6
CONTINUOUS
 62
     5
 10
88.00000000000011
 20
-250.0
 30
0.0
 11
88.00000000000011
 21
-302.5
 31
0.0
  0
LINE
  5
232
  8
DETAIL
  6
CONTINUOUS
 62
     5
 10
105.0
 20
5.0
 30
0.0
 11
116.2744310000001
 21
5.0
 31
0.0
  0
LINE
  5
233
  8
DETAIL
  6
CONTINUOUS
 62
     5
 10
105.0
 20
-5.0
 30
0.0
 11
116.2744310000001
 21
-5.0
 31
0.0
  0
LINE
  5
234
  8
SIZE
  6
CONTINUOUS
 62
    30
 10
0.0000000000001137
 20
330.0
 30
0.0
 11
0.0000000000001137
 21
448.537785
 31
0.0
  0
LINE
  5
235
  8
SIZE
  6
CONTINUOUS
 62
    30
 10
10.00000000000011
 20
323.0
 30
0.0
 11
10.00000000000011
 21
448.537785
 31
0.0
  0
LINE
  5
236
  8
SIZE
  6
CONTINUOUS
 62
    30
 10
22.0
 20
428.5377849999999
 30
0.0
 11
34.00000000000011
 21
428.5377849999999
 31
0.0
  0
LINE
  5
237
  8
SIZE
  6
CONTINUOUS
 62
    30
 10
-11.99999999999989
 20
428.5377849999999
 30
0.0
 11
-156.2857139999999
 21
428.5377849999999
 31
0.0
  0
LINE
  5
238
  8
SIZE
  6
CONTINUOUS
 62
    30
 10
10.00000000000011
 20
428.5377849999999
 30
0.0
 11
0.0000000000001137
 21
428.5377849999999
 31
0.0
  0
CIRCLE
  5
239
  8
SIZE
  6
CONTINUOUS
 62
    30
 10
10.00000000000011
 20
428.5377849999999
 30
0.0
 40
6.0
  0
LINE
  5
23A
  8
SIZE
  6
CONTINUOUS
 62
    30
 10
10.00000000000011
 20
428.5377849999999
 30
0.0
 11
22.0
 21
428.5377849999999
 31
0.0
  0
CIRCLE
  5
23B
  8
SIZE
  6
CONTINUOUS
 62
    30
 10
0.0000000000001137
 20
428.5377849999999
 30
0.0
 40
6.0
  0
LINE
  5
23C
  8
SIZE
  6
CONTINUOUS
 62
    30
 10
0.0000000000001137
 20
428.5377849999999
 30
0.0
 11
-11.99999999999989
 21
428.5377849999999
 31
0.0
  0
TEXT
  5
23D
  8
SIZE
  6
CONTINUOUS
 62
    30
 10
-149.1142855714286
 20
453.5377849999999
 30
0.0
 40
64.0
  1
10
 41
0.9
 72
     1
 11
-90.14285699999999
 21
453.5377849999999
 31
0.0
  0
LINE
  5
23E
  8
SIZE
  6
CONTINUOUS
 62
    30
 10
0.0000000000001137
 20
330.0
 30
0.0
 11
0.0000000000001137
 21
577.9475309999997
 31
0.0
  0
LINE
  5
23F
  8
SIZE
  6
CONTINUOUS
 62
    30
 10
94.99999999999989
 20
322.5
 30
0.0
 11
94.99999999999989
 21
577.9475309999997
 31
0.0
  0
LINE
  5
240
  8
SIZE
  6
CONTINUOUS
 62
    30
 10
83.00000000000011
 20
557.9475309999997
 30
0.0
 11
12.00000000000011
 21
557.9475309999997
 31
0.0
  0
LINE
  5
241
  8
SIZE
  6
CONTINUOUS
 62
    30
 10
0.0000000000001137
 20
557.9475309999997
 30
0.0
 11
-155.2571429999999
 21
557.9475309999997
 31
0.0
  0
CIRCLE
  5
242
  8
SIZE
  6
CONTINUOUS
 62
    30
 10
94.99999999999989
 20
557.9475309999997
 30
0.0
 40
6.0
  0
LINE
  5
243
  8
SIZE
  6
CONTINUOUS
 62
    30
 10
94.99999999999989
 20
557.9475309999997
 30
0.0
 11
83.00000000000011
 21
557.9475309999997
 31
0.0
  0
CIRCLE
  5
244
  8
SIZE
  6
CONTINUOUS
 62
    30
 10
0.0000000000001137
 20
557.9475309999997
 30
0.0
 40
6.0
  0
LINE
  5
245
  8
SIZE
  6
CONTINUOUS
 62
    30
 10
0.0000000000001137
 20
557.9475309999997
 30
0.0
 11
12.00000000000011
 21
557.9475309999997
 31
0.0
  0
TEXT
  5
246
  8
SIZE
  6
CONTINUOUS
 62
    30
 10
-138.4857138571427
 20
582.9475309999997
 30
0.0
 40
64.0
  1
95
 41
0.9
 72
     1
 11
-83.6285709999999
 21
582.9475309999997
 31
0.0
  0
LINE
  5
247
  8
NOTE
  6
CONTINUOUS
 62
     4
 10
0.0000000000001137
 20
-280.0
 30
0.0
 11
-152.7836069999999
 21
-444.984762
 31
0.0
  0
LINE
  5
248
  8
NOTE
  6
CONTINUOUS
 62
     4
 10
-18.61762699999989
 20
-315.403163
 30
0.0
 11
0.0000000000001137
 21
-280.0
 31
0.0
  0
LINE
  5
249
  8
NOTE
  6
CONTINUOUS
 62
     4
 10
0.0000000000001137
 20
-280.0
 30
0.0
 11
-33.82491899999988
 21
-301.351225
 31
0.0
  0
LINE
  5
24A
  8
SIZE
  6
CONTINUOUS
 62
    30
 10
-40.00000000000009
 20
280.0
 30
0.0
 11
-145.8159439999999
 21
280.0
 31
0.0
  0
LINE
  5
24B
  8
SIZE
  6
CONTINUOUS
 62
    30
 10
-40.00000000000009
 20
-280.0
 30
0.0
 11
-145.8159439999999
 21
-280.0
 31
0.0
  0
LINE
  5
24C
  8
SIZE
  6
CONTINUOUS
 62
    30
 10
-125.8159439999999
 20
267.9999999999999
 30
0.0
 11
-125.8159439999999
 21
-267.9999999999999
 31
0.0
  0
CIRCLE
  5
24D
  8
SIZE
  6
CONTINUOUS
 62
    30
 10
-125.8159439999999
 20
280.0
 30
0.0
 40
6.0
  0
LINE
  5
24E
  8
SIZE
  6
CONTINUOUS
 62
    30
 10
-125.8159439999999
 20
280.0
 30
0.0
 11
-125.8159439999999
 21
267.9999999999999
 31
0.0
  0
CIRCLE
  5
24F
  8
SIZE
  6
CONTINUOUS
 62
    30
 10
-125.8159439999999
 20
-280.0
 30
0.0
 40
6.0
  0
LINE
  5
250
  8
SIZE
  6
CONTINUOUS
 62
    30
 10
-125.8159439999999
 20
-280.0
 30
0.0
 11
-125.8159439999999
 21
-267.9999999999999
 31
0.0
  0
TEXT
  5
251
  8
SIZE
  6
CONTINUOUS
 62
    30
 10
-150.8159439999999
 20
-88.40338028571429
 30
0.0
 40
64.0
  1
560
 50
90.0
 41
0.9
 72
     1
 11
-150.8159439999999
 21
-6.117666
 31
0.0
  0
LINE
  5
252
  8
SIZE
  6
CONTINUOUS
 62
    30
 10
-16.99999999999989
 20
310.0
 30
0.0
 11
-277.8955079999999
 21
310.0
 31
0.0
  0
LINE
  5
253
  8
SIZE
  6
CONTINUOUS
 62
    30
 10
-16.99999999999989
 20
-309.9999999999999
 30
0.0
 11
-277.8955079999999
 21
-309.9999999999999
 31
0.0
  0
LINE
  5
254
  8
SIZE
  6
CONTINUOUS
 62
    30
 10
-257.8955079999999
 20
298.0
 30
0.0
 11
-257.8955079999999
 21
-298.0
 31
0.0
  0
CIRCLE
  5
255
  8
SIZE
  6
CONTINUOUS
 62
    30
 10
-257.8955079999999
 20
310.0
 30
0.0
 40
6.0
  0
LINE
  5
256
  8
SIZE
  6
CONTINUOUS
 62
    30
 10
-257.8955079999999
 20
310.0
 30
0.0
 11
-257.8955079999999
 21
298.0
 31
0.0
  0
CIRCLE
  5
257
  8
SIZE
  6
CONTINUOUS
 62
    30
 10
-257.8955079999999
 20
-309.9999999999999
 30
0.0
 40
6.0
  0
LINE
  5
258
  8
SIZE
  6
CONTINUOUS
 62
    30
 10
-257.8955079999999
 20
-309.9999999999999
 30
0.0
 11
-257.8955079999999
 21
-298.0
 31
0.0
  0
TEXT
  5
259
  8
SIZE
  6
CONTINUOUS
 62
    30
 10
-282.8955079999999
 20
-83.65714285714286
 30
0.0
 40
64.0
  1
620
 50
90.0
 41
0.9
 72
     1
 11
-282.8955079999999
 21
0.0
 31
0.0
  0
LINE
  5
25A
  8
DETAIL
  6
CONTINUOUS
 62
     5
 10
94.99999999999989
 20
250.0
 30
0.0
 11
94.99999999999989
 21
302.5
 31
0.0
  0
LINE
  5
25B
  8
DETAIL
  6
CONTINUOUS
 62
     5
 10
94.99999999999989
 20
-225.0
 30
0.0
 11
94.99999999999989
 21
225.0
 31
0.0
  0
LINE
  5
25C
  8
DETAIL
  6
CONTINUOUS
 62
     5
 10
94.99999999999989
 20
-250.0
 30
0.0
 11
94.99999999999989
 21
-302.5
 31
0.0
  0
LINE
  5
25D
  8
DETAIL
  6
CONTINUOUS
 62
     5
 10
94.99999999999989
 20
302.5
 30
0.0
 11
88.00000000000011
 21
302.5
 31
0.0
  0
LINE
  5
25E
  8
DETAIL
  6
CONTINUOUS
 62
     5
 10
94.99999999999989
 20
-302.5
 30
0.0
 11
88.00000000000011
 21
-302.5
 31
0.0
  0
LINE
  5
25F
  8
DETAIL
  6
CONTINUOUS
 62
     5
 10
288.460834
 20
92.53795
 30
0.0
 11
250.4608340000001
 21
92.53795
 31
0.0
  0
LINE
  5
260
  8
DETAIL
  6
CONTINUOUS
 62
     5
 10
243.3017970000001
 20
-90.0
 30
0.0
 11
243.3017970000001
 21
90.0
 31
0.0
  0
LINE
  5
261
  8
DETAIL
  6
CONTINUOUS
 62
     5
 10
250.4608340000001
 20
95.0
 30
0.0
 11
248.301797
 21
95.0
 31
0.0
  0
LINE
  5
262
  8
DETAIL
  6
CONTINUOUS
 62
     5
 10
250.4608340000001
 20
-95.0
 30
0.0
 11
248.301797
 21
-95.0
 31
0.0
  0
LINE
  5
263
  8
SIZE
  6
CONTINUOUS
 62
    30
 10
10.00000000000011
 20
323.0
 30
0.0
 11
10.00000000000011
 21
448.537785
 31
0.0
  0
LINE
  5
264
  8
SIZE
  6
CONTINUOUS
 62
    30
 10
20.0
 20
306.2857649999999
 30
0.0
 11
20.0
 21
448.537785
 31
0.0
  0
LINE
  5
265
  8
SIZE
  6
CONTINUOUS
 62
    30
 10
-1.999999999999886
 20
428.5377849999999
 30
0.0
 11
-13.99999999999989
 21
428.5377849999999
 31
0.0
  0
LINE
  5
266
  8
SIZE
  6
CONTINUOUS
 62
    30
 10
32.00000000000011
 20
428.5377849999999
 30
0.0
 11
255.250184
 21
428.5377849999999
 31
0.0
  0
LINE
  5
267
  8
SIZE
  6
CONTINUOUS
 62
    30
 10
10.00000000000011
 20
428.5377849999999
 30
0.0
 11
20.0
 21
428.5377849999999
 31
0.0
  0
CIRCLE
  5
268
  8
SIZE
  6
CONTINUOUS
 62
    30
 10
10.00000000000011
 20
428.5377849999999
 30
0.0
 40
6.0
  0
LINE
  5
269
  8
SIZE
  6
CONTINUOUS
 62
    30
 10
10.00000000000011
 20
428.5377849999999
 30
0.0
 11
-1.999999999999886
 21
428.5377849999999
 31
0.0
  0
CIRCLE
  5
26A
  8
SIZE
  6
CONTINUOUS
 62
    30
 10
20.0
 20
428.5377849999999
 30
0.0
 40
6.0
  0
LINE
  5
26B
  8
SIZE
  6
CONTINUOUS
 62
    30
 10
20.0
 20
428.5377849999999
 30
0.0
 11
32.00000000000011
 21
428.5377849999999
 31
0.0
  0
TEXT
  5
26C
  8
SIZE
  6
CONTINUOUS
 62
    30
 10
130.1358974285714
 20
453.5377849999999
 30
0.0
 40
64.0
  1
10
 41
0.9
 72
     1
 11
189.107326
 21
453.5377849999999
 31
0.0
  0
TEXT
  5
26D
  8
NOTE
  6
CONTINUOUS
 62
     4
 10
-441.5894729999999
 20
-419.8852129999999
 30
0.0
 40
64.0
  1
4-φ14
 41
0.9
  0
LINE
  5
26E
  8
NOTE
  6
CONTINUOUS
 62
     4
 10
-469.8930819999999
 20
-444.984762
 30
0.0
 11
-152.7836069999999
 21
-444.984762
 31
0.0
  0
CIRCLE
  5
26F
  8
FIX
  6
CONTINUOUS
 62
    11
 10
0.0000000000001137
 20
-280.0
 30
0.0
 40
7.0
  0
CIRCLE
  5
270
  8
FIX
  6
CONTINUOUS
 62
    11
 10
0.0000000000001137
 20
280.0
 30
0.0
 40
7.0
  0
LINE
  5
271
  8
SIZE
  6
CONTINUOUS
 62
    30
 10
312.509942
 20
65.5
 30
0.0
 11
529.8783070000002
 21
65.5
 31
0.0
  0
LINE
  5
272
  8
SIZE
  6
CONTINUOUS
 62
    30
 10
312.509942
 20
-65.5
 30
0.0
 11
529.8783070000002
 21
-65.5
 31
0.0
  0
LINE
  5
273
  8
SIZE
  6
CONTINUOUS
 62
    30
 10
509.8783070000001
 20
53.5
 30
0.0
 11
509.8783070000001
 21
-53.5
 31
0.0
  0
LINE
  5
274
  8
SIZE
  6
CONTINUOUS
 62
    30
 10
509.8783070000001
 20
-310.718083
 30
0.0
 11
509.8783070000001
 21
-65.5
 31
0.0
  0
TEXT
  5
275
  8
SIZE
  6
CONTINUOUS
 62
    30
 10
484.8783070000001
 20
-302.1752261428571
 30
0.0
 40
64.0
  1
φ131
 50
90.0
 41
0.9
 72
     1
 11
484.8783070000001
 21
-203.4323689999999
 31
0.0
  0
CIRCLE
  5
276
  8
SIZE
  6
CONTINUOUS
 62
    30
 10
509.8783070000001
 20
65.5
 30
0.0
 40
6.0
  0
LINE
  5
277
  8
SIZE
  6
CONTINUOUS
 62
    30
 10
509.8783070000001
 20
65.5
 30
0.0
 11
509.8783070000001
 21
53.5
 31
0.0
  0
CIRCLE
  5
278
  8
SIZE
  6
CONTINUOUS
 62
    30
 10
509.8783070000001
 20
-65.5
 30
0.0
 40
6.0
  0
LINE
  5
279
  8
SIZE
  6
CONTINUOUS
 62
    30
 10
509.8783070000001
 20
-65.5
 30
0.0
 11
509.8783070000001
 21
-53.5
 31
0.0
  0
LINE
  5
27A
  8
DETAIL
  6
CONTINUOUS
 62
     5
 10
315.0000000000001
 20
-57.5
 30
0.0
 11
315.0000000000001
 21
57.5
 31
0.0
  0
LINE
  5
27B
  8
DETAIL
  6
CONTINUOUS
 62
     5
 10
300.0000000000001
 20
-61.463131
 30
0.0
 11
300.0000000000001
 21
61.463131
 31
0.0
  0
LINE
  5
27C
  8
DETAIL
  6
CONTINUOUS
 62
     5
 10
288.451787
 20
-95.0
 30
0.0
 11
292.5099419999999
 21
-95.0
 31
0.0
  0
LINE
  5
27D
  8
DETAIL
  6
CONTINUOUS
 62
     5
 10
288.451787
 20
95.0009319999998
 30
0.0
 11
292.5099419999999
 21
95.0009319999998
 31
0.0
  0
LINE
  5
27E
  8
DETAIL
  6
CONTINUOUS
 62
     5
 10
288.460834
 20
169.9999999999999
 30
0.0
 11
288.460834
 21
-170.0
 31
0.0
  0
LINE
  5
27F
  8
DETAIL
  6
CONTINUOUS
 62
     5
 10
292.5099419999999
 20
65.5
 30
0.0
 11
307.0000000000001
 21
65.5
 31
0.0
  0
LINE
  5
280
  8
DETAIL
  6
CONTINUOUS
 62
     5
 10
292.5099419999999
 20
-65.5
 30
0.0
 11
307.0000000000001
 21
-65.5
 31
0.0
  0
ARC
  5
281
  8
DETAIL
  6
CONTINUOUS
 62
     5
 10
307.0000000000001
 20
57.5
 30
0.0
 40
8.0
 50
0.0
 51
90.0
  0
ARC
  5
282
  8
DETAIL
  6
CONTINUOUS
 62
     5
 10
307.0000000000001
 20
-57.5
 30
0.0
 40
8.0
 50
270.0
 51
0.0
  0
ARC
  5
283
  8
DETAIL
  6
CONTINUOUS
 62
     5
 10
248.301797
 20
90.0
 30
0.0
 40
5.0
 50
90.0
 51
180.0
  0
ARC
  5
284
  8
DETAIL
  6
CONTINUOUS
 62
     5
 10
248.301797
 20
-90.0
 30
0.0
 40
5.0
 50
180.0
 51
270.0
  0
LINE
  5
285
  8
DETAIL
  6
CONTINUOUS
 62
     5
 10
20.0
 20
225.0
 30
0.0
 11
200.4608340000001
 21
225.0
 31
0.0
  0
LINE
  5
286
  8
DETAIL
  6
CONTINUOUS
 62
     5
 10
20.0
 20
-225.0
 30
0.0
 11
200.4608340000001
 21
-225.0
 31
0.0
  0
ARC
  5
287
  8
DETAIL
  6
CONTINUOUS
 62
     5
 10
200.4608340000001
 20
175.0
 30
0.0
 40
50.0
 50
0.0
 51
90.0
  0
ARC
  5
288
  8
DETAIL
  6
CONTINUOUS
 62
     5
 10
200.4608340000001
 20
-175.0
 30
0.0
 40
50.0
 50
270.0
 51
0.0
  0
ARC
  5
289
  8
DETAIL
  6
CONTINUOUS
 62
     5
 10
208.4608340000001
 20
169.9999999999999
 30
0.0
 40
80.0
 50
0.0
 51
90.0
  0
ARC
  5
28A
  8
DETAIL
  6
CONTINUOUS
 62
     5
 10
208.4608340000001
 20
-170.0
 30
0.0
 40
80.0
 50
270.0
 51
0.0
  0
LINE
  5
28B
  8
SIZE
  6
CONTINUOUS
 62
    30
 10
115.0000000000001
 20
302.5
 30
0.0
 11
659.5024599999999
 21
302.5
 31
0.0
  0
LINE
  5
28C
  8
SIZE
  6
CONTINUOUS
 62
    30
 10
115.0000000000001
 20
-302.5
 30
0.0
 11
659.5024599999999
 21
-302.5
 31
0.0
  0
LINE
  5
28D
  8
SIZE
  6
CONTINUOUS
 62
    30
 10
639.5024599999997
 20
290.5
 30
0.0
 11
639.5024599999997
 21
-290.5
 31
0.0
  0
CIRCLE
  5
28E
  8
SIZE
  6
CONTINUOUS
 62
    30
 10
639.5024599999997
 20
302.5
 30
0.0
 40
6.0
  0
LINE
  5
28F
  8
SIZE
  6
CONTINUOUS
 62
    30
 10
639.5024599999997
 20
302.5
 30
0.0
 11
639.5024599999997
 21
290.5
 31
0.0
  0
CIRCLE
  5
290
  8
SIZE
  6
CONTINUOUS
 62
    30
 10
639.5024599999997
 20
-302.5
 30
0.0
 40
6.0
  0
LINE
  5
291
  8
SIZE
  6
CONTINUOUS
 62
    30
 10
639.5024599999997
 20
-302.5
 30
0.0
 11
639.5024599999997
 21
-290.5
 31
0.0
  0
TEXT
  5
292
  8
SIZE
  6
CONTINUOUS
 62
    30
 10
614.5024599999997
 20
-106.9714285714286
 30
0.0
 40
64.0
  1
φ605
 50
90.0
 41
0.9
 72
     1
 11
614.5024599999997
 21
0.0
 31
0.0
  0
ARC
  5
293
  8
DETAIL
  6
CONTINUOUS
 62
     5
 10
46.94774100000001
 20
300.032394
 30
0.0
 40
46.069328
 50
259.3209969999999
 51
333.011472
  0
LINE
  5
294
  8
DETAIL
  6
CONTINUOUS
 62
     5
 10
38.41079500000012
 20
254.7609509999999
 30
0.0
 11
20.0
 21
257.069096
 31
0.0
  0
ARC
  5
295
  8
DETAIL
  6
CONTINUOUS
 62
     5
 10
46.94774100000001
 20
-300.032394
 30
0.0
 40
46.069328
 50
26.98852799999998
 51
100.6790029999998
  0
LINE
  5
296
  8
DETAIL
  6
CONTINUOUS
 62
     5
 10
38.41079500000012
 20
-254.7609509999998
 30
0.0
 11
20.0
 21
-257.069096
 31
0.0
  0
LINE
  5
297
  8
DETAIL
  6
CONTINUOUS
 62
     5
 10
105.0
 20
-8.320065
 30
0.0
 11
105.0
 21
8.320065
 31
0.0
  0
LINE
  5
298
  8
DETAIL
  6
CONTINUOUS
 62
     5
 10
105.0
 20
8.320065
 30
0.0
 11
94.99999999999989
 21
10.956924
 31
0.0
  0
LINE
  5
299
  8
DETAIL
  6
CONTINUOUS
 62
     5
 10
105.0
 20
-8.320065
 30
0.0
 11
94.99999999999989
 21
-10.956924
 31
0.0
  0
LINE
  5
29A
  8
DETAIL
  6
CONTINUOUS
 62
     5
 10
189.088068
 20
84.80060700000001
 30
0.0
 11
189.088068
 21
-84.800607
 31
0.0
  0
LINE
  5
29B
  8
DETAIL
  6
CONTINUOUS
 62
     5
 10
131.274431
 20
-55.5
 30
0.0
 11
131.274431
 21
55.5
 31
0.0
  0
LINE
  5
29C
  8
DETAIL
  6
CONTINUOUS
 62
     5
 10
141.2744310000001
 20
-65.5
 30
0.0
 11
189.088068
 21
-65.5
 31
0.0
  0
LINE
  5
29D
  8
DETAIL
  6
CONTINUOUS
 62
     5
 10
243.3017970000001
 20
-78.800607
 30
0.0
 11
189.088068
 21
-78.800607
 31
0.0
  0
LINE
  5
29E
  8
DETAIL
  6
CONTINUOUS
 62
     5
 10
243.3017970000001
 20
-6.800606999999999
 30
0.0
 11
189.088068
 21
-6.800606999999999
 31
0.0
  0
LINE
  5
29F
  8
DETAIL
  6
CONTINUOUS
 62
     5
 10
243.3017970000001
 20
-18.800607
 30
0.0
 11
189.088068
 21
-18.800607
 31
0.0
  0
LINE
  5
2A0
  8
DETAIL
  6
CONTINUOUS
 62
     5
 10
243.3017970000001
 20
6.800606999999999
 30
0.0
 11
189.088068
 21
6.800606999999999
 31
0.0
  0
LINE
  5
2A1
  8
DETAIL
  6
CONTINUOUS
 62
     5
 10
243.3017970000001
 20
-30.800607
 30
0.0
 11
189.088068
 21
-30.800607
 31
0.0
  0
LINE
  5
2A2
  8
DETAIL
  6
CONTINUOUS
 62
     5
 10
243.3017970000001
 20
-54.80060699999999
 30
0.0
 11
189.088068
 21
-54.80060699999999
 31
0.0
  0
LINE
  5
2A3
  8
DETAIL
  6
CONTINUOUS
 62
     5
 10
243.3017970000001
 20
-54.80060699999999
 30
0.0
 11
189.088068
 21
-54.80060699999999
 31
0.0
  0
LINE
  5
2A4
  8
DETAIL
  6
CONTINUOUS
 62
     5
 10
243.3017970000001
 20
-54.80060699999999
 30
0.0
 11
189.088068
 21
-54.80060699999999
 31
0.0
  0
LINE
  5
2A5
  8
DETAIL
  6
CONTINUOUS
 62
     5
 10
243.3017970000001
 20
-42.800607
 30
0.0
 11
189.088068
 21
-42.800607
 31
0.0
  0
LINE
  5
2A6
  8
DETAIL
  6
CONTINUOUS
 62
     5
 10
243.3017970000001
 20
-54.80060699999999
 30
0.0
 11
189.088068
 21
-54.80060699999999
 31
0.0
  0
LINE
  5
2A7
  8
DETAIL
  6
CONTINUOUS
 62
     5
 10
243.3017970000001
 20
-66.800607
 30
0.0
 11
189.088068
 21
-66.800607
 31
0.0
  0
ARC
  5
2A8
  8
DETAIL
  6
CONTINUOUS
 62
     5
 10
141.2744310000001
 20
-55.5
 30
0.0
 40
10.0
 50
180.0
 51
270.0
  0
LINE
  5
2A9
  8
DETAIL
  6
CONTINUOUS
 62
     5
 10
141.2744310000001
 20
65.5
 30
0.0
 11
189.088068
 21
65.5
 31
0.0
  0
LINE
  5
2AA
  8
DETAIL
  6
CONTINUOUS
 62
     5
 10
243.3017970000001
 20
18.800607
 30
0.0
 11
189.088068
 21
18.800607
 31
0.0
  0
LINE
  5
2AB
  8
DETAIL
  6
CONTINUOUS
 62
     5
 10
243.3017970000001
 20
30.800607
 30
0.0
 11
189.088068
 21
30.800607
 31
0.0
  0
LINE
  5
2AC
  8
DETAIL
  6
CONTINUOUS
 62
     5
 10
243.3017970000001
 20
42.800607
 30
0.0
 11
189.088068
 21
42.800607
 31
0.0
  0
LINE
  5
2AD
  8
DETAIL
  6
CONTINUOUS
 62
     5
 10
243.3017970000001
 20
54.8006069999999
 30
0.0
 11
189.088068
 21
54.8006069999999
 31
0.0
  0
LINE
  5
2AE
  8
DETAIL
  6
CONTINUOUS
 62
     5
 10
243.3017970000001
 20
66.800607
 30
0.0
 11
189.088068
 21
66.800607
 31
0.0
  0
LINE
  5
2AF
  8
DETAIL
  6
CONTINUOUS
 62
     5
 10
243.3017970000001
 20
78.80060700000001
 30
0.0
 11
189.088068
 21
78.80060700000001
 31
0.0
  0
ARC
  5
2B0
  8
DETAIL
  6
CONTINUOUS
 62
     5
 10
141.2744310000001
 20
55.5
 30
0.0
 40
10.0
 50
90.0
 51
180.0
  0
LINE
  5
2B1
  8
DETAIL
  6
CONTINUOUS
 62
     5
 10
116.2744310000001
 20
-15.0
 30
0.0
 11
116.2744310000001
 21
15.0
 31
0.0
  0
LINE
  5
2B2
  8
DETAIL
  6
CONTINUOUS
 62
     5
 10
121.2744309999999
 20
-20.0
 30
0.0
 11
131.274431
 21
-20.0
 31
0.0
  0
LINE
  5
2B3
  8
DETAIL
  6
CONTINUOUS
 62
     5
 10
121.2744309999999
 20
20.0
 30
0.0
 11
131.274431
 21
20.0
 31
0.0
  0
ARC
  5
2B4
  8
DETAIL
  6
CONTINUOUS
 62
     5
 10
121.2744309999999
 20
15.0
 30
0.0
 40
5.0
 50
90.0
 51
180.0
  0
ARC
  5
2B5
  8
DETAIL
  6
CONTINUOUS
 62
     5
 10
121.2744309999999
 20
-15.0
 30
0.0
 40
5.0
 50
180.0
 51
270.0
  0
LINE
  5
2B6
  8
DETAIL
  6
CONTINUOUS
 62
     5
 10
288.460834
 20
-92.53794999999998
 30
0.0
 11
250.4608340000001
 21
-92.53794999999998
 31
0.0
  0
LINE
  5
2B7
  8
DETAIL
  6
CONTINUOUS
 62
     5
 10
292.5099419999999
 20
95.0009319999998
 30
0.0
 11
292.5099419999999
 21
65.5
 31
0.0
  0
LINE
  5
2B8
  8
DETAIL
  6
CONTINUOUS
 62
     5
 10
292.5099419999999
 20
65.5
 30
0.0
 11
300.0000000000001
 21
61.463131
 31
0.0
  0
LINE
  5
2B9
  8
DETAIL
  6
CONTINUOUS
 62
     5
 10
292.5099419999999
 20
-65.5
 30
0.0
 11
300.0000000000001
 21
-61.463131
 31
0.0
  0
LINE
  5
2BA
  8
DETAIL
  6
CONTINUOUS
 62
     5
 10
292.5099419999999
 20
-65.5
 30
0.0
 11
292.5099419999999
 21
-95.0
 31
0.0
  0
LINE
  5
2BB
  8
DETAIL
  6
CONTINUOUS
 62
     5
 10
243.3017970000001
 20
84.80060700000001
 30
0.0
 11
189.088068
 21
84.80060700000001
 31
0.0
  0
LINE
  5
2BC
  8
DETAIL
  6
CONTINUOUS
 62
     5
 10
243.3017970000001
 20
-84.800607
 30
0.0
 11
189.088068
 21
-84.800607
 31
0.0
  0
LINE
  5
2BD
  8
SIZE
  6
CONTINUOUS
 62
    30
 10
0.0000000000001137
 20
330.0
 30
0.0
 11
0.0000000000001137
 21
674.6561009999998
 31
0.0
  0
LINE
  5
2BE
  8
SIZE
  6
CONTINUOUS
 62
    30
 10
315.0000000000001
 20
77.5
 30
0.0
 11
315.0000000000001
 21
674.6561009999998
 31
0.0
  0
LINE
  5
2BF
  8
SIZE
  6
CONTINUOUS
 62
    30
 10
12.00000000000011
 20
654.6561009999997
 30
0.0
 11
303.0000000000001
 21
654.6561009999997
 31
0.0
  0
CIRCLE
  5
2C0
  8
SIZE
  6
CONTINUOUS
 62
    30
 10
0.0000000000001137
 20
654.6561009999997
 30
0.0
 40
6.0
  0
LINE
  5
2C1
  8
SIZE
  6
CONTINUOUS
 62
    30
 10
0.0000000000001137
 20
654.6561009999997
 30
0.0
 11
12.00000000000011
 21
654.6561009999997
 31
0.0
  0
CIRCLE
  5
2C2
  8
SIZE
  6
CONTINUOUS
 62
    30
 10
315.0000000000001
 20
654.6561009999997
 30
0.0
 40
6.0
  0
LINE
  5
2C3
  8
SIZE
  6
CONTINUOUS
 62
    30
 10
315.0000000000001
 20
654.6561009999997
 30
0.0
 11
303.0000000000001
 21
654.6561009999997
 31
0.0
  0
TEXT
  5
2C4
  8
SIZE
  6
CONTINUOUS
 62
    30
 10
75.21428571428582
 20
679.6561009999997
 30
0.0
 40
64.0
  1
315
 41
0.9
 72
     1
 11
157.5000000000001
 21
679.6561009999997
 31
0.0
  0
ARC
  5
2C5
  8
DETAIL
  6
CONTINUOUS
 62
     5
 10
335.469993
 20
-101.347002
 30
0.0
 40
301.540096
 50
128.025805
 51
142.8894359999999
  0
ARC
  5
2C6
  8
DETAIL
  6
CONTINUOUS
 62
     5
 10
82.44074599999999
 20
148.4020349999999
 30
0.0
 40
93.13253700000001
 50
355.2706219999999
 51
54.02506400000001
  0
LINE
  5
2C7
  8
DETAIL
  6
CONTINUOUS
 62
     5
 10
175.2561900000001
 20
140.7233029999999
 30
0.0
 11
165.5795639999999
 21
140.7233029999999
 31
0.0
  0
ARC
  5
2C8
  8
DETAIL
  6
CONTINUOUS
 62
     5
 10
165.5795639999999
 20
110.7233029999999
 30
0.0
 40
30.0
 50
90.0
 51
121.922587
  0
ARC
  5
2C9
  8
DETAIL
  6
CONTINUOUS
 62
     5
 10
-194.2999209999999
 20
88.04074700000001
 30
0.0
 40
363.6750579999999
 50
329.9919219999999
 51
335.2822209999998
  0
ARC
  5
2CA
  8
DETAIL
  6
CONTINUOUS
 62
     5
 10
-21.76646800000009
 20
143.4863979999999
 30
0.0
 40
209.311455
 50
303.9079249999999
 51
311.261749
  0
ARC
  5
2CB
  8
DETAIL
  6
CONTINUOUS
 62
     5
 10
-88.28120999999999
 20
-264.827033
 30
0.0
 40
269.960179
 50
8.627761000000064
 51
47.240739
  0
ARC
  5
2CC
  8
DETAIL
  6
CONTINUOUS
 62
     5
 10
-60.73193599999999
 20
-351.092282
 30
0.0
 40
268.5284869999999
 50
28.08546799999999
 51
54.55327800000001
  0
TEXT
  5
2CD
  8
ETC
  6
CONTINUOUS
 62
    61
 10
559.116344022156
 20
770.7934276243915
 30
0.0
 40
64.0
  1
EG-50ETB_5
 41
0.9
  0
TEXT
  5
2CE
  8
ETC
  6
CONTINUOUS
 62
    61
 10
666.8281822993317
 20
576.0917797203872
 30
0.0
 40
50.0
  1
EG-50ETB
 41
0.9
  0
TEXT
  5
2CF
  8
ETC
  6
CONTINUOUS
 62
    61
 10
670.1893916737758
 20
496.0790305539888
 30
0.0
 40
50.0
  1
EG-50ETB-PR
 41
0.9
  0
TEXT
  5
2D0
  8
ETC
  6
CONTINUOUS
 62
    61
 10
555.9084170221561
 20
670.7931466243915
 30
0.0
 40
64.0
  1
産業扇
 41
0.9
  0
TEXT
  5
2D1
  8
ETC
  6
CONTINUOUS
 62
    61
 10
555.9084170221561
 20
670.7931466243915
 30
0.0
 40
64.0
  1
産業扇
 41
0.9
  0
LINE
  5
2D2
  8
OUTLINE
  6
CONTINUOUS
 62
     3
 10
315.0000000000001
 20
-57.5
 30
0.0
 11
315.0000000000001
 21
57.5
 31
0.0
  0
LINE
  5
2D3
  8
OUTLINE
  6
CONTINUOUS
 62
     3
 10
300.0000000000001
 20
-61.463131
 30
0.0
 11
300.0000000000001
 21
61.463131
 31
0.0
  0
LINE
  5
2D4
  8
OUTLINE
  6
CONTINUOUS
 62
     3
 10
288.460834
 20
169.9999999999999
 30
0.0
 11
288.460834
 21
-170.0
 31
0.0
  0
LINE
  5
2D5
  8
OUTLINE
  6
CONTINUOUS
 62
     3
 10
94.99999999999989
 20
-225.0
 30
0.0
 11
94.99999999999989
 21
225.0
 31
0.0
  0
LINE
  5
2D6
  8
OUTLINE
  6
CONTINUOUS
 62
     3
 10
88.0
 20
-225.0
 30
0.0
 11
88.0
 21
225.0
 31
0.0
  0
LINE
  5
2D7
  8
OUTLINE
  6
CONTINUOUS
 62
     3
 10
20.0
 20
-287.0540109999999
 30
0.0
 11
20.0
 21
286.2857649999999
 31
0.0
  0
LINE
  5
2D8
  8
OUTLINE
  6
CONTINUOUS
 62
     3
 10
9.999999999999915
 20
-290.5
 30
0.0
 11
9.999999999999915
 21
290.5
 31
0.0
  0
LINE
  5
2D9
  8
OUTLINE
  6
CONTINUOUS
 62
     3
 39
50.0
 10
243.3017970000001
 20
90.0
 30
0.0
 11
243.3017970000001
 21
-90.0
 31
0.0
  0
LINE
  5
2DA
  8
OUTLINE
  6
CONTINUOUS
 62
     3
 10
0.0
 20
-309.9999999999999
 30
0.0
 11
0.0
 21
310.0
 31
0.0
  0
LINE
  5
2DB
  8
OUTLINE
  6
CONTINUOUS
 62
     3
 10
250.4608340000001
 20
-90.0
 30
0.0
 11
250.4608340000001
 21
0.0
 31
0.0
  0
ARC
  5
2DC
  8
OUTLINE
  6
CONTINUOUS
 62
     3
 39
50.0
 10
248.301797
 20
-90.0
 30
0.0
 40
5.0
 50
180.0
 51
270.0
  0
LINE
  5
2DD
  8
OUTLINE
  6
CONTINUOUS
 62
     3
 39
50.0
 10
250.4608340000001
 20
-95.0
 30
0.0
 11
248.301797
 21
-95.0
 31
0.0
  0
LINE
  5
2DE
  8
OUTLINE
  6
CONTINUOUS
 62
     3
 10
20.0
 20
-225.0
 30
0.0
 11
200.4608340000001
 21
-225.0
 31
0.0
  0
LINE
  5
2DF
  8
OUTLINE
  6
CONTINUOUS
 62
     3
 10
20.0
 20
-250.0
 30
0.0
 11
208.4608340000001
 21
-250.0
 31
0.0
  0
LINE
  5
2E0
  8
OUTLINE
  6
CONTINUOUS
 62
     3
 10
38.41079500000001
 20
-254.7609509999998
 30
0.0
 11
20.0
 21
-257.069096
 31
0.0
  0
ARC
  5
2E1
  8
OUTLINE
  6
CONTINUOUS
 62
     3
 10
2.999999999999915
 20
-303.0
 30
0.0
 40
7.0
 50
270.0
 51
0.0
  0
POINT
  5
2E2
  8
DEFPOINTS
  6
CONTINUOUS
 62
    30
 10
2.999999999999915
 20
-309.9999999999999
 30
0.0
  0
LINE
  5
2E3
  8
OUTLINE
  6
CONTINUOUS
 62
     3
 10
2.999999999999915
 20
-309.9999999999999
 30
0.0
 11
0.0
 21
-309.9999999999999
 31
0.0
  0
LINE
  5
2E4
  8
OUTLINE
  6
CONTINUOUS
 62
     3
 10
20.0
 20
-287.0540109999999
 30
0.0
 11
9.999999999999915
 21
-287.0540109999999
 31
0.0
  0
LINE
  5
2E5
  8
OUTLINE
  6
CONTINUOUS
 62
     3
 10
9.999999999999915
 20
-303.0
 30
0.0
 11
9.999999999999915
 21
-290.5
 31
0.0
  0
LINE
  5
2E6
  8
OUTLINE
  6
CONTINUOUS
 62
     3
 10
94.99999999999989
 20
-302.5
 30
0.0
 11
88.0
 21
-302.5
 31
0.0
  0
LINE
  5
2E7
  8
OUTLINE
  6
CONTINUOUS
 62
     3
 10
88.0
 20
-250.0
 30
0.0
 11
88.0
 21
-302.5
 31
0.0
  0
ARC
  5
2E8
  8
OUTLINE
  6
CONTINUOUS
 62
     3
 10
46.94774100000001
 20
-300.032394
 30
0.0
 40
46.069328
 50
26.98852799999998
 51
100.6790029999998
  0
POINT
  5
2E9
  8
DEFPOINTS
  6
CONTINUOUS
 62
    30
 10
94.99999999999989
 20
-302.5
 30
0.0
  0
LINE
  5
2EA
  8
OUTLINE
  6
CONTINUOUS
 62
     3
 10
94.99999999999989
 20
-250.0
 30
0.0
 11
94.99999999999989
 21
-302.5
 31
0.0
  0
ARC
  5
2EB
  8
OUTLINE
  6
CONTINUOUS
 62
     3
 10
200.4608340000001
 20
-175.0
 30
0.0
 40
50.0
 50
270.0
 51
0.0
  0
ARC
  5
2EC
  8
OUTLINE
  6
CONTINUOUS
 62
     3
 10
208.4608340000001
 20
-170.0
 30
0.0
 40
80.0
 50
270.0
 51
0.0
  0
LINE
  5
2ED
  8
OUTLINE
  6
CONTINUOUS
 62
     3
 10
288.460834
 20
-92.53794999999998
 30
0.0
 11
250.4608340000001
 21
-92.53794999999998
 31
0.0
  0
LINE
  5
2EE
  8
OUTLINE
  6
CONTINUOUS
 62
     3
 10
250.4608340000001
 20
-90.0
 30
0.0
 11
250.4608340000001
 21
-175.0
 31
0.0
  0
LINE
  5
2EF
  8
OUTLINE
  6
CONTINUOUS
 62
     3
 10
292.5099419999999
 20
-65.5
 30
0.0
 11
292.5099419999999
 21
-95.0
 31
0.0
  0
LINE
  5
2F0
  8
OUTLINE
  6
CONTINUOUS
 62
     3
 10
288.451787
 20
-95.0
 30
0.0
 11
292.5099419999999
 21
-95.0
 31
0.0
  0
POINT
  5
2F1
  8
DEFPOINTS
  6
CONTINUOUS
 62
    30
 10
292.5099419999999
 20
-65.5
 30
0.0
  0
LINE
  5
2F2
  8
OUTLINE
  6
CONTINUOUS
 62
     3
 10
292.5099419999999
 20
-65.5
 30
0.0
 11
307.0000000000001
 21
-65.5
 31
0.0
  0
ARC
  5
2F3
  8
OUTLINE
  6
CONTINUOUS
 62
     3
 10
307.0000000000001
 20
-57.5
 30
0.0
 40
8.0
 50
270.0
 51
0.0
  0
LINE
  5
2F4
  8
OUTLINE
  6
CONTINUOUS
 62
     3
 10
292.5099419999999
 20
-65.5
 30
0.0
 11
300.0000000000001
 21
-61.463131
 31
0.0
  0
ARC
  5
2F5
  8
OUTLINE
  6
CONTINUOUS
 62
     3
 39
50.0
 10
248.301797
 20
90.0
 30
0.0
 40
5.0
 50
90.0
 51
180.0
  0
LINE
  5
2F6
  8
OUTLINE
  6
CONTINUOUS
 62
     3
 39
50.0
 10
250.4608340000001
 20
95.0
 30
0.0
 11
248.301797
 21
95.0
 31
0.0
  0
LINE
  5
2F7
  8
OUTLINE
  6
CONTINUOUS
 62
     3
 10
20.0
 20
250.0
 30
0.0
 11
208.4608340000001
 21
250.0
 31
0.0
  0
LINE
  5
2F8
  8
OUTLINE
  6
CONTINUOUS
 62
     3
 10
20.0
 20
225.0
 30
0.0
 11
200.4608340000001
 21
225.0
 31
0.0
  0
LINE
  5
2F9
  8
OUTLINE
  6
CONTINUOUS
 62
     3
 10
94.99999999999989
 20
250.0
 30
0.0
 11
94.99999999999989
 21
302.5
 31
0.0
  0
LINE
  5
2FA
  8
OUTLINE
  6
CONTINUOUS
 62
     3
 10
88.0
 20
250.0
 30
0.0
 11
88.0
 21
302.5
 31
0.0
  0
ARC
  5
2FB
  8
OUTLINE
  6
CONTINUOUS
 62
     3
 10
46.94774100000001
 20
300.032394
 30
0.0
 40
46.069328
 50
259.3209969999999
 51
333.011472
  0
CIRCLE
  5
2FC
  8
ARRANGE
  6
CONTINUOUS
 62
     1
 10
0.0
 20
0.0
 30
0.0
 40
40.0
  0
POINT
  5
2FD
  8
ARRANGE
  6
CONTINUOUS
 62
     1
 10
0.0
 20
0.0
 30
0.0
  0
LINE
  5
2FE
  8
OUTLINE
  6
CONTINUOUS
 62
     3
 10
38.41079500000001
 20
254.7609509999999
 30
0.0
 11
20.0
 21
257.069096
 31
0.0
  0
POINT
  5
2FF
  8
DEFPOINTS
  6
CONTINUOUS
 62
    30
 10
9.999999999999915
 20
302.9999999999999
 30
0.0
  0
POINT
  5
300
  8
DEFPOINTS
  6
CONTINUOUS
 62
    30
 10
2.999999999999915
 20
310.0
 30
0.0
  0
POINT
  5
301
  8
DEFPOINTS
  6
CONTINUOUS
 62
    30
 10
9.999999999999915
 20
302.9999999999999
 30
0.0
  0
POINT
  5
302
  8
DEFPOINTS
  6
CONTINUOUS
 62
    30
 10
20.0
 20
286.2857649999999
 30
0.0
  0
ARC
  5
303
  8
OUTLINE
  6
CONTINUOUS
 62
     3
 10
2.999999999999915
 20
302.9999999999999
 30
0.0
 40
7.0
 50
0.0
 51
90.0
  0
LINE
  5
304
  8
OUTLINE
  6
CONTINUOUS
 62
     3
 10
20.0
 20
286.2857649999999
 30
0.0
 11
9.999999999999915
 21
286.2857649999999
 31
0.0
  0
LINE
  5
305
  8
OUTLINE
  6
CONTINUOUS
 62
     3
 10
9.999999999999915
 20
290.5
 30
0.0
 11
9.999999999999915
 21
302.9999999999999
 31
0.0
  0
POINT
  5
306
  8
DEFPOINTS
  6
CONTINUOUS
 62
    30
 10
0.0
 20
310.0
 30
0.0
  0
POINT
  5
307
  8
DEFPOINTS
  6
CONTINUOUS
 62
    30
 10
0.0
 20
310.0
 30
0.0
  0
POINT
  5
308
  8
DEFPOINTS
  6
CONTINUOUS
 62
    30
 10
0.0
 20
310.0
 30
0.0
  0
LINE
  5
309
  8
OUTLINE
  6
CONTINUOUS
 62
     3
 10
2.999999999999915
 20
310.0
 30
0.0
 11
0.0
 21
310.0
 31
0.0
  0
LINE
  5
30A
  8
OUTLINE
  6
CONTINUOUS
 62
     3
 10
94.99999999999989
 20
302.5
 30
0.0
 11
88.0
 21
302.5
 31
0.0
  0
POINT
  5
30B
  8
DEFPOINTS
  6
CONTINUOUS
 62
    30
 10
94.99999999999989
 20
302.5
 30
0.0
  0
POINT
  5
30C
  8
DEFPOINTS
  6
CONTINUOUS
 62
    30
 10
94.99999999999989
 20
302.5
 30
0.0
  0
LINE
  5
30D
  8
OUTLINE
  6
CONTINUOUS
 62
     3
 10
250.4608340000001
 20
0.0
 30
0.0
 11
250.4608340000001
 21
175.0
 31
0.0
  0
LINE
  5
30E
  8
OUTLINE
  6
CONTINUOUS
 62
     3
 10
288.460834
 20
92.53795
 30
0.0
 11
250.4608340000001
 21
92.53795
 31
0.0
  0
LINE
  5
30F
  8
OUTLINE
  6
CONTINUOUS
 62
     3
 10
292.5099419999999
 20
95.0009319999998
 30
0.0
 11
292.5099419999999
 21
65.5
 31
0.0
  0
POINT
  5
310
  8
DEFPOINTS
  6
CONTINUOUS
 62
    30
 10
292.5099419999999
 20
65.5
 30
0.0
  0
POINT
  5
311
  8
DEFPOINTS
  6
CONTINUOUS
 62
    30
 10
315.0000000000001
 20
57.5
 30
0.0
  0
LINE
  5
312
  8
OUTLINE
  6
CONTINUOUS
 62
     3
 10
292.5099419999999
 20
65.5
 30
0.0
 11
307.0000000000001
 21
65.5
 31
0.0
  0
ARC
  5
313
  8
OUTLINE
  6
CONTINUOUS
 62
     3
 10
307.0000000000001
 20
57.5
 30
0.0
 40
8.0
 50
0.0
 51
90.0
  0
LINE
  5
314
  8
OUTLINE
  6
CONTINUOUS
 62
     3
 10
292.5099419999999
 20
65.5
 30
0.0
 11
300.0000000000001
 21
61.463131
 31
0.0
  0
LINE
  5
315
  8
OUTLINE
  6
CONTINUOUS
 62
     3
 10
288.451787
 20
95.0009319999998
 30
0.0
 11
292.5099419999999
 21
95.0009319999998
 31
0.0
  0
ARC
  5
316
  8
OUTLINE
  6
CONTINUOUS
 62
     3
 10
208.4608340000001
 20
169.9999999999999
 30
0.0
 40
80.0
 50
0.0
 51
90.0
  0
ARC
  5
317
  8
OUTLINE
  6
CONTINUOUS
 62
     3
 10
200.4608340000001
 20
175.0
 30
0.0
 40
50.0
 50
0.0
 51
90.0
  0
ENDSEC
  0
EOF
