  0
SECTION
  2
HEADER
  9
$ACADVER
  1
AC1009
  9
$DWGCODEPAGE
  3
ansi_932
  9
$INSBASE
 10
0.0
 20
0.0
 30
0.0
  9
$EXTMIN
 10
-1123.815903999997
 20
-741.9739707650133
 30
0.0
  9
$EXTMAX
 10
1040.131609811651
 20
613.2149839719151
 30
0.0
  9
$LIMMIN
 10
-2970.0
 20
-2100.0
  9
$LIMMAX
 10
2970.0
 20
2100.0
  9
$ORTHOMODE
 70
     0
  9
$REGENMODE
 70
     0
  9
$FILLMODE
 70
     1
  9
$QTEXTMODE
 70
     0
  9
$MIRRTEXT
 70
     0
  9
$DRAGMODE
 70
     2
  9
$LTSCALE
 40
20.0
  9
$OSMODE
 70
    37
  9
$ATTMODE
 70
     1
  9
$TEXTSIZE
 40
64.0
  9
$TRACEWID
 40
0.05
  9
$TEXTSTYLE
  7
STANDARD
  9
$CLAYER
  8
SIZE
  9
$CELTYPE
  6
CONTINUOUS
  9
$CECOLOR
 62
    30
  9
$DIMSCALE
 40
1.0
  9
$DIMASZ
 40
2.0
  9
$DIMEXO
 40
20.0
  9
$DIMDLI
 40
200.0
  9
$DIMRND
 40
0.0
  9
$DIMDLE
 40
0.0
  9
$DIMEXE
 40
30.0
  9
$DIMTP
 40
0.0
  9
$DIMTM
 40
0.0
  9
$DIMTXT
 40
64.0
  9
$DIMCEN
 40
0.09
  9
$DIMTSZ
 40
0.0
  9
$DIMTOL
 70
     0
  9
$DIMLIM
 70
     0
  9
$DIMTIH
 70
     0
  9
$DIMTOH
 70
     0
  9
$DIMSE1
 70
     0
  9
$DIMSE2
 70
     0
  9
$DIMTAD
 70
     1
  9
$DIMZIN
 70
     8
  9
$DIMBLK
  1

  9
$DIMASO
 70
     1
  9
$DIMSHO
 70
     0
  9
$DIMPOST
  1

  9
$DIMAPOST
  1

  9
$DIMALT
 70
     0
  9
$DIMALTD
 70
     2
  9
$DIMALTF
 40
25.4
  9
$DIMLFAC
 40
1.0
  9
$DIMTOFL
 70
     1
  9
$DIMTVP
 40
0.0
  9
$DIMTIX
 70
     1
  9
$DIMSOXD
 70
     0
  9
$DIMSAH
 70
     0
  9
$DIMBLK1
  1

  9
$DIMBLK2
  1

  9
$DIMSTYLE
  2
STANDARD
  9
$DIMCLRD
 70
     0
  9
$DIMCLRE
 70
     0
  9
$DIMCLRT
 70
     0
  9
$DIMTFAC
 40
1.0
  9
$DIMGAP
 40
0.09
  9
$LUNITS
 70
     2
  9
$LUPREC
 70
     4
  9
$SKETCHINC
 40
0.1
  9
$FILLETRAD
 40
5.0
  9
$AUNITS
 70
     1
  9
$AUPREC
 70
     3
  9
$MENU
  1
ACAD
  9
$ELEVATION
 40
0.0
  9
$PELEVATION
 40
0.0
  9
$THICKNESS
 40
0.0
  9
$LIMCHECK
 70
     1
  9
$CHAMFERA
 40
0.0
  9
$CHAMFERB
 40
0.0
  9
$SKPOLY
 70
     0
  9
$TDCREATE
 40
2451484.693888878
  9
$TDUPDATE
 40
2457485.555710069
  9
$TDINDWG
 40
0.0161434954
  9
$TDUSRTIMER
 40
0.0161427778
  9
$USRTIMER
 70
     1
  9
$ANGBASE
 50
0.0
  9
$ANGDIR
 70
     0
  9
$PDMODE
 70
     3
  9
$PDSIZE
 40
-2.0
  9
$PLINEWID
 40
0.0
  9
$COORDS
 70
     1
  9
$SPLFRAME
 70
     0
  9
$SPLINETYPE
 70
     6
  9
$SPLINESEGS
 70
     8
  9
$ATTDIA
 70
     0
  9
$ATTREQ
 70
     1
  9
$HANDLING
 70
     1
  9
$HANDSEED
  5
724
  9
$SURFTAB1
 70
     6
  9
$SURFTAB2
 70
     6
  9
$SURFTYPE
 70
     6
  9
$SURFU
 70
     6
  9
$SURFV
 70
     6
  9
$UCSNAME
  2

  9
$UCSORG
 10
0.0
 20
0.0
 30
0.0
  9
$UCSXDIR
 10
1.0
 20
0.0
 30
0.0
  9
$UCSYDIR
 10
0.0
 20
1.0
 30
0.0
  9
$PUCSNAME
  2

  9
$PUCSORG
 10
0.0
 20
0.0
 30
0.0
  9
$PUCSXDIR
 10
1.0
 20
0.0
 30
0.0
  9
$PUCSYDIR
 10
0.0
 20
1.0
 30
0.0
  9
$USERI1
 70
     0
  9
$USERI2
 70
     0
  9
$USERI3
 70
     0
  9
$USERI4
 70
     0
  9
$USERI5
 70
     0
  9
$USERR1
 40
20.0
  9
$USERR2
 40
0.0
  9
$USERR3
 40
0.0
  9
$USERR4
 40
0.0
  9
$USERR5
 40
0.0
  9
$WORLDVIEW
 70
     1
  9
$SHADEDGE
 70
     3
  9
$SHADEDIF
 70
    70
  9
$TILEMODE
 70
     1
  9
$MAXACTVP
 70
    64
  9
$PLIMCHECK
 70
     0
  9
$PEXTMIN
 10
1.000000000000000E+20
 20
1.000000000000000E+20
 30
1.000000000000000E+20
  9
$PEXTMAX
 10
-1.000000000000000E+20
 20
-1.000000000000000E+20
 30
-1.000000000000000E+20
  9
$PLIMMIN
 10
0.0
 20
0.0
  9
$PLIMMAX
 10
12.0
 20
9.0
  9
$UNITMODE
 70
     0
  9
$VISRETAIN
 70
     1
  9
$PLINEGEN
 70
     0
  9
$PSLTSCALE
 70
     1
  0
ENDSEC
  0
SECTION
  2
TABLES
  0
TABLE
  2
VPORT
 70
     1
  0
VPORT
  2
*ACTIVE
 70
     0
 10
0.0
 20
0.0
 11
1.0
 21
1.0
 12
-41.83770808714325
 22
-64.37522190807886
 13
0.0
 23
0.0
 14
400.0
 24
400.0
 15
400.0
 25
400.0
 16
0.0
 26
0.0
 36
1.0
 17
0.0
 27
0.0
 37
0.0
 40
1660.579232337935
 41
1.493654822335025
 42
50.0
 43
0.0
 44
0.0
 50
0.0
 51
0.0
 71
     0
 72
  1000
 73
     1
 74
     0
 75
     0
 76
     0
 77
     0
 78
     0
  0
ENDTAB
  0
TABLE
  2
LTYPE
 70
     7
  0
LTYPE
  2
CONTINUOUS
 70
     0
  3
実線
 72
    65
 73
     0
 40
0.0
  0
LTYPE
  2
DASHDOT
 70
     0
  3
____ _ ____ _ ____ _ ____ _ ____ _ ____ _ ____
 72
    65
 73
     4
 40
5.5
 49
4.0
 49
-0.6
 49
0.3
 49
-0.6
  0
LTYPE
  2
DASHED
 70
     0
  3
_ _ _ _ _ _ _ _ _ _ _ _ _ _ _ _ _ _ _ _ _ _ _
 72
    65
 73
     2
 40
1.999999999999999
 49
1.199999999999999
 49
-0.8
  0
LTYPE
  2
DOT
 70
     0
  3
...............................................
 72
    65
 73
     2
 40
0.8
 49
0.5
 49
-0.3
  0
LTYPE
  2
DASHDOT1
 70
     0
  3
____ _ ____ _ ____ _ ____ _ ____ _ ____ _ ____
 72
    65
 73
     4
 40
2.0
 49
1.5
 49
-0.2
 49
0.1
 49
-0.2
  0
LTYPE
  2
DIVIDE
 70
     0
  3
_____ _ _ _____ _ _ _____ _ _ _____ _ _ ____
 72
    65
 73
     6
 40
6.4
 49
4.0
 49
-0.6
 49
0.3
 49
-0.6
 49
0.3
 49
-0.6
  0
LTYPE
  2
DIVIDE1
 70
     0
  3
_____ _ _ _____ _ _ _____ _ _ _____ _ _ ____
 72
    65
 73
     6
 40
3.2
 49
2.0
 49
-0.3
 49
0.15
 49
-0.3
 49
0.15
 49
-0.3
  0
ENDTAB
  0
TABLE
  2
LAYER
 70
    12
  0
LAYER
  2
0
 70
     0
 62
     7
  6
CONTINUOUS
  0
LAYER
  2
DETAIL
 70
     0
 62
     5
  6
CONTINUOUS
  0
LAYER
  2
OUTLINE
 70
     0
 62
     3
  6
CONTINUOUS
  0
LAYER
  2
BASIS
 70
     0
 62
     6
  6
DASHDOT
  0
LAYER
  2
NOTE
 70
     0
 62
     4
  6
CONTINUOUS
  0
LAYER
  2
DEFPOINTS
 70
     0
 62
     7
  6
CONTINUOUS
  0
LAYER
  2
SIZE
 70
     0
 62
    30
  6
CONTINUOUS
  0
LAYER
  2
ARRANGE
 70
     0
 62
     1
  6
CONTINUOUS
  0
LAYER
  2
FIX
 70
     0
 62
    11
  6
CONTINUOUS
  0
LAYER
  2
ETC
 70
     0
 62
    61
  6
CONTINUOUS
  0
LAYER
  2
SERVICESPACE
 70
     0
 62
     2
  6
DASHDOT
  0
LAYER
  2
SYMBOLLINE
 70
     0
 62
    15
  6
CONTINUOUS
  0
ENDTAB
  0
TABLE
  2
STYLE
 70
     1
  0
STYLE
  2
STANDARD
 70
     0
 40
0.0
 41
0.9
 50
0.0
 71
     0
 42
64.0
  3
SIMPLEX
  4
BIGFONT
  0
ENDTAB
  0
TABLE
  2
VIEW
 70
     1
  0
VIEW
  2
ALL
 70
     0
 40
4508.020851
 10
0.0
 20
41.30990399999999
 41
6252.631578999999
 11
0.0
 21
0.0
 31
1.0
 12
0.0
 22
0.0
 32
0.0
 42
50.0
 43
0.0
 44
0.0
 50
0.0
 71
     0
  0
ENDTAB
  0
TABLE
  2
UCS
 70
     0
  0
ENDTAB
  0
TABLE
  2
APPID
 70
     1
  0
APPID
  2
ACAD
 70
     0
  0
ENDTAB
  0
TABLE
  2
DIMSTYLE
 70
     1
  0
DIMSTYLE
  2
STANDARD
 70
     0
  3

  4

  5

  6

  7

 40
1.0
 41
0.18
 42
0.0625
 43
0.38
 44
0.18
 45
0.0
 46
0.0
 47
0.0
 48
0.0
140
0.18
141
0.09
142
0.0
143
25.4
144
1.0
145
0.0
146
1.0
147
0.09
 71
     0
 72
     0
 73
     1
 74
     1
 75
     0
 76
     0
 77
     0
 78
     0
170
     0
171
     2
172
     0
173
     0
174
     0
175
     0
176
     0
177
     0
178
     0
  0
ENDTAB
  0
ENDSEC
  0
SECTION
  2
BLOCKS
  0
BLOCK
  8
0
  2
$MODEL_SPACE
 70
     0
 10
0.0
 20
0.0
 30
0.0
  3
$MODEL_SPACE
  1

  0
ENDBLK
  5
5A6
  8
0
  0
BLOCK
 67
     1
  8
0
  2
$PAPER_SPACE
 70
     0
 10
0.0
 20
0.0
 30
0.0
  3
$PAPER_SPACE
  1

  0
ENDBLK
  5
5A2
 67
     1
  8
0
  0
BLOCK
  8
0
  2
DOT1
 70
     0
 10
0.0
 20
0.0
 30
0.0
  3
DOT1
  1

  0
CIRCLE
  5
5C6
  8
SIZE
  6
CONTINUOUS
 62
     7
 10
0.0
 20
0.0
 30
0.0
 40
3.0
  0
ENDBLK
  5
5C7
  8
0
  0
BLOCK
  8
0
  2
_ORIGIN
 70
     0
 10
0.0
 20
0.0
 30
0.0
  3
_ORIGIN
  1

  0
CIRCLE
  5
5CA
  8
0
  6
CONTINUOUS
 62
     7
 10
0.0
 20
0.0
 30
0.0
 40
0.5
  0
LINE
  5
5CB
  8
0
  6
CONTINUOUS
 62
     7
 10
0.0
 20
0.0
 30
0.0
 11
-1.0
 21
0.0
 31
0.0
  0
ENDBLK
  5
5CC
  8
0
  0
ENDSEC
  0
SECTION
  2
ENTITIES
  0
LINE
  5
5CD
  8
BASIS
  6
DASHDOT
 62
     6
 10
0.0
 20
390.4472849999997
 30
0.0
 11
0.0
 21
-391.761544
 31
0.0
  0
LINE
  5
5CE
  8
BASIS
  6
DASHDOT
 62
     6
 10
-399.2959159999997
 20
0.0
 30
0.0
 11
399.937054
 21
0.0
 31
0.0
  0
LINE
  5
5CF
  8
DETAIL
  6
CONTINUOUS
 62
     5
 10
310.0000019999999
 20
286.1538479999997
 30
0.0
 11
310.0000019999999
 21
-286.1538479999999
 31
0.0
  0
LINE
  5
5D0
  8
DETAIL
  6
CONTINUOUS
 62
     5
 10
-310.0000019999999
 20
286.1538479999997
 30
0.0
 11
-310.0000019999999
 21
-286.1538479999999
 31
0.0
  0
LINE
  5
5D1
  8
DETAIL
  6
CONTINUOUS
 62
     5
 10
-286.1538479999997
 20
310.0000019999996
 30
0.0
 11
286.1538479999999
 21
310.0000019999996
 31
0.0
  0
LINE
  5
5D2
  8
DETAIL
  6
CONTINUOUS
 62
     5
 10
-286.1538479999997
 20
-310.0000019999999
 30
0.0
 11
286.1538479999999
 21
-310.0000019999999
 31
0.0
  0
ARC
  5
5D3
  8
DETAIL
  6
CONTINUOUS
 62
     5
 10
-286.1538479999997
 20
286.1538479999997
 30
0.0
 40
23.84615399999999
 50
90.0
 51
180.0
  0
ARC
  5
5D4
  8
DETAIL
  6
CONTINUOUS
 62
     5
 10
-286.1538479999997
 20
-286.1538479999999
 30
0.0
 40
23.84615399999999
 50
180.0
 51
270.0
  0
ARC
  5
5D5
  8
DETAIL
  6
CONTINUOUS
 62
     5
 10
286.1538479999999
 20
-286.1538479999999
 30
0.0
 40
23.84615399999999
 50
270.0
 51
0.0
  0
ARC
  5
5D6
  8
DETAIL
  6
CONTINUOUS
 62
     5
 10
286.1538479999999
 20
286.1538479999997
 30
0.0
 40
23.84615399999999
 50
0.0
 51
90.0
  0
LINE
  5
5D7
  8
DETAIL
  6
CONTINUOUS
 62
     5
 10
280.0
 20
269.3933979999999
 30
0.0
 11
290.6066020000001
 21
279.9999999999998
 31
0.0
  0
LINE
  5
5D8
  8
DETAIL
  6
CONTINUOUS
 62
     5
 10
269.393398
 20
279.9999999999998
 30
0.0
 11
280.0
 21
290.6066019999997
 31
0.0
  0
LINE
  5
5D9
  8
DETAIL
  6
CONTINUOUS
 62
     5
 10
290.6066020000001
 20
279.9999999999998
 30
0.0
 11
280.0
 21
290.6066019999997
 31
0.0
  0
LINE
  5
5DA
  8
DETAIL
  6
CONTINUOUS
 62
     5
 10
280.0
 20
269.3933979999999
 30
0.0
 11
269.393398
 21
279.9999999999998
 31
0.0
  0
CIRCLE
  5
5DB
  8
FIX
  6
CONTINUOUS
 62
    11
 10
280.0
 20
279.9999999999998
 30
0.0
 40
7.5
  0
CIRCLE
  5
5DC
  8
FIX
  6
CONTINUOUS
 62
    11
 10
280.0
 20
-279.9999999999999
 30
0.0
 40
7.5
  0
LINE
  5
5DD
  8
DETAIL
  6
CONTINUOUS
 62
     5
 10
280.0
 20
-290.606602
 30
0.0
 11
269.393398
 21
-279.9999999999999
 31
0.0
  0
LINE
  5
5DE
  8
DETAIL
  6
CONTINUOUS
 62
     5
 10
290.6066020000001
 20
-279.9999999999999
 30
0.0
 11
280.0
 21
-269.3933979999999
 31
0.0
  0
LINE
  5
5DF
  8
DETAIL
  6
CONTINUOUS
 62
     5
 10
269.393398
 20
-279.9999999999999
 30
0.0
 11
280.0
 21
-269.3933979999999
 31
0.0
  0
LINE
  5
5E0
  8
DETAIL
  6
CONTINUOUS
 62
     5
 10
280.0
 20
-290.606602
 30
0.0
 11
290.6066020000001
 21
-279.9999999999999
 31
0.0
  0
LINE
  5
5E1
  8
DETAIL
  6
CONTINUOUS
 62
     5
 10
-280.0
 20
-290.606602
 30
0.0
 11
-269.3933979999999
 21
-279.9999999999999
 31
0.0
  0
LINE
  5
5E2
  8
DETAIL
  6
CONTINUOUS
 62
     5
 10
-290.606602
 20
-279.9999999999999
 30
0.0
 11
-280.0
 21
-269.3933979999999
 31
0.0
  0
LINE
  5
5E3
  8
DETAIL
  6
CONTINUOUS
 62
     5
 10
-269.3933979999999
 20
-279.9999999999999
 30
0.0
 11
-280.0
 21
-269.3933979999999
 31
0.0
  0
LINE
  5
5E4
  8
DETAIL
  6
CONTINUOUS
 62
     5
 10
-280.0
 20
-290.606602
 30
0.0
 11
-290.606602
 21
-279.9999999999999
 31
0.0
  0
CIRCLE
  5
5E5
  8
FIX
  6
CONTINUOUS
 62
    11
 10
-280.0
 20
-279.9999999999999
 30
0.0
 40
7.5
  0
CIRCLE
  5
5E6
  8
FIX
  6
CONTINUOUS
 62
    11
 10
-280.0
 20
279.9999999999998
 30
0.0
 40
7.5
  0
LINE
  5
5E7
  8
DETAIL
  6
CONTINUOUS
 62
     5
 10
-280.0
 20
269.3933979999999
 30
0.0
 11
-290.606602
 21
279.9999999999998
 31
0.0
  0
LINE
  5
5E8
  8
DETAIL
  6
CONTINUOUS
 62
     5
 10
-269.3933979999999
 20
279.9999999999998
 30
0.0
 11
-280.0
 21
290.6066019999997
 31
0.0
  0
LINE
  5
5E9
  8
DETAIL
  6
CONTINUOUS
 62
     5
 10
-290.606602
 20
279.9999999999998
 30
0.0
 11
-280.0
 21
290.6066019999997
 31
0.0
  0
LINE
  5
5EA
  8
DETAIL
  6
CONTINUOUS
 62
     5
 10
-280.0
 20
269.3933979999999
 30
0.0
 11
-269.3933979999999
 21
279.9999999999998
 31
0.0
  0
TEXT
  5
5EB
  8
NOTE
  6
CONTINUOUS
 62
     4
 10
-785.5122919999991
 20
444.0883669999997
 30
0.0
 40
64.0
  1
4-15×15
 41
0.9
  0
LINE
  5
5EC
  8
NOTE
  6
CONTINUOUS
 62
     4
 10
-813.8159019999972
 20
418.9888179999999
 30
0.0
 11
-386.955846
 21
418.9888179999999
 31
0.0
  0
LINE
  5
5ED
  8
NOTE
  6
CONTINUOUS
 62
     4
 10
-280.0
 20
279.9999999999998
 30
0.0
 11
-386.955846
 21
418.9888179999999
 31
0.0
  0
ARC
  5
5EE
  8
OUTLINE
  6
CONTINUOUS
 62
     3
 10
286.1538479999999
 20
286.1538479999997
 30
0.0
 40
23.84615399999999
 50
0.0
 51
90.0
  0
ARC
  5
5EF
  8
OUTLINE
  6
CONTINUOUS
 62
     3
 10
286.1538479999999
 20
-286.1538479999999
 30
0.0
 40
23.84615399999999
 50
270.0
 51
0.0
  0
ARC
  5
5F0
  8
OUTLINE
  6
CONTINUOUS
 62
     3
 10
-286.1538479999997
 20
-286.1538479999999
 30
0.0
 40
23.84615399999999
 50
180.0
 51
270.0
  0
ARC
  5
5F1
  8
OUTLINE
  6
CONTINUOUS
 62
     3
 10
-286.1538479999997
 20
286.1538479999997
 30
0.0
 40
23.84615399999999
 50
90.0
 51
180.0
  0
LINE
  5
5F2
  8
OUTLINE
  6
CONTINUOUS
 62
     3
 10
-286.1538479999997
 20
-310.0000019999999
 30
0.0
 11
286.1538479999999
 21
-310.0000019999999
 31
0.0
  0
LINE
  5
5F3
  8
OUTLINE
  6
CONTINUOUS
 62
     3
 10
-286.1538479999997
 20
310.0000019999996
 30
0.0
 11
286.1538479999999
 21
310.0000019999996
 31
0.0
  0
LINE
  5
5F4
  8
OUTLINE
  6
CONTINUOUS
 62
     3
 10
-310.0000019999999
 20
286.1538479999997
 30
0.0
 11
-310.0000019999999
 21
-286.1538479999999
 31
0.0
  0
LINE
  5
5F5
  8
OUTLINE
  6
CONTINUOUS
 62
     3
 10
310.0000019999999
 20
286.1538479999997
 30
0.0
 11
310.0000019999999
 21
-286.1538479999999
 31
0.0
  0
POINT
  5
5F6
  8
ARRANGE
  6
CONTINUOUS
 62
     1
 10
0.0
 20
0.0
 30
0.0
  0
CIRCLE
  5
5F7
  8
ARRANGE
  6
CONTINUOUS
 62
     1
 10
0.0
 20
0.0
 30
0.0
 40
40.0
  0
LINE
  5
5F8
  8
SIZE
  6
BYBLOCK
 62
    30
 10
255.0
 20
-20.0
 30
0.0
 11
255.0
 21
-577.7948859999998
 31
0.0
  0
LINE
  5
5F9
  8
SIZE
  6
BYBLOCK
 62
    30
 10
-255.0
 20
-20.0
 30
0.0
 11
-255.0
 21
-577.7948859999998
 31
0.0
  0
LINE
  5
5FA
  8
SIZE
  6
BYBLOCK
 62
    30
 10
253.0
 20
-547.7948859999999
 30
0.0
 11
0.0
 21
-547.7948859999999
 31
0.0
  0
LINE
  5
5FB
  8
SIZE
  6
BYBLOCK
 62
    30
 10
-252.9999999999998
 20
-547.7948859999999
 30
0.0
 11
0.0
 21
-547.7948859999999
 31
0.0
  0
TEXT
  5
5FC
  8
SIZE
  6
BYBLOCK
 62
    30
 10
-97.37142899999992
 20
-515.794886
 30
0.0
 40
64.0
  1
φ510
 41
0.9
  0
LINE
  5
5FD
  8
SIZE
  6
BYBLOCK
 62
    30
 10
306.1538479999999
 20
310.0000019999996
 30
0.0
 11
799.6240439999997
 21
310.0000019999996
 31
0.0
  0
LINE
  5
5FE
  8
SIZE
  6
BYBLOCK
 62
    30
 10
306.1538479999999
 20
-310.0000019999999
 30
0.0
 11
799.6240439999997
 21
-310.0000019999999
 31
0.0
  0
LINE
  5
5FF
  8
SIZE
  6
BYBLOCK
 62
    30
 10
769.6240439999998
 20
308.0000019999998
 30
0.0
 11
769.6240439999998
 21
0.0
 31
0.0
  0
LINE
  5
600
  8
SIZE
  6
BYBLOCK
 62
    30
 10
769.6240439999998
 20
-308.0000019999999
 30
0.0
 11
769.6240439999998
 21
0.0
 31
0.0
  0
TEXT
  5
601
  8
SIZE
  6
BYBLOCK
 62
    30
 10
737.6240439999998
 20
-74.05714299999971
 30
0.0
 40
64.0
  1
620
 50
90.0
 41
0.9
  0
LINE
  5
602
  8
SIZE
  6
BYBLOCK
 62
    30
 10
310.606602
 20
279.9999999999998
 30
0.0
 11
658.1368089999999
 21
279.9999999999998
 31
0.0
  0
LINE
  5
603
  8
SIZE
  6
BYBLOCK
 62
    30
 10
320.0
 20
-279.9999999999999
 30
0.0
 11
658.1368089999999
 21
-279.9999999999999
 31
0.0
  0
LINE
  5
604
  8
SIZE
  6
BYBLOCK
 62
    30
 10
628.1368089999999
 20
277.9999999999998
 30
0.0
 11
628.1368089999999
 21
0.0
 31
0.0
  0
LINE
  5
605
  8
SIZE
  6
BYBLOCK
 62
    30
 10
628.1368089999999
 20
-277.9999999999999
 30
0.0
 11
628.1368089999999
 21
0.0
 31
0.0
  0
TEXT
  5
606
  8
SIZE
  6
BYBLOCK
 62
    30
 10
596.1368089999999
 20
-74.05714299999971
 30
0.0
 40
64.0
  1
560
 50
90.0
 41
0.9
  0
LINE
  5
607
  8
SIZE
  6
BYBLOCK
 62
    30
 10
310.0000019999999
 20
306.1538479999997
 30
0.0
 11
310.0000019999999
 21
632.5476539999996
 31
0.0
  0
LINE
  5
608
  8
SIZE
  6
BYBLOCK
 62
    30
 10
-310.0000019999999
 20
306.1538479999997
 30
0.0
 11
-310.0000019999999
 21
632.5476539999996
 31
0.0
  0
LINE
  5
609
  8
SIZE
  6
BYBLOCK
 62
    30
 10
308.0000019999999
 20
602.5476539999996
 30
0.0
 11
-308.0000019999998
 21
602.5476539999996
 31
0.0
  0
TEXT
  5
60A
  8
SIZE
  6
BYBLOCK
 62
    30
 10
-74.05714299999994
 20
634.5476539999996
 30
0.0
 40
64.0
  1
620
 41
0.9
  0
LINE
  5
60B
  8
SIZE
  6
BYBLOCK
 62
    30
 10
280.0
 20
319.9999999999999
 30
0.0
 11
280.0
 21
506.0316879999996
 31
0.0
  0
LINE
  5
60C
  8
SIZE
  6
BYBLOCK
 62
    30
 10
-280.0
 20
319.9999999999999
 30
0.0
 11
-280.0
 21
506.0316879999996
 31
0.0
  0
LINE
  5
60D
  8
SIZE
  6
BYBLOCK
 62
    30
 10
278.0
 20
476.0316879999999
 30
0.0
 11
-277.9999999999998
 21
476.0316879999999
 31
0.0
  0
TEXT
  5
60E
  8
SIZE
  6
BYBLOCK
 62
    30
 10
-74.05714299999994
 20
508.0316879999996
 30
0.0
 40
64.0
  1
560
 41
0.9
  0
CIRCLE
  5
60F
  8
SIZE
  6
CONTINUOUS
 62
    30
 10
-280.0
 20
476.0316879999999
 30
0.0
 40
6.0
  0
CIRCLE
  5
610
  8
SIZE
  6
CONTINUOUS
 62
    30
 10
280.0
 20
476.0316879999999
 30
0.0
 40
6.0
  0
CIRCLE
  5
611
  8
SIZE
  6
CONTINUOUS
 62
    30
 10
-310.0000019999999
 20
602.5476539999996
 30
0.0
 40
6.0
  0
CIRCLE
  5
612
  8
SIZE
  6
CONTINUOUS
 62
    30
 10
310.0000019999999
 20
602.5476539999996
 30
0.0
 40
6.0
  0
CIRCLE
  5
613
  8
SIZE
  6
CONTINUOUS
 62
    30
 10
628.1368089999999
 20
-279.9999999999999
 30
0.0
 40
6.0
  0
CIRCLE
  5
614
  8
SIZE
  6
CONTINUOUS
 62
    30
 10
628.1368089999999
 20
279.9999999999998
 30
0.0
 40
6.0
  0
CIRCLE
  5
615
  8
SIZE
  6
CONTINUOUS
 62
    30
 10
769.6240439999998
 20
-310.0000019999999
 30
0.0
 40
6.0
  0
CIRCLE
  5
616
  8
SIZE
  6
CONTINUOUS
 62
    30
 10
769.6240439999998
 20
310.0000019999996
 30
0.0
 40
6.0
  0
CIRCLE
  5
617
  8
SIZE
  6
CONTINUOUS
 62
    30
 10
-255.0
 20
-547.7948859999999
 30
0.0
 40
6.0
  0
CIRCLE
  5
618
  8
SIZE
  6
CONTINUOUS
 62
    30
 10
255.0
 20
-547.7948859999999
 30
0.0
 40
6.0
  0
LINE
  5
619
  8
NOTE
  6
CONTINUOUS
 62
     4
 10
-280.0
 20
259.9999999999998
 30
0.0
 11
-280.0
 21
299.9999999999999
 31
0.0
  0
LINE
  5
61A
  8
NOTE
  6
CONTINUOUS
 62
     4
 10
-299.9999999999998
 20
279.9999999999998
 30
0.0
 11
-260.0
 21
279.9999999999998
 31
0.0
  0
LINE
  5
61B
  8
NOTE
  6
CONTINUOUS
 62
     4
 10
-280.0
 20
-300.0
 30
0.0
 11
-280.0
 21
-259.9999999999999
 31
0.0
  0
LINE
  5
61C
  8
NOTE
  6
CONTINUOUS
 62
     4
 10
-299.9999999999998
 20
-279.9999999999999
 30
0.0
 11
-260.0
 21
-279.9999999999999
 31
0.0
  0
LINE
  5
61D
  8
NOTE
  6
CONTINUOUS
 62
     4
 10
280.0
 20
-300.0
 30
0.0
 11
280.0
 21
-259.9999999999999
 31
0.0
  0
LINE
  5
61E
  8
NOTE
  6
CONTINUOUS
 62
     4
 10
260.0
 20
-279.9999999999999
 30
0.0
 11
300.0
 21
-279.9999999999999
 31
0.0
  0
LINE
  5
61F
  8
NOTE
  6
CONTINUOUS
 62
     4
 10
280.0
 20
259.9999999999998
 30
0.0
 11
280.0
 21
299.9999999999999
 31
0.0
  0
LINE
  5
620
  8
NOTE
  6
CONTINUOUS
 62
     4
 10
260.0
 20
279.9999999999998
 30
0.0
 11
300.0
 21
279.9999999999998
 31
0.0
  0
LINE
  5
621
  8
DETAIL
  6
CONTINUOUS
 62
     5
 10
17.03288320812106
 20
130.0
 30
0.0
 11
120.6606404264352
 21
130.0
 31
0.0
  0
ARC
  5
622
  8
DETAIL
  6
CONTINUOUS
 62
     5
 10
116.8358489999995
 20
-164.651703
 30
0.0
 40
225.377668
 50
55.00182499999502
 51
95.55985699999695
  0
ARC
  5
623
  8
DETAIL
  6
CONTINUOUS
 62
     5
 10
0.0
 20
0.0
 30
0.0
 40
250.0
 50
291.2675030000065
 51
3.123985000002208
  0
CIRCLE
  5
624
  8
DETAIL
  6
CONTINUOUS
 62
     5
 10
0.0
 20
0.0
 30
0.0
 40
255.0
  0
ARC
  5
625
  8
DETAIL
  6
CONTINUOUS
 62
     5
 10
0.0
 20
0.0
 30
0.0
 40
250.0
 50
59.75076499999989
 51
123.125223000004
  0
ARC
  5
626
  8
DETAIL
  6
CONTINUOUS
 62
     5
 10
142.8766999999991
 20
49.82090699999996
 30
0.0
 40
149.215794
 50
97.75039700000728
 51
174.0589579999998
  0
ARC
  5
627
  8
DETAIL
  6
CONTINUOUS
 62
     5
 10
-44.7540469999999
 20
-164.857297
 30
0.0
 40
137.756089
 50
335.4059050000018
 51
53.57272099999359
  0
ARC
  5
628
  8
DETAIL
  6
CONTINUOUS
 62
     5
 10
0.0
 20
0.0
 30
0.0
 40
250.0
 50
165.8158990000013
 51
229.1887499999931
  0
ARC
  5
629
  8
DETAIL
  6
CONTINUOUS
 62
     5
 10
-198.7520229999999
 20
28.81695299999998
 30
0.0
 40
223.9435049999999
 50
280.9019310000002
 51
335.134216000004
  0
LINE
  5
62A
  8
DETAIL
  6
CONTINUOUS
 62
     5
 10
-178.5698720000009
 20
-174.9651419999999
 30
0.0
 11
-182.1054630000009
 21
-178.500981
 31
0.0
  0
LINE
  5
62B
  8
DETAIL
  6
CONTINUOUS
 62
     5
 10
-171.7205750000009
 20
-188.5127159999999
 30
0.0
 11
-168.1812819999998
 21
-184.973124
 31
0.0
  0
ARC
  5
62C
  8
DETAIL
  6
CONTINUOUS
 62
     5
 10
-157.9676830000006
 20
-182.9346909999999
 30
0.0
 40
8.3
 50
229.1887499999931
 51
280.9019310000004
  0
LINE
  5
62D
  8
DETAIL
  6
CONTINUOUS
 62
     5
 10
-174.9703799999999
 20
-178.5647400000002
 30
0.0
 11
-178.5059690000009
 21
-182.100573
 31
0.0
  0
ARC
  5
62E
  8
DETAIL
  6
CONTINUOUS
 62
     5
 10
87.77890399999907
 20
-225.5190989999999
 30
0.0
 40
8.0
 50
155.4059050000017
 51
291.2675030000065
  0
LINE
  5
62F
  8
DETAIL
  6
CONTINUOUS
 62
     5
 10
-40.86640341581852
 20
-130.0
 30
0.0
 11
88.51901442814358
 21
-130.0
 31
0.0
  0
ARC
  5
630
  8
DETAIL
  6
CONTINUOUS
 62
     5
 10
110.0325809999991
 20
195.7721289999998
 30
0.0
 40
246.7836189999999
 50
194.5858160000024
 51
225.6219080000021
  0
ARC
  5
631
  8
DETAIL
  6
CONTINUOUS
 62
     5
 10
-73.20088800000093
 20
128.3179739999999
 30
0.0
 40
164.150591
 50
203.5293489999999
 51
276.2090799999981
  0
LINE
  5
632
  8
DETAIL
  6
CONTINUOUS
 62
     5
 10
-124.9999999999999
 20
120.3390915100634
 30
0.0
 11
-124.9999999999997
 21
15.00000000000018
 31
0.0
  0
ARC
  5
633
  8
DETAIL
  6
CONTINUOUS
 62
     5
 10
-232.7801640000007
 20
58.8337099999998
 30
0.0
 40
9.9
 50
23.52934900000013
 51
165.8158990000013
  0
ARC
  5
634
  8
DETAIL
  6
CONTINUOUS
 62
     5
 10
59.08366099999938
 20
204.3234809999998
 30
0.0
 40
199.457253
 50
180.4112350000028
 51
198.1819270000004
  0
LINE
  5
635
  8
DETAIL
  6
CONTINUOUS
 62
     5
 10
-128.7975830000009
 20
133.6246649999999
 30
0.0
 11
-179.6277470000006
 21
180.9941219999999
 31
0.0
  0
LINE
  5
636
  8
DETAIL
  6
CONTINUOUS
 62
     5
 10
-130.4147950000012
 20
142.0857859999998
 30
0.0
 11
-175.9768329999999
 21
184.5458049999998
 31
0.0
  0
LINE
  5
637
  8
DETAIL
  6
CONTINUOUS
 62
     5
 10
-130.4147950000012
 20
142.0857859999998
 30
0.0
 11
-128.7975830000009
 21
133.6246649999999
 31
0.0
  0
ARC
  5
638
  8
DETAIL
  6
CONTINUOUS
 62
     5
 10
-132.0819670000009
 20
202.4184869999998
 30
0.0
 40
8.3
 50
123.125223000004
 51
176.7301539999973
  0
LINE
  5
639
  8
DETAIL
  6
CONTINUOUS
 62
     5
 10
-119.9999999999998
 20
106.4011813424081
 30
0.0
 11
-119.9999999999998
 21
-29.02006857604331
 31
0.0
  0
CIRCLE
  5
63A
  8
DETAIL
  6
CONTINUOUS
 62
     5
 10
0.0
 20
0.0
 30
0.0
 40
65.5
  0
ARC
  5
63B
  8
DETAIL
  6
CONTINUOUS
 62
     5
 10
152.0857919999991
 20
-74.1225299999999
 30
0.0
 40
145.4581499999999
 50
113.1073489999997
 51
131.575727999993
  0
LINE
  5
63C
  8
DETAIL
  6
CONTINUOUS
 62
     5
 10
175.9670449999991
 20
-177.582654
 30
0.0
 11
179.627746999999
 21
-180.994122
 31
0.0
  0
LINE
  5
63D
  8
DETAIL
  6
CONTINUOUS
 62
     5
 10
172.3124719999991
 20
-181.130925
 30
0.0
 11
175.9768329999994
 21
-184.5458050000001
 31
0.0
  0
LINE
  5
63E
  8
DETAIL
  6
CONTINUOUS
 62
     5
 10
120.0000000000001
 20
130.2050520721513
 30
0.0
 11
120.0000000000001
 21
60.70375262858552
 31
0.0
  0
LINE
  5
63F
  8
DETAIL
  6
CONTINUOUS
 62
     5
 10
125.0000000000004
 20
127.9106206576906
 30
0.0
 11
125.0000000000004
 21
60.70375262858552
 31
0.0
  0
ARC
  5
640
  8
DETAIL
  6
CONTINUOUS
 62
     5
 10
241.340819999999
 20
13.17187900000009
 30
0.0
 40
8.3
 50
3.123985000002208
 51
55.00182499999507
  0
LINE
  5
641
  8
DETAIL
  6
CONTINUOUS
 62
     5
 10
121.5911793467251
 20
133.8629123420093
 30
0.0
 11
175.9768329999994
 21
184.5458049999998
 31
0.0
  0
LINE
  5
642
  8
DETAIL
  6
CONTINUOUS
 62
     5
 10
126.5911799360875
 20
131.568481476785
 30
0.0
 11
179.627746999999
 21
180.9941219999999
 31
0.0
  0
ARC
  5
643
  8
DETAIL
  6
CONTINUOUS
 62
     5
 10
125.0000000000004
 20
130.2050520721513
 30
0.0
 40
5.0
 50
132.981652717068
 51
180.0
  0
ARC
  5
644
  8
DETAIL
  6
CONTINUOUS
 62
     5
 10
130.0000000000002
 20
127.9106206576906
 30
0.0
 40
5.0
 50
132.9816434854499
 51
180.0
  0
ARC
  5
645
  8
DETAIL
  6
CONTINUOUS
 62
     5
 10
120.9533639999993
 20
207.4085189999998
 30
0.0
 40
9.9
 50
280.4781720000063
 51
59.7507649999999
  0
ARC
  5
646
  8
DETAIL
  6
CONTINUOUS
 62
     5
 10
-131.761398
 20
202.4184869999998
 30
0.0
 40
8.3
 50
123.125223000004
 51
176.7301539999973
  0
LINE
  5
647
  8
SIZE
  6
CONTINUOUS
 62
    30
 10
-140.3773909999987
 20
221.0160269999998
 30
0.0
 11
-146.8215719999987
 21
231.1388979999996
 31
0.0
  0
CIRCLE
  5
648
  8
SIZE
  6
CONTINUOUS
 62
    30
 10
-133.9332089999997
 20
210.8931549999998
 30
0.0
 40
6.0
  0
LINE
  5
649
  8
SIZE
  6
CONTINUOUS
 62
    30
 10
-133.9332089999997
 20
210.8931549999998
 30
0.0
 11
-140.37739
 21
221.0160259999998
 31
0.0
  0
LINE
  5
64A
  8
SIZE
  6
CONTINUOUS
 62
    30
 10
-133.9332089999997
 20
210.8931549999998
 30
0.0
 11
134.5743470000006
 21
-210.8931550000002
 31
0.0
  0
LINE
  5
64B
  8
SIZE
  6
CONTINUOUS
 62
    30
 10
389.998622
 20
-612.1275329999996
 30
0.0
 11
141.018529
 21
-221.0160270000002
 31
0.0
  0
TEXT
  5
64C
  8
SIZE
  6
CONTINUOUS
 62
    30
 10
287.3249392383165
 20
-404.2884321762667
 30
0.0
 40
63.99999999999999
  1
φ500
 50
302.4806580000033
 41
0.9
 72
     1
 11
343.8996700000002
 21
-493.1591619999999
 31
0.0
  0
ARC
  5
64D
  8
DETAIL
  6
CONTINUOUS
 62
     5
 10
88.09947299999988
 20
-225.5190989999999
 30
0.0
 40
8.0
 50
155.4059050000017
 51
291.2675030000065
  0
CIRCLE
  5
64E
  8
SIZE
  6
CONTINUOUS
 62
    30
 10
134.5743470000006
 20
-210.8931550000002
 30
0.0
 40
6.0
  0
LINE
  5
64F
  8
SIZE
  6
CONTINUOUS
 62
    30
 10
134.5743470000006
 20
-210.8931550000002
 30
0.0
 11
141.018528
 21
-221.0160260000002
 31
0.0
  0
LINE
  5
650
  8
DETAIL
  6
CONTINUOUS
 62
     5
 10
176.2876140000002
 20
-177.582654
 30
0.0
 11
179.9483160000002
 21
-180.994122
 31
0.0
  0
LINE
  5
651
  8
DETAIL
  6
CONTINUOUS
 62
     5
 10
172.6330410000003
 20
-181.130925
 30
0.0
 11
176.2974020000003
 21
-184.5458050000001
 31
0.0
  0
LINE
  5
652
  8
NOTE
  6
CONTINUOUS
 62
     4
 10
-311.9591449999999
 20
304.0543769999996
 30
0.0
 11
-280.0
 21
279.9999999999998
 31
0.0
  0
LINE
  5
653
  8
NOTE
  6
CONTINUOUS
 62
     4
 10
-280.0
 20
279.9999999999998
 30
0.0
 11
-295.6502429999999
 21
316.811274
 31
0.0
  0
TEXT
  5
654
  8
ETC
  6
CONTINUOUS
 62
    61
 10
696.8285611102535
 20
489.1687017392622
 30
0.0
 40
50.0
  1
EG-50ETXB3-F
 41
0.9
  0
TEXT
  5
655
  8
ETC
  6
CONTINUOUS
 62
    61
 10
565.6744689545081
 20
679.0614217369283
 30
0.0
 40
64.0
  1
EG-50ETXB3-F_3
 41
0.9
  0
TEXT
  5
656
  8
ETC
  6
CONTINUOUS
 62
    61
 10
563.6061479545083
 20
579.7284367369282
 30
0.0
 40
64.0
  1
産業扇
 41
0.9
  0
LINE
  5
657
  8
DETAIL
  6
CONTINUOUS
 62
     5
 10
-124.9999999999999
 20
15.00000000000018
 30
0.0
 11
-119.9999999999998
 21
15.00000000000018
 31
0.0
  0
LINE
  5
658
  8
DETAIL
  6
CONTINUOUS
 62
     5
 10
-124.9999999999999
 20
-14.99999999999991
 30
0.0
 11
-119.9999999999998
 21
-14.99999999999991
 31
0.0
  0
LINE
  5
659
  8
DETAIL
  6
CONTINUOUS
 62
     5
 10
-124.9999999999997
 20
-14.99999999999991
 30
0.0
 11
-124.9999999999999
 21
-26.48792987247381
 31
0.0
  0
ARC
  5
65B
  8
SIZE
  6
CONTINUOUS
 62
    30
 10
-111.0154939846407
 20
179.5309591568931
 30
0.0
 40
39.015042792295
 50
117.3212946045736
 51
134.9931404845522
  0
ARC
  5
65C
  8
SIZE
  6
CONTINUOUS
 62
    30
 10
94.92163920227179
 20
-148.752896933162
 30
0.0
 40
73.7139668468962
 50
297.8776901671806
 51
307.2075271696109
  0
ENDSEC
  0
EOF
