  0
SECTION
  2
HEADER
  9
$ACADVER
  1
AC1009
  9
$DWGCODEPAGE
  3
ansi_932
  9
$INSBASE
 10
0.0
 20
0.0
 30
0.0
  9
$EXTMIN
 10
-442.9325750844711
 20
-444.9847619999999
 30
0.0
  9
$EXTMAX
 10
1400.817844412027
 20
737.7763977360343
 30
0.0
  9
$LIMMIN
 10
-2970.0
 20
-2100.0
  9
$LIMMAX
 10
2970.0
 20
2100.0
  9
$ORTHOMODE
 70
     1
  9
$REGENMODE
 70
     0
  9
$FILLMODE
 70
     1
  9
$QTEXTMODE
 70
     0
  9
$MIRRTEXT
 70
     0
  9
$DRAGMODE
 70
     2
  9
$LTSCALE
 40
20.0
  9
$OSMODE
 70
    37
  9
$ATTMODE
 70
     1
  9
$TEXTSIZE
 40
64.0
  9
$TRACEWID
 40
0.05
  9
$TEXTSTYLE
  7
STANDARD
  9
$CLAYER
  8
0
  9
$CELTYPE
  6
CONTINUOUS
  9
$CECOLOR
 62
     8
  9
$DIMSCALE
 40
1.0
  9
$DIMASZ
 40
2.0
  9
$DIMEXO
 40
20.0
  9
$DIMDLI
 40
200.0
  9
$DIMRND
 40
0.0
  9
$DIMDLE
 40
0.0
  9
$DIMEXE
 40
30.0
  9
$DIMTP
 40
0.0
  9
$DIMTM
 40
0.0
  9
$DIMTXT
 40
64.0
  9
$DIMCEN
 40
0.09
  9
$DIMTSZ
 40
0.0
  9
$DIMTOL
 70
     0
  9
$DIMLIM
 70
     0
  9
$DIMTIH
 70
     0
  9
$DIMTOH
 70
     0
  9
$DIMSE1
 70
     0
  9
$DIMSE2
 70
     0
  9
$DIMTAD
 70
     1
  9
$DIMZIN
 70
     8
  9
$DIMBLK
  1

  9
$DIMASO
 70
     1
  9
$DIMSHO
 70
     0
  9
$DIMPOST
  1

  9
$DIMAPOST
  1

  9
$DIMALT
 70
     0
  9
$DIMALTD
 70
     2
  9
$DIMALTF
 40
25.4
  9
$DIMLFAC
 40
1.0
  9
$DIMTOFL
 70
     1
  9
$DIMTVP
 40
0.0
  9
$DIMTIX
 70
     1
  9
$DIMSOXD
 70
     0
  9
$DIMSAH
 70
     0
  9
$DIMBLK1
  1

  9
$DIMBLK2
  1

  9
$DIMSTYLE
  2
STANDARD
  9
$DIMCLRD
 70
     0
  9
$DIMCLRE
 70
     0
  9
$DIMCLRT
 70
     0
  9
$DIMTFAC
 40
1.0
  9
$DIMGAP
 40
0.09
  9
$LUNITS
 70
     2
  9
$LUPREC
 70
     4
  9
$SKETCHINC
 40
0.1
  9
$FILLETRAD
 40
50.0
  9
$AUNITS
 70
     1
  9
$AUPREC
 70
     3
  9
$MENU
  1
ACAD
  9
$ELEVATION
 40
0.0
  9
$PELEVATION
 40
0.0
  9
$THICKNESS
 40
0.0
  9
$LIMCHECK
 70
     1
  9
$CHAMFERA
 40
0.0
  9
$CHAMFERB
 40
0.0
  9
$SKPOLY
 70
     0
  9
$TDCREATE
 40
2451484.695868044
  9
$TDUPDATE
 40
2457485.555712778
  9
$TDINDWG
 40
0.015443588
  9
$TDUSRTIMER
 40
0.0154426968
  9
$USRTIMER
 70
     1
  9
$ANGBASE
 50
0.0
  9
$ANGDIR
 70
     0
  9
$PDMODE
 70
     3
  9
$PDSIZE
 40
-2.0
  9
$PLINEWID
 40
0.0
  9
$COORDS
 70
     1
  9
$SPLFRAME
 70
     0
  9
$SPLINETYPE
 70
     6
  9
$SPLINESEGS
 70
     8
  9
$ATTDIA
 70
     0
  9
$ATTREQ
 70
     1
  9
$HANDLING
 70
     1
  9
$HANDSEED
  5
91B
  9
$SURFTAB1
 70
     6
  9
$SURFTAB2
 70
     6
  9
$SURFTYPE
 70
     6
  9
$SURFU
 70
     6
  9
$SURFV
 70
     6
  9
$UCSNAME
  2

  9
$UCSORG
 10
0.0
 20
0.0
 30
0.0
  9
$UCSXDIR
 10
1.0
 20
0.0
 30
0.0
  9
$UCSYDIR
 10
0.0
 20
1.0
 30
0.0
  9
$PUCSNAME
  2

  9
$PUCSORG
 10
0.0
 20
0.0
 30
0.0
  9
$PUCSXDIR
 10
1.0
 20
0.0
 30
0.0
  9
$PUCSYDIR
 10
0.0
 20
1.0
 30
0.0
  9
$USERI1
 70
     0
  9
$USERI2
 70
     0
  9
$USERI3
 70
     0
  9
$USERI4
 70
     0
  9
$USERI5
 70
     0
  9
$USERR1
 40
20.0
  9
$USERR2
 40
0.0
  9
$USERR3
 40
0.0
  9
$USERR4
 40
0.0
  9
$USERR5
 40
0.0
  9
$WORLDVIEW
 70
     1
  9
$SHADEDGE
 70
     3
  9
$SHADEDIF
 70
    70
  9
$TILEMODE
 70
     1
  9
$MAXACTVP
 70
    64
  9
$PLIMCHECK
 70
     0
  9
$PEXTMIN
 10
1.000000000000000E+20
 20
1.000000000000000E+20
 30
1.000000000000000E+20
  9
$PEXTMAX
 10
-1.000000000000000E+20
 20
-1.000000000000000E+20
 30
-1.000000000000000E+20
  9
$PLIMMIN
 10
0.0
 20
0.0
  9
$PLIMMAX
 10
12.0
 20
9.0
  9
$UNITMODE
 70
     0
  9
$VISRETAIN
 70
     1
  9
$PLINEGEN
 70
     0
  9
$PSLTSCALE
 70
     1
  0
ENDSEC
  0
SECTION
  2
TABLES
  0
TABLE
  2
VPORT
 70
     1
  0
VPORT
  2
*ACTIVE
 70
     0
 10
0.0
 20
0.0
 11
1.0
 21
1.0
 12
449.4268644679505
 22
145.8935037958758
 13
0.0
 23
0.0
 14
400.0
 24
400.0
 15
400.0
 25
400.0
 16
0.0
 26
0.0
 36
1.0
 17
0.0
 27
0.0
 37
0.0
 40
1656.361770904083
 41
1.493654822335025
 42
50.0
 43
0.0
 44
0.0
 50
0.0
 51
0.0
 71
     0
 72
  1000
 73
     1
 74
     0
 75
     0
 76
     0
 77
     0
 78
     0
  0
ENDTAB
  0
TABLE
  2
LTYPE
 70
     7
  0
LTYPE
  2
CONTINUOUS
 70
     0
  3
実線
 72
    65
 73
     0
 40
0.0
  0
LTYPE
  2
DASHDOT
 70
     0
  3
____ _ ____ _ ____ _ ____ _ ____ _ ____ _ ____
 72
    65
 73
     4
 40
5.5
 49
4.0
 49
-0.6
 49
0.3
 49
-0.6
  0
LTYPE
  2
DASHED
 70
     0
  3
_ _ _ _ _ _ _ _ _ _ _ _ _ _ _ _ _ _ _ _ _ _ _
 72
    65
 73
     2
 40
1.999999999999999
 49
1.199999999999999
 49
-0.8
  0
LTYPE
  2
DOT
 70
     0
  3
...............................................
 72
    65
 73
     2
 40
0.8
 49
0.5
 49
-0.3
  0
LTYPE
  2
DASHDOT1
 70
     0
  3
____ _ ____ _ ____ _ ____ _ ____ _ ____ _ ____
 72
    65
 73
     4
 40
2.0
 49
1.5
 49
-0.2
 49
0.1
 49
-0.2
  0
LTYPE
  2
DIVIDE
 70
     0
  3
_____ _ _ _____ _ _ _____ _ _ _____ _ _ ____
 72
    65
 73
     6
 40
6.4
 49
4.0
 49
-0.6
 49
0.3
 49
-0.6
 49
0.3
 49
-0.6
  0
LTYPE
  2
DIVIDE1
 70
     0
  3
_____ _ _ _____ _ _ _____ _ _ _____ _ _ ____
 72
    65
 73
     6
 40
3.2
 49
2.0
 49
-0.3
 49
0.15
 49
-0.3
 49
0.15
 49
-0.3
  0
ENDTAB
  0
TABLE
  2
LAYER
 70
    12
  0
LAYER
  2
0
 70
     0
 62
     7
  6
CONTINUOUS
  0
LAYER
  2
OUTLINE
 70
     0
 62
     3
  6
CONTINUOUS
  0
LAYER
  2
DETAIL
 70
     0
 62
     5
  6
CONTINUOUS
  0
LAYER
  2
BASIS
 70
     0
 62
     6
  6
DASHDOT
  0
LAYER
  2
NOTE
 70
     0
 62
     4
  6
CONTINUOUS
  0
LAYER
  2
DEFPOINTS
 70
     0
 62
     7
  6
CONTINUOUS
  0
LAYER
  2
SIZE
 70
     0
 62
    30
  6
CONTINUOUS
  0
LAYER
  2
ARRANGE
 70
     0
 62
     1
  6
CONTINUOUS
  0
LAYER
  2
FIX
 70
     0
 62
    11
  6
CONTINUOUS
  0
LAYER
  2
ETC
 70
     0
 62
    61
  6
CONTINUOUS
  0
LAYER
  2
SERVICESPACE
 70
     0
 62
     2
  6
DASHDOT
  0
LAYER
  2
SYMBOLLINE
 70
     0
 62
    15
  6
CONTINUOUS
  0
ENDTAB
  0
TABLE
  2
STYLE
 70
     1
  0
STYLE
  2
STANDARD
 70
     0
 40
0.0
 41
0.9
 50
0.0
 71
     0
 42
64.0
  3
SIMPLEX
  4
BIGFONT
  0
ENDTAB
  0
TABLE
  2
VIEW
 70
     1
  0
VIEW
  2
ALL
 70
     0
 40
4508.020851
 10
0.0
 20
41.30990399999999
 41
6252.631578999999
 11
0.0
 21
0.0
 31
1.0
 12
0.0
 22
0.0
 32
0.0
 42
50.0
 43
0.0
 44
0.0
 50
0.0
 71
     0
  0
ENDTAB
  0
TABLE
  2
UCS
 70
     0
  0
ENDTAB
  0
TABLE
  2
APPID
 70
     1
  0
APPID
  2
ACAD
 70
     0
  0
ENDTAB
  0
TABLE
  2
DIMSTYLE
 70
     1
  0
DIMSTYLE
  2
STANDARD
 70
     0
  3

  4

  5

  6

  7

 40
1.0
 41
0.18
 42
0.0625
 43
0.38
 44
0.18
 45
0.0
 46
0.0
 47
0.0
 48
0.0
140
0.18
141
0.09
142
0.0
143
25.4
144
1.0
145
0.0
146
1.0
147
0.09
 71
     0
 72
     0
 73
     1
 74
     1
 75
     0
 76
     0
 77
     0
 78
     0
170
     0
171
     2
172
     0
173
     0
174
     0
175
     0
176
     0
177
     0
178
     0
  0
ENDTAB
  0
ENDSEC
  0
SECTION
  2
BLOCKS
  0
BLOCK
  8
0
  2
$MODEL_SPACE
 70
     0
 10
0.0
 20
0.0
 30
0.0
  3
$MODEL_SPACE
  1

  0
ENDBLK
  5
75D
  8
0
  0
BLOCK
 67
     1
  8
0
  2
$PAPER_SPACE
 70
     0
 10
0.0
 20
0.0
 30
0.0
  3
$PAPER_SPACE
  1

  0
ENDBLK
  5
759
 67
     1
  8
0
  0
BLOCK
  8
0
  2
DOT1
 70
     0
 10
0.0
 20
0.0
 30
0.0
  3
DOT1
  1

  0
CIRCLE
  5
77D
  8
SIZE
  6
CONTINUOUS
 62
     7
 10
0.0
 20
0.0
 30
0.0
 40
3.0
  0
ENDBLK
  5
77E
  8
0
  0
BLOCK
  8
0
  2
_ORIGIN
 70
     0
 10
0.0
 20
0.0
 30
0.0
  3
_ORIGIN
  1

  0
CIRCLE
  5
781
  8
0
  6
CONTINUOUS
 62
     7
 10
0.0
 20
0.0
 30
0.0
 40
0.5
  0
LINE
  5
782
  8
0
  6
CONTINUOUS
 62
     7
 10
0.0
 20
0.0
 30
0.0
 11
-1.0
 21
0.0
 31
0.0
  0
ENDBLK
  5
783
  8
0
  0
ENDSEC
  0
SECTION
  2
ENTITIES
  0
LINE
  5
784
  8
DETAIL
  6
CONTINUOUS
 62
     5
 10
0.0
 20
-310.0
 30
0.0
 11
0.0
 21
310.0
 31
0.0
  0
LINE
  5
785
  8
BASIS
  6
DASHDOT
 62
     6
 10
-54.26140099999996
 20
0.0
 30
0.0
 11
394.8813269999999
 21
0.0
 31
0.0
  0
LINE
  5
786
  8
DETAIL
  6
CONTINUOUS
 62
     5
 10
20.00000000000001
 20
264.5
 30
0.0
 11
207.460834
 21
264.5
 31
0.0
  0
LINE
  5
787
  8
DETAIL
  6
CONTINUOUS
 62
     5
 10
20.00000000000001
 20
-264.5
 30
0.0
 11
207.460834
 21
-264.5
 31
0.0
  0
LINE
  5
788
  8
DETAIL
  6
CONTINUOUS
 62
     5
 10
10.0
 20
-303.0
 30
0.0
 11
10.0
 21
-290.5
 31
0.0
  0
LINE
  5
789
  8
DETAIL
  6
CONTINUOUS
 62
     5
 10
3.0
 20
-310.0
 30
0.0
 11
0.0
 21
-310.0
 31
0.0
  0
LINE
  5
78A
  8
DETAIL
  6
CONTINUOUS
 62
     5
 10
3.0
 20
310.0
 30
0.0
 11
0.0
 21
310.0
 31
0.0
  0
LINE
  5
78B
  8
SIZE
  6
CONTINUOUS
 62
    30
 10
0.0
 20
364.537785
 30
0.0
 11
-145.288361
 21
364.537785
 31
0.0
  0
LINE
  5
78C
  8
DETAIL
  6
CONTINUOUS
 62
     5
 10
10.0
 20
-290.5
 30
0.0
 11
10.0
 21
290.5
 31
0.0
  0
LINE
  5
78D
  8
DETAIL
  6
CONTINUOUS
 62
     5
 10
10.0
 20
290.5
 30
0.0
 11
10.0
 21
303.0
 31
0.0
  0
LINE
  5
78E
  8
DETAIL
  6
CONTINUOUS
 62
     5
 10
20.00000000000001
 20
-287.0540109999997
 30
0.0
 11
20.00000000000001
 21
-227.0540109999998
 31
0.0
  0
LINE
  5
78F
  8
DETAIL
  6
CONTINUOUS
 62
     5
 10
286.9624819999995
 20
-130.0
 30
0.0
 11
286.9624819999995
 21
130.0
 31
0.0
  0
LINE
  5
790
  8
DETAIL
  6
CONTINUOUS
 62
     5
 10
239.4608339999999
 20
-90.0
 30
0.0
 11
239.4608339999999
 21
-14.85217999999998
 31
0.0
  0
LINE
  5
791
  8
DETAIL
  6
CONTINUOUS
 62
     5
 10
286.9624819999995
 20
-130.0
 30
0.0
 11
239.4608339999999
 21
-130.0
 31
0.0
  0
LINE
  5
792
  8
DETAIL
  6
CONTINUOUS
 62
     5
 10
286.9624819999995
 20
130.0
 30
0.0
 11
239.4608339999999
 21
130.0
 31
0.0
  0
LINE
  5
793
  8
DETAIL
  6
CONTINUOUS
 62
     5
 10
151.8038559999998
 20
82.0
 30
0.0
 11
234.9602839999997
 21
82.0
 31
0.0
  0
LINE
  5
794
  8
DETAIL
  6
CONTINUOUS
 62
     5
 10
151.8038559999998
 20
-82.0
 30
0.0
 11
234.9602839999997
 21
-82.0
 31
0.0
  0
LINE
  5
795
  8
DETAIL
  6
CONTINUOUS
 62
     5
 10
315.9999999999999
 20
-72.0
 30
0.0
 11
315.9999999999999
 21
72.0
 31
0.0
  0
LINE
  5
796
  8
DETAIL
  6
CONTINUOUS
 62
     5
 10
20.00000000000001
 20
286.2857649999999
 30
0.0
 11
10.0
 21
286.2857649999999
 31
0.0
  0
LINE
  5
797
  8
DETAIL
  6
CONTINUOUS
 62
     5
 10
20.00000000000001
 20
-287.0540109999997
 30
0.0
 11
10.0
 21
-287.0540109999997
 31
0.0
  0
LINE
  5
798
  8
DETAIL
  6
CONTINUOUS
 62
     5
 10
239.4608339999999
 20
-90.0
 30
0.0
 11
239.4608339999999
 21
-194.5
 31
0.0
  0
LINE
  5
799
  8
DETAIL
  6
CONTINUOUS
 62
     5
 10
239.4608339999999
 20
90.0
 30
0.0
 11
239.4608339999999
 21
194.5
 31
0.0
  0
LINE
  5
79A
  8
DETAIL
  6
CONTINUOUS
 62
     5
 10
277.4608339999999
 20
-194.5
 30
0.0
 11
277.4608339999999
 21
-130.0
 31
0.0
  0
LINE
  5
79B
  8
DETAIL
  6
CONTINUOUS
 62
     5
 10
277.4608339999999
 20
194.5
 30
0.0
 11
277.4608339999999
 21
130.0
 31
0.0
  0
LINE
  5
79C
  8
DETAIL
  6
CONTINUOUS
 62
     5
 10
20.00000000000001
 20
244.4999999999998
 30
0.0
 11
189.4608339999997
 21
244.4999999999998
 31
0.0
  0
LINE
  5
79D
  8
DETAIL
  6
CONTINUOUS
 62
     5
 10
10.0
 20
226.2857649999999
 30
0.0
 11
20.00000000000001
 21
226.2857649999999
 31
0.0
  0
LINE
  5
79E
  8
DETAIL
  6
CONTINUOUS
 62
     5
 10
20.00000000000001
 20
-227.0540109999998
 30
0.0
 11
10.0
 21
-227.0540109999998
 31
0.0
  0
ARC
  5
79F
  8
DETAIL
  6
CONTINUOUS
 62
     5
 10
207.460834
 20
194.5
 30
0.0
 40
70.0
 50
0.0
 51
90.0
  0
ARC
  5
7A0
  8
DETAIL
  6
CONTINUOUS
 62
     5
 10
207.460834
 20
-194.5
 30
0.0
 40
70.0
 50
270.0
 51
0.0
  0
LINE
  5
7A1
  8
DETAIL
  6
CONTINUOUS
 62
     5
 10
20.00000000000001
 20
226.2857649999999
 30
0.0
 11
20.00000000000001
 21
286.2857649999999
 31
0.0
  0
CIRCLE
  5
7A2
  8
FIX
  6
CONTINUOUS
 62
    11
 10
0.0
 20
280.0
 30
0.0
 40
7.5
  0
ARC
  5
7A3
  8
DETAIL
  6
CONTINUOUS
 62
     5
 10
3.0
 20
303.0
 30
0.0
 40
7.0
 50
0.0
 51
90.0
  0
ARC
  5
7A4
  8
DETAIL
  6
CONTINUOUS
 62
     5
 10
3.0
 20
-303.0
 30
0.0
 40
7.0
 50
270.0
 51
0.0
  0
LINE
  5
7A5
  8
DETAIL
  6
CONTINUOUS
 62
     5
 10
87.99999999999984
 20
-244.4999999999998
 30
0.0
 11
87.99999999999984
 21
244.4999999999998
 31
0.0
  0
LINE
  5
7A6
  8
DETAIL
  6
CONTINUOUS
 62
     5
 10
87.99999999999984
 20
264.5
 30
0.0
 11
87.99999999999984
 21
302.4999999999999
 31
0.0
  0
LINE
  5
7A7
  8
DETAIL
  6
CONTINUOUS
 62
     5
 10
87.99999999999984
 20
-264.5
 30
0.0
 11
87.99999999999984
 21
-302.4999999999999
 31
0.0
  0
LINE
  5
7A8
  8
SIZE
  6
CONTINUOUS
 62
    30
 10
0.0
 20
493.9475309999998
 30
0.0
 11
145.0399559999997
 21
493.9475309999998
 31
0.0
  0
CIRCLE
  5
7A9
  8
ARRANGE
  6
CONTINUOUS
 62
     1
 10
0.0
 20
0.0
 30
0.0
 40
40.0
  0
TEXT
  5
7AC
  8
NOTE
  6
CONTINUOUS
 62
     4
 10
175.020053
 20
-419.8852129999997
 30
0.0
 40
64.0
  1
4-15×15
 41
0.9
  0
LINE
  5
7AD
  8
NOTE
  6
CONTINUOUS
 62
     4
 10
579.6436629999998
 20
-444.9847619999999
 30
0.0
 11
152.7836069999997
 21
-444.9847619999999
 31
0.0
  0
LINE
  5
7AE
  8
DETAIL
  6
CONTINUOUS
 62
     5
 10
141.8038559999998
 20
-72.0
 30
0.0
 11
141.8038559999998
 21
72.0
 31
0.0
  0
ARC
  5
7AF
  8
DETAIL
  6
CONTINUOUS
 62
     5
 10
151.8038559999998
 20
72.0
 30
0.0
 40
10.0
 50
90.0
 51
180.0
  0
ARC
  5
7B0
  8
DETAIL
  6
CONTINUOUS
 62
     5
 10
151.8038559999998
 20
-72.0
 30
0.0
 40
10.0
 50
180.0
 51
270.0
  0
LINE
  5
7B1
  8
DETAIL
  6
CONTINUOUS
 62
     5
 10
126.8038559999999
 20
20.0
 30
0.0
 11
141.8038559999998
 21
20.0
 31
0.0
  0
LINE
  5
7B2
  8
DETAIL
  6
CONTINUOUS
 62
     5
 10
126.8038559999999
 20
-20.0
 30
0.0
 11
141.8038559999998
 21
-20.0
 31
0.0
  0
LINE
  5
7B3
  8
DETAIL
  6
CONTINUOUS
 62
     5
 10
126.8038559999999
 20
-20.0
 30
0.0
 11
126.8038559999999
 21
20.0
 31
0.0
  0
LINE
  5
7B4
  8
DETAIL
  6
CONTINUOUS
 62
     5
 10
87.99999999999984
 20
8.0
 30
0.0
 11
126.8038559999999
 21
8.0
 31
0.0
  0
LINE
  5
7B5
  8
DETAIL
  6
CONTINUOUS
 62
     5
 10
87.99999999999984
 20
-8.0
 30
0.0
 11
126.8038559999999
 21
-8.0
 31
0.0
  0
LINE
  5
7B6
  8
DETAIL
  6
CONTINUOUS
 62
     5
 10
286.9624819999995
 20
-82.0
 30
0.0
 11
305.9999999999999
 21
-82.0
 31
0.0
  0
LINE
  5
7B7
  8
DETAIL
  6
CONTINUOUS
 62
     5
 10
286.9624819999995
 20
82.0
 30
0.0
 11
305.9999999999999
 21
82.0
 31
0.0
  0
ARC
  5
7B8
  8
DETAIL
  6
CONTINUOUS
 62
     5
 10
305.9999999999999
 20
72.0
 30
0.0
 40
10.0
 50
0.0
 51
90.0
  0
ARC
  5
7B9
  8
DETAIL
  6
CONTINUOUS
 62
     5
 10
305.9999999999999
 20
-72.0
 30
0.0
 40
10.0
 50
270.0
 51
0.0
  0
ARC
  5
7BA
  8
DETAIL
  6
CONTINUOUS
 62
     5
 10
189.4608339999997
 20
194.5
 30
0.0
 40
50.0
 50
0.0
 51
90.0
  0
LINE
  5
7BB
  8
DETAIL
  6
CONTINUOUS
 62
     5
 10
20.00000000000001
 20
-244.4999999999998
 30
0.0
 11
189.4608339999997
 21
-244.4999999999998
 31
0.0
  0
ARC
  5
7BC
  8
DETAIL
  6
CONTINUOUS
 62
     5
 10
189.4608339999997
 20
-194.5
 30
0.0
 40
50.0
 50
270.0
 51
0.0
  0
LINE
  5
7BD
  8
DETAIL
  6
CONTINUOUS
 62
     5
 10
20.00000000000001
 20
274.766856
 30
0.0
 11
63.01809899999994
 21
274.766856
 31
0.0
  0
LINE
  5
7BE
  8
DETAIL
  6
CONTINUOUS
 62
     5
 10
20.00000000000001
 20
-274.766856
 30
0.0
 11
63.01809899999994
 21
-274.766856
 31
0.0
  0
CIRCLE
  5
7BF
  8
FIX
  6
CONTINUOUS
 62
    11
 10
0.0
 20
-280.0
 30
0.0
 40
7.5
  0
LINE
  5
7C0
  8
DETAIL
  6
CONTINUOUS
 62
     5
 10
234.9602839999997
 20
-130.0
 30
0.0
 11
234.9602839999997
 21
130.0
 31
0.0
  0
LINE
  5
7C1
  8
DETAIL
  6
CONTINUOUS
 62
     5
 10
239.4608339999999
 20
-130.0
 30
0.0
 11
234.9602839999997
 21
-130.0
 31
0.0
  0
LINE
  5
7C2
  8
DETAIL
  6
CONTINUOUS
 62
     5
 10
239.4608339999999
 20
130.0
 30
0.0
 11
234.9602839999997
 21
130.0
 31
0.0
  0
LINE
  5
7C3
  8
DETAIL
  6
CONTINUOUS
 62
     5
 10
277.4608339999999
 20
-130.0
 30
0.0
 11
277.4608339999999
 21
-14.85217999999998
 31
0.0
  0
LINE
  5
7C4
  8
DETAIL
  6
CONTINUOUS
 62
     5
 10
277.4608339999999
 20
-14.85217999999998
 30
0.0
 11
239.4608339999999
 21
-14.85217999999998
 31
0.0
  0
LINE
  5
7C5
  8
DETAIL
  6
CONTINUOUS
 62
     5
 10
239.4608339999999
 20
14.85217999999998
 30
0.0
 11
239.4608339999999
 21
90.0
 31
0.0
  0
LINE
  5
7C6
  8
DETAIL
  6
CONTINUOUS
 62
     5
 10
277.4608339999999
 20
14.85217999999998
 30
0.0
 11
239.4608339999999
 21
14.85217999999998
 31
0.0
  0
LINE
  5
7C7
  8
DETAIL
  6
CONTINUOUS
 62
     5
 10
277.4608339999999
 20
130.0
 30
0.0
 11
277.4608339999999
 21
14.85217999999998
 31
0.0
  0
LINE
  5
7C8
  8
NOTE
  6
CONTINUOUS
 62
     4
 10
0.0
 20
-280.0
 30
0.0
 11
152.7836069999997
 21
-444.9847619999999
 31
0.0
  0
LINE
  5
7CA
  8
SIZE
  6
CONTINUOUS
 62
    30
 10
548.7418270000001
 20
-86.0
 30
0.0
 11
548.7418270000001
 21
-293.954751
 31
0.0
  0
LINE
  5
7CB
  8
SIZE
  6
BYBLOCK
 62
    30
 10
325.9999999999999
 20
82.0
 30
0.0
 11
578.7418269999998
 21
82.0
 31
0.0
  0
LINE
  5
7CC
  8
SIZE
  6
BYBLOCK
 62
    30
 10
325.9999999999999
 20
-82.0
 30
0.0
 11
578.7418269999998
 21
-82.0
 31
0.0
  0
LINE
  5
7CD
  8
SIZE
  6
BYBLOCK
 62
    30
 10
548.7418270000001
 20
-84.0
 30
0.0
 11
548.7418270000001
 21
-86.0
 31
0.0
  0
LINE
  5
7CE
  8
SIZE
  6
BYBLOCK
 62
    30
 10
548.7418270000001
 20
84.0
 30
0.0
 11
548.7418270000001
 21
86.0
 31
0.0
  0
LINE
  5
7CF
  8
SIZE
  6
BYBLOCK
 62
    30
 10
548.7418270000001
 20
-82.0
 30
0.0
 11
548.7418270000001
 21
82.0
 31
0.0
  0
TEXT
  5
7D0
  8
SIZE
  6
BYBLOCK
 62
    30
 10
516.7418269999998
 20
-299.32511
 30
0.0
 40
64.0
  1
φ164
 50
90.0
 41
0.9
  0
LINE
  5
7D1
  8
SIZE
  6
BYBLOCK
 62
    30
 10
107.9999999999999
 20
302.4999999999999
 30
0.0
 11
718.6173779999999
 21
302.4999999999999
 31
0.0
  0
LINE
  5
7D2
  8
SIZE
  6
BYBLOCK
 62
    30
 10
107.9999999999999
 20
-302.4999999999999
 30
0.0
 11
718.6173779999999
 21
-302.4999999999999
 31
0.0
  0
LINE
  5
7D3
  8
SIZE
  6
BYBLOCK
 62
    30
 10
688.6173779999999
 20
300.4999999999999
 30
0.0
 11
688.6173779999999
 21
0.0
 31
0.0
  0
LINE
  5
7D4
  8
SIZE
  6
BYBLOCK
 62
    30
 10
688.6173779999999
 20
-300.4999999999999
 30
0.0
 11
688.6173779999999
 21
0.0
 31
0.0
  0
TEXT
  5
7D5
  8
SIZE
  6
BYBLOCK
 62
    30
 10
656.617378
 20
-102.8571429999997
 30
0.0
 40
64.0
  1
φ605
 50
90.0
 41
0.9
  0
LINE
  5
7D6
  8
SIZE
  6
BYBLOCK
 62
    30
 10
-19.99999999999999
 20
310.0
 30
0.0
 11
-427.1455669999998
 21
310.0
 31
0.0
  0
LINE
  5
7D7
  8
SIZE
  6
BYBLOCK
 62
    30
 10
-16.99999999999999
 20
-310.0
 30
0.0
 11
-427.1455669999998
 21
-310.0
 31
0.0
  0
LINE
  5
7D8
  8
SIZE
  6
BYBLOCK
 62
    30
 10
-397.1455669999998
 20
308.0
 30
0.0
 11
-397.1455669999998
 21
0.0
 31
0.0
  0
LINE
  5
7D9
  8
SIZE
  6
BYBLOCK
 62
    30
 10
-397.1455669999998
 20
-308.0
 30
0.0
 11
-397.1455669999998
 21
0.0
 31
0.0
  0
TEXT
  5
7DA
  8
SIZE
  6
BYBLOCK
 62
    30
 10
-429.1455669999999
 20
-74.05714300000002
 30
0.0
 40
64.0
  1
620
 50
90.0
 41
0.9
  0
LINE
  5
7DB
  8
SIZE
  6
BYBLOCK
 62
    30
 10
-40.00000000000001
 20
280.0
 30
0.0
 11
-298.4363519999999
 21
280.0
 31
0.0
  0
LINE
  5
7DC
  8
SIZE
  6
BYBLOCK
 62
    30
 10
-40.00000000000001
 20
-280.0
 30
0.0
 11
-298.4363519999999
 21
-280.0
 31
0.0
  0
LINE
  5
7DD
  8
SIZE
  6
BYBLOCK
 62
    30
 10
-268.4363519999999
 20
278.0
 30
0.0
 11
-268.4363519999999
 21
0.0
 31
0.0
  0
LINE
  5
7DE
  8
SIZE
  6
BYBLOCK
 62
    30
 10
-268.4363519999999
 20
-278.0
 30
0.0
 11
-268.4363519999999
 21
0.0
 31
0.0
  0
TEXT
  5
7DF
  8
SIZE
  6
BYBLOCK
 62
    30
 10
-300.4363519999999
 20
-74.05714300000002
 30
0.0
 40
64.0
  1
560
 50
90.0
 41
0.9
  0
LINE
  5
7E0
  8
SIZE
  6
BYBLOCK
 62
    30
 10
0.0
 20
330.0
 30
0.0
 11
0.0
 21
636.593812
 31
0.0
  0
LINE
  5
7E1
  8
SIZE
  6
BYBLOCK
 62
    30
 10
315.9999999999999
 20
92.0
 30
0.0
 11
315.9999999999999
 21
636.593812
 31
0.0
  0
LINE
  5
7E2
  8
SIZE
  6
BYBLOCK
 62
    30
 10
2.0
 20
606.5938119999998
 30
0.0
 11
313.9999999999999
 21
606.5938119999998
 31
0.0
  0
TEXT
  5
7E3
  8
SIZE
  6
BYBLOCK
 62
    30
 10
90.79999999999994
 20
638.5938119999998
 30
0.0
 40
64.0
  1
316
 41
0.9
  0
LINE
  5
7E4
  8
SIZE
  6
BYBLOCK
 62
    30
 10
0.0
 20
330.0
 30
0.0
 11
0.0
 21
523.9475309999999
 31
0.0
  0
LINE
  5
7E5
  8
SIZE
  6
BYBLOCK
 62
    30
 10
87.99999999999984
 20
322.5
 30
0.0
 11
87.99999999999984
 21
523.9475309999999
 31
0.0
  0
LINE
  5
7E6
  8
SIZE
  6
BYBLOCK
 62
    30
 10
89.99999999999984
 20
493.9475309999998
 30
0.0
 11
91.99999999999984
 21
493.9475309999998
 31
0.0
  0
LINE
  5
7E7
  8
SIZE
  6
BYBLOCK
 62
    30
 10
-2.0
 20
493.9475309999998
 30
0.0
 11
-4.0
 21
493.9475309999998
 31
0.0
  0
LINE
  5
7E8
  8
SIZE
  6
BYBLOCK
 62
    30
 10
87.99999999999984
 20
493.9475309999998
 30
0.0
 11
0.0
 21
493.9475309999998
 31
0.0
  0
TEXT
  5
7E9
  8
SIZE
  6
BYBLOCK
 62
    30
 10
-121.5395149999998
 20
525.9475309999999
 30
0.0
 40
64.0
  1
88
 41
0.9
  0
LINE
  5
7EA
  8
SIZE
  6
BYBLOCK
 62
    30
 10
0.0
 20
330.0
 30
0.0
 11
0.0
 21
394.5377849999999
 31
0.0
  0
LINE
  5
7EB
  8
SIZE
  6
BYBLOCK
 62
    30
 10
10.0
 20
323.0
 30
0.0
 11
10.0
 21
394.5377849999999
 31
0.0
  0
LINE
  5
7EC
  8
SIZE
  6
BYBLOCK
 62
    30
 10
12.0
 20
364.537785
 30
0.0
 11
14.00000000000001
 21
364.537785
 31
0.0
  0
LINE
  5
7ED
  8
SIZE
  6
BYBLOCK
 62
    30
 10
-2.0
 20
364.537785
 30
0.0
 11
-4.0
 21
364.537785
 31
0.0
  0
LINE
  5
7EE
  8
SIZE
  6
BYBLOCK
 62
    30
 10
10.0
 20
364.537785
 30
0.0
 11
0.0
 21
364.537785
 31
0.0
  0
TEXT
  5
7EF
  8
SIZE
  6
BYBLOCK
 62
    30
 10
-117.848536
 20
396.5377849999999
 30
0.0
 40
64.0
  1
10
 41
0.9
  0
CIRCLE
  5
7F0
  8
SIZE
  6
CONTINUOUS
 62
    30
 10
0.0
 20
364.537785
 30
0.0
 40
6.0
  0
CIRCLE
  5
7F1
  8
SIZE
  6
CONTINUOUS
 62
    30
 10
10.0
 20
364.537785
 30
0.0
 40
6.0
  0
CIRCLE
  5
7F2
  8
SIZE
  6
CONTINUOUS
 62
    30
 10
0.0
 20
493.9475309999998
 30
0.0
 40
6.0
  0
CIRCLE
  5
7F3
  8
SIZE
  6
CONTINUOUS
 62
    30
 10
87.99999999999984
 20
493.9475309999998
 30
0.0
 40
6.0
  0
CIRCLE
  5
7F4
  8
SIZE
  6
CONTINUOUS
 62
    30
 10
315.9999999999999
 20
606.5938119999998
 30
0.0
 40
6.0
  0
CIRCLE
  5
7F5
  8
SIZE
  6
CONTINUOUS
 62
    30
 10
0.0
 20
606.5938119999998
 30
0.0
 40
6.0
  0
CIRCLE
  5
7F6
  8
SIZE
  6
CONTINUOUS
 62
    30
 10
-268.4363519999999
 20
-280.0
 30
0.0
 40
6.0
  0
CIRCLE
  5
7F7
  8
SIZE
  6
CONTINUOUS
 62
    30
 10
-268.4363519999999
 20
280.0
 30
0.0
 40
6.0
  0
CIRCLE
  5
7F8
  8
SIZE
  6
CONTINUOUS
 62
    30
 10
-397.1455669999998
 20
-310.0
 30
0.0
 40
6.0
  0
CIRCLE
  5
7F9
  8
SIZE
  6
CONTINUOUS
 62
    30
 10
-397.1455669999998
 20
310.0
 30
0.0
 40
6.0
  0
CIRCLE
  5
7FA
  8
SIZE
  6
CONTINUOUS
 62
    30
 10
688.6173779999999
 20
-302.4999999999999
 30
0.0
 40
6.0
  0
CIRCLE
  5
7FB
  8
SIZE
  6
CONTINUOUS
 62
    30
 10
688.6173779999999
 20
302.4999999999999
 30
0.0
 40
6.0
  0
CIRCLE
  5
7FC
  8
SIZE
  6
CONTINUOUS
 62
    30
 10
548.7418270000001
 20
82.0
 30
0.0
 40
6.0
  0
CIRCLE
  5
7FD
  8
SIZE
  6
CONTINUOUS
 62
    30
 10
548.7418270000001
 20
-82.0
 30
0.0
 40
6.0
  0
LINE
  5
800
  8
NOTE
  6
CONTINUOUS
 62
     4
 10
20.00000000000001
 20
-280.0
 30
0.0
 11
-19.99999999999999
 21
-280.0
 31
0.0
  0
LINE
  5
801
  8
NOTE
  6
CONTINUOUS
 62
     4
 10
0.0
 20
-260.0
 30
0.0
 11
0.0
 21
-300.0
 31
0.0
  0
LINE
  5
802
  8
NOTE
  6
CONTINUOUS
 62
     4
 10
20.00000000000001
 20
280.0
 30
0.0
 11
-19.99999999999999
 21
280.0
 31
0.0
  0
LINE
  5
803
  8
NOTE
  6
CONTINUOUS
 62
     4
 10
0.0
 20
300.0
 30
0.0
 11
0.0
 21
260.0
 31
0.0
  0
ARC
  5
804
  8
DETAIL
  6
CONTINUOUS
 62
     5
 10
-67.73193599999988
 20
-370.9200245512628
 30
0.0
 40
268.5284869999999
 50
28.08546800000492
 51
54.55327799999691
  0
ARC
  5
805
  8
DETAIL
  6
CONTINUOUS
 62
     5
 10
-95.28120999999986
 20
-284.654775551263
 30
0.0
 40
269.960179
 50
8.6277610000032
 51
39.29951600000531
  0
ARC
  5
806
  8
DETAIL
  6
CONTINUOUS
 62
     5
 10
75.44074599999993
 20
169.1302552266393
 30
0.0
 40
93.132537
 50
355.2706219999978
 51
54.0250640000042
  0
ARC
  5
807
  8
DETAIL
  6
CONTINUOUS
 62
     5
 10
218.676951260265
 20
42.42974981124894
 30
0.0
 40
137.3926827008002
 50
123.5642736216089
 51
162.0118053398518
  0
ARC
  5
808
  8
DETAIL
  6
CONTINUOUS
 62
     5
 10
158.5795639999997
 20
131.4515232266394
 30
0.0
 40
30.0
 50
90.0
 51
121.9225870000016
  0
LINE
  5
809
  8
DETAIL
  6
CONTINUOUS
 62
     5
 10
168.2561899999997
 20
161.4515232266398
 30
0.0
 11
158.5795639999997
 21
161.4515232266398
 31
0.0
  0
ARC
  5
80A
  8
DETAIL
  6
CONTINUOUS
 62
     5
 10
-201.2999209999998
 20
68.2130044487366
 30
0.0
 40
363.6750579999999
 50
322.7015750000038
 51
340.6366603851516
  0
ARC
  5
80B
  8
DETAIL
  6
CONTINUOUS
 62
     5
 10
-28.76646799999979
 20
123.6586554487365
 30
0.0
 40
209.311455
 50
303.9079249999988
 51
318.008836813481
  0
ARC
  5
80C
  8
DETAIL
  6
CONTINUOUS
 62
     5
 10
129.1348320000004
 20
-75.327742551263
 30
0.0
 40
10.0
 50
265.7105510000029
 51
270.0
  0
ARC
  5
80D
  8
DETAIL
  6
CONTINUOUS
 62
     5
 10
81.19805675060904
 20
-301.9777914079551
 30
0.0
 40
6.821959673109969
 50
355.6098177892804
 51
10.87988326965171
  0
ARC
  5
80E
  8
DETAIL
  6
CONTINUOUS
 62
     5
 10
66.13130083509223
 20
-304.8736875541795
 30
0.0
 40
22.16449363290216
 50
10.87983772130745
 51
34.06298413803133
  0
ARC
  5
80F
  8
DETAIL
  6
CONTINUOUS
 62
     5
 10
50.88532094629204
 20
-315.1816062348042
 30
0.0
 40
40.56810986167072
 50
34.06295220067598
 51
47.7947333162916
  0
ARC
  5
810
  8
DETAIL
  6
CONTINUOUS
 62
     5
 10
32.63366723236305
 20
-335.3066419027161
 30
0.0
 40
67.73684048950537
 50
47.79472420977077
 51
58.41136541356711
  0
ARC
  5
811
  8
DETAIL
  6
CONTINUOUS
 62
     5
 10
32.63407175167323
 20
-335.3059489213332
 30
0.0
 40
67.73603829251377
 50
58.41134983828696
 51
63.34833631623689
  0
LINE
  5
814
  8
NOTE
  6
CONTINUOUS
 62
     4
 10
18.61762700000001
 20
-315.4031629999999
 30
0.0
 11
0.0
 21
-280.0
 31
0.0
  0
LINE
  5
815
  8
NOTE
  6
CONTINUOUS
 62
     4
 10
0.0
 20
-280.0
 30
0.0
 11
33.82491899999999
 21
-301.351226
 31
0.0
  0
ARC
  5
816
  8
DETAIL
  6
CONTINUOUS
 62
     5
 10
81.19805675060904
 20
301.9777914079551
 30
0.0
 40
6.821959673109969
 50
349.1201167303483
 51
4.390182210719623
  0
ARC
  5
817
  8
DETAIL
  6
CONTINUOUS
 62
     5
 10
66.13130083509223
 20
304.8736875541795
 30
0.0
 40
22.16449363290216
 50
325.9370158619685
 51
349.1201622786924
  0
ARC
  5
818
  8
DETAIL
  6
CONTINUOUS
 62
     5
 10
50.88532094629204
 20
315.1816062348042
 30
0.0
 40
40.56810986167072
 50
312.2052666837084
 51
325.937047799324
  0
ARC
  5
819
  8
DETAIL
  6
CONTINUOUS
 62
     5
 10
32.63366723236305
 20
335.3066419027161
 30
0.0
 40
67.73684048950537
 50
301.5886345864328
 51
312.2052757902291
  0
ARC
  5
81A
  8
DETAIL
  6
CONTINUOUS
 62
     5
 10
32.63407175167323
 20
335.3059489213332
 30
0.0
 40
67.73603829251377
 50
296.6516636837631
 51
301.5886501617131
  0
LINE
  5
81B
  8
OUTLINE
  6
CONTINUOUS
 62
     3
 10
234.9602839999997
 20
-130.0
 30
0.0
 11
234.9602839999997
 21
130.0
 31
0.0
  0
LINE
  5
81C
  8
OUTLINE
  6
CONTINUOUS
 62
     3
 10
315.9999999999999
 20
-72.0
 30
0.0
 11
315.9999999999999
 21
72.0
 31
0.0
  0
LINE
  5
81D
  8
OUTLINE
  6
CONTINUOUS
 62
     3
 10
286.9624819999996
 20
-130.0
 30
0.0
 11
286.9624819999996
 21
130.0
 31
0.0
  0
LINE
  5
81E
  8
OUTLINE
  6
CONTINUOUS
 62
     3
 10
9.999999999999957
 20
-290.5
 30
0.0
 11
9.999999999999957
 21
290.5
 31
0.0
  0
LINE
  5
81F
  8
OUTLINE
  6
CONTINUOUS
 62
     3
 10
87.99999999999984
 20
-244.4999999999998
 30
0.0
 11
87.99999999999984
 21
244.4999999999998
 31
0.0
  0
LINE
  5
820
  8
OUTLINE
  6
CONTINUOUS
 62
     3
 10
-0.0000000000000426
 20
-310.0
 30
0.0
 11
-0.0000000000000426
 21
310.0
 31
0.0
  0
POINT
  5
821
  8
ARRANGE
  6
CONTINUOUS
 62
     1
 10
-0.0000000000000426
 20
0.0
 30
0.0
  0
ARC
  5
822
  8
OUTLINE
  6
CONTINUOUS
 62
     3
 10
50.88532094629194
 20
-315.1816062348042
 30
0.0
 40
40.56810986167072
 50
34.06295220067598
 51
47.7947333162916
  0
LINE
  5
823
  8
OUTLINE
  6
CONTINUOUS
 62
     3
 10
19.99999999999996
 20
-244.4999999999998
 30
0.0
 11
189.4608339999999
 21
-244.4999999999998
 31
0.0
  0
LINE
  5
824
  8
OUTLINE
  6
CONTINUOUS
 62
     3
 10
19.99999999999996
 20
-264.5
 30
0.0
 11
207.4608339999997
 21
-264.5
 31
0.0
  0
LINE
  5
825
  8
OUTLINE
  6
CONTINUOUS
 62
     3
 10
19.99999999999996
 20
-287.0540109999997
 30
0.0
 11
19.99999999999996
 21
-227.0540109999998
 31
0.0
  0
LINE
  5
826
  8
OUTLINE
  6
CONTINUOUS
 62
     3
 10
19.99999999999996
 20
-274.766856
 30
0.0
 11
63.01809899999994
 21
-274.766856
 31
0.0
  0
LINE
  5
827
  8
OUTLINE
  6
CONTINUOUS
 62
     3
 10
19.99999999999996
 20
-287.0540109999997
 30
0.0
 11
9.999999999999957
 21
-287.0540109999997
 31
0.0
  0
LINE
  5
828
  8
OUTLINE
  6
CONTINUOUS
 62
     3
 10
9.999999999999957
 20
-303.0
 30
0.0
 11
9.999999999999957
 21
-290.5
 31
0.0
  0
LINE
  5
829
  8
OUTLINE
  6
CONTINUOUS
 62
     3
 10
2.999999999999957
 20
-310.0
 30
0.0
 11
-0.0000000000000426
 21
-310.0
 31
0.0
  0
ARC
  5
82A
  8
OUTLINE
  6
CONTINUOUS
 62
     3
 10
2.999999999999957
 20
-303.0
 30
0.0
 40
7.0
 50
270.0
 51
0.0
  0
ARC
  5
82B
  8
OUTLINE
  6
CONTINUOUS
 62
     3
 10
32.63366723236305
 20
-335.3066419027161
 30
0.0
 40
67.73684048950537
 50
47.79472420977077
 51
58.41136541356711
  0
ARC
  5
82C
  8
OUTLINE
  6
CONTINUOUS
 62
     3
 10
32.63407175167315
 20
-335.3059489213332
 30
0.0
 40
67.73603829251377
 50
58.41134983828696
 51
63.34833631623689
  0
LINE
  5
82D
  8
OUTLINE
  6
CONTINUOUS
 62
     3
 10
19.99999999999996
 20
-227.0540109999998
 30
0.0
 11
9.999999999999957
 21
-227.0540109999998
 31
0.0
  0
ARC
  5
82E
  8
OUTLINE
  6
CONTINUOUS
 62
     3
 10
305.9999999999999
 20
-72.0
 30
0.0
 40
10.0
 50
270.0
 51
0.0
  0
LINE
  5
82F
  8
OUTLINE
  6
CONTINUOUS
 62
     3
 10
277.4608339999999
 20
-194.5
 30
0.0
 11
277.4608339999999
 21
-130.0
 31
0.0
  0
LINE
  5
830
  8
OUTLINE
  6
CONTINUOUS
 62
     3
 10
239.4608339999999
 20
-130.0
 30
0.0
 11
239.4608339999999
 21
-194.5
 31
0.0
  0
ARC
  5
831
  8
OUTLINE
  6
CONTINUOUS
 62
     3
 10
189.4608339999999
 20
-194.5
 30
0.0
 40
50.0
 50
270.0
 51
0.0
  0
LINE
  5
832
  8
OUTLINE
  6
CONTINUOUS
 62
     3
 10
87.99999999999984
 20
-264.5
 30
0.0
 11
87.99999999999984
 21
-302.4999999999999
 31
0.0
  0
ARC
  5
833
  8
OUTLINE
  6
CONTINUOUS
 62
     3
 10
81.19805675060904
 20
-301.9777914079551
 30
0.0
 40
6.821959673109969
 50
355.6098177892804
 51
10.87988326965171
  0
ARC
  5
834
  8
OUTLINE
  6
CONTINUOUS
 62
     3
 10
66.13130083509253
 20
-304.8736875541795
 30
0.0
 40
22.16449363290216
 50
10.87983772130745
 51
34.06298413803131
  0
ARC
  5
835
  8
OUTLINE
  6
CONTINUOUS
 62
     3
 10
207.4608339999997
 20
-194.5
 30
0.0
 40
70.0
 50
270.0
 51
0.0
  0
LINE
  5
836
  8
OUTLINE
  6
CONTINUOUS
 62
     3
 10
286.9624819999996
 20
-130.0
 30
0.0
 11
239.4608339999999
 21
-130.0
 31
0.0
  0
LINE
  5
837
  8
OUTLINE
  6
CONTINUOUS
 62
     3
 10
239.4608339999999
 20
-130.0
 30
0.0
 11
234.9602839999997
 21
-130.0
 31
0.0
  0
LINE
  5
838
  8
OUTLINE
  6
CONTINUOUS
 62
     3
 10
286.9624819999996
 20
-82.0
 30
0.0
 11
305.9999999999999
 21
-82.0
 31
0.0
  0
ARC
  5
839
  8
OUTLINE
  6
CONTINUOUS
 62
     3
 10
50.88532094629194
 20
315.1816062348042
 30
0.0
 40
40.56810986167072
 50
312.2052666837083
 51
325.937047799324
  0
LINE
  5
83A
  8
OUTLINE
  6
CONTINUOUS
 62
     3
 10
19.99999999999996
 20
244.4999999999998
 30
0.0
 11
189.4608339999999
 21
244.4999999999998
 31
0.0
  0
LINE
  5
83B
  8
OUTLINE
  6
CONTINUOUS
 62
     3
 10
19.99999999999996
 20
264.5
 30
0.0
 11
207.4608339999997
 21
264.5
 31
0.0
  0
LINE
  5
83C
  8
OUTLINE
  6
CONTINUOUS
 62
     3
 10
19.99999999999996
 20
226.2857649999999
 30
0.0
 11
19.99999999999996
 21
286.2857649999999
 31
0.0
  0
LINE
  5
83D
  8
OUTLINE
  6
CONTINUOUS
 62
     3
 10
9.999999999999957
 20
226.2857649999999
 30
0.0
 11
19.99999999999996
 21
226.2857649999999
 31
0.0
  0
LINE
  5
83E
  8
OUTLINE
  6
CONTINUOUS
 62
     3
 10
19.99999999999996
 20
274.766856
 30
0.0
 11
63.01809899999994
 21
274.766856
 31
0.0
  0
LINE
  5
83F
  8
OUTLINE
  6
CONTINUOUS
 62
     3
 10
19.99999999999996
 20
286.2857649999999
 30
0.0
 11
9.999999999999957
 21
286.2857649999999
 31
0.0
  0
LINE
  5
840
  8
OUTLINE
  6
CONTINUOUS
 62
     3
 10
9.999999999999957
 20
290.5
 30
0.0
 11
9.999999999999957
 21
303.0
 31
0.0
  0
LINE
  5
841
  8
OUTLINE
  6
CONTINUOUS
 62
     3
 10
2.999999999999957
 20
310.0
 30
0.0
 11
-0.0000000000000426
 21
310.0
 31
0.0
  0
ARC
  5
842
  8
OUTLINE
  6
CONTINUOUS
 62
     3
 10
2.999999999999957
 20
303.0
 30
0.0
 40
7.0
 50
0.0
 51
90.0
  0
ARC
  5
843
  8
OUTLINE
  6
CONTINUOUS
 62
     3
 10
32.63366723236305
 20
335.3066419027161
 30
0.0
 40
67.73684048950537
 50
301.5886345864328
 51
312.2052757902291
  0
ARC
  5
844
  8
OUTLINE
  6
CONTINUOUS
 62
     3
 10
32.63407175167315
 20
335.3059489213332
 30
0.0
 40
67.73603829251377
 50
296.6516636837631
 51
301.5886501617131
  0
ARC
  5
845
  8
OUTLINE
  6
CONTINUOUS
 62
     3
 10
305.9999999999999
 20
72.0
 30
0.0
 40
10.0
 50
0.0
 51
90.0
  0
LINE
  5
846
  8
OUTLINE
  6
CONTINUOUS
 62
     3
 10
277.4608339999999
 20
194.5
 30
0.0
 11
277.4608339999999
 21
130.0
 31
0.0
  0
LINE
  5
847
  8
OUTLINE
  6
CONTINUOUS
 62
     3
 10
239.4608339999999
 20
130.0
 30
0.0
 11
239.4608339999999
 21
194.5
 31
0.0
  0
LINE
  5
848
  8
OUTLINE
  6
CONTINUOUS
 62
     3
 10
286.9624819999996
 20
82.0
 30
0.0
 11
305.9999999999999
 21
82.0
 31
0.0
  0
LINE
  5
849
  8
OUTLINE
  6
CONTINUOUS
 62
     3
 10
286.9624819999996
 20
130.0
 30
0.0
 11
239.4608339999999
 21
130.0
 31
0.0
  0
LINE
  5
84A
  8
OUTLINE
  6
CONTINUOUS
 62
     3
 10
239.4608339999999
 20
130.0
 30
0.0
 11
234.9602839999997
 21
130.0
 31
0.0
  0
ARC
  5
84B
  8
OUTLINE
  6
CONTINUOUS
 62
     3
 10
189.4608339999999
 20
194.5
 30
0.0
 40
50.0
 50
0.0
 51
90.0
  0
LINE
  5
84C
  8
OUTLINE
  6
CONTINUOUS
 62
     3
 10
87.99999999999984
 20
264.5
 30
0.0
 11
87.99999999999984
 21
302.4999999999999
 31
0.0
  0
ARC
  5
84D
  8
OUTLINE
  6
CONTINUOUS
 62
     3
 10
81.19805675060904
 20
301.9777914079551
 30
0.0
 40
6.821959673109969
 50
349.1201167303483
 51
4.390182210719623
  0
ARC
  5
84E
  8
OUTLINE
  6
CONTINUOUS
 62
     3
 10
66.13130083509253
 20
304.8736875541795
 30
0.0
 40
22.16449363290216
 50
325.9370158619685
 51
349.1201622786924
  0
ARC
  5
84F
  8
OUTLINE
  6
CONTINUOUS
 62
     3
 10
207.4608339999997
 20
194.5
 30
0.0
 40
70.0
 50
0.0
 51
90.0
  0
TEXT
  5
850
  8
ETC
  6
CONTINUOUS
 62
    61
 10
697.3018017951016
 20
483.8836777383677
 30
0.0
 40
50.0
  1
EG-50ETXB3-F
 41
0.9
  0
TEXT
  5
851
  8
ETC
  6
CONTINUOUS
 62
    61
 10
566.1477096393561
 20
673.7763977360336
 30
0.0
 40
64.0
  1
EG-50ETXB3-F_5
 41
0.9
  0
TEXT
  5
852
  8
ETC
  6
CONTINUOUS
 62
    61
 10
564.0793886393561
 20
574.4434127360339
 30
0.0
 40
64.0
  1
産業扇
 41
0.9
  0
ENDSEC
  0
EOF
