  0
SECTION
  2
HEADER
  9
$ACADVER
  1
AC1009
  9
$INSBASE
 10
0.0
 20
0.0
 30
0.0
  9
$EXTMIN
 10
-702.59381199999984
 20
-714.12443499999995
 30
0.0
  9
$EXTMAX
 10
1343.481878330716
 20
442.5755259999998
 30
0.0
  9
$LIMMIN
 10
-2970.0
 20
-2100.0
  9
$LIMMAX
 10
2970.0
 20
2100.0
  9
$ORTHOMODE
 70
     1
  9
$REGENMODE
 70
     0
  9
$FILLMODE
 70
     1
  9
$QTEXTMODE
 70
     0
  9
$MIRRTEXT
 70
     0
  9
$DRAGMODE
 70
     2
  9
$LTSCALE
 40
20.0
  9
$OSMODE
 70
   167
  9
$ATTMODE
 70
     1
  9
$TEXTSIZE
 40
64.0
  9
$TRACEWID
 40
0.05
  9
$TEXTSTYLE
  7
STANDARD
  9
$CLAYER
  8
0
  9
$CELTYPE
  6
CONTINUOUS
  9
$CECOLOR
 62
     8
  9
$DIMSCALE
 40
1.0
  9
$DIMASZ
 40
2.0
  9
$DIMEXO
 40
20.0
  9
$DIMDLI
 40
200.0
  9
$DIMRND
 40
0.0
  9
$DIMDLE
 40
0.0
  9
$DIMEXE
 40
30.0
  9
$DIMTP
 40
0.0
  9
$DIMTM
 40
0.0
  9
$DIMTXT
 40
64.0
  9
$DIMCEN
 40
0.09
  9
$DIMTSZ
 40
0.0
  9
$DIMTOL
 70
     0
  9
$DIMLIM
 70
     0
  9
$DIMTIH
 70
     0
  9
$DIMTOH
 70
     0
  9
$DIMSE1
 70
     0
  9
$DIMSE2
 70
     0
  9
$DIMTAD
 70
     1
  9
$DIMZIN
 70
     8
  9
$DIMBLK
  1

  9
$DIMASO
 70
     1
  9
$DIMSHO
 70
     0
  9
$DIMPOST
  1

  9
$DIMAPOST
  1

  9
$DIMALT
 70
     0
  9
$DIMALTD
 70
     2
  9
$DIMALTF
 40
25.399999999999999
  9
$DIMLFAC
 40
1.0
  9
$DIMTOFL
 70
     1
  9
$DIMTVP
 40
0.0
  9
$DIMTIX
 70
     1
  9
$DIMSOXD
 70
     0
  9
$DIMSAH
 70
     0
  9
$DIMBLK1
  1

  9
$DIMBLK2
  1

  9
$DIMSTYLE
  2
STANDARD
  9
$DIMCLRD
 70
     0
  9
$DIMCLRE
 70
     0
  9
$DIMCLRT
 70
     0
  9
$DIMTFAC
 40
1.0
  9
$DIMGAP
 40
0.09
  9
$LUNITS
 70
     2
  9
$LUPREC
 70
     4
  9
$SKETCHINC
 40
0.1
  9
$FILLETRAD
 40
50.0
  9
$AUNITS
 70
     1
  9
$AUPREC
 70
     3
  9
$MENU
  1
ACAD
  9
$ELEVATION
 40
0.0
  9
$PELEVATION
 40
0.0
  9
$THICKNESS
 40
0.0
  9
$LIMCHECK
 70
     1
  9
$BLIPMODE
 70
     0
  9
$CHAMFERA
 40
0.0
  9
$CHAMFERB
 40
0.0
  9
$SKPOLY
 70
     0
  9
$TDCREATE
 40
2451484.6982870372
  9
$TDUPDATE
 40
2454964.999209201
  9
$TDINDWG
 40
0.1150696181
  9
$TDUSRTIMER
 40
0.1150694329
  9
$USRTIMER
 70
     1
  9
$ANGBASE
 50
0.0
  9
$ANGDIR
 70
     0
  9
$PDMODE
 70
     3
  9
$PDSIZE
 40
-2.0
  9
$PLINEWID
 40
0.0
  9
$COORDS
 70
     2
  9
$SPLFRAME
 70
     0
  9
$SPLINETYPE
 70
     6
  9
$SPLINESEGS
 70
     8
  9
$ATTDIA
 70
     0
  9
$ATTREQ
 70
     1
  9
$HANDLING
 70
 22529
  9
$HANDSEED
  5
527
  9
$SURFTAB1
 70
     6
  9
$SURFTAB2
 70
     6
  9
$SURFTYPE
 70
     6
  9
$SURFU
 70
     6
  9
$SURFV
 70
     6
  9
$UCSNAME
  2

  9
$UCSORG
 10
0.0
 20
0.0
 30
0.0
  9
$UCSXDIR
 10
1.0
 20
0.0
 30
0.0
  9
$UCSYDIR
 10
0.0
 20
1.0
 30
0.0
  9
$PUCSNAME
  2

  9
$PUCSORG
 10
0.0
 20
0.0
 30
0.0
  9
$PUCSXDIR
 10
1.0
 20
0.0
 30
0.0
  9
$PUCSYDIR
 10
0.0
 20
1.0
 30
0.0
  9
$USERI1
 70
     0
  9
$USERI2
 70
     0
  9
$USERI3
 70
     0
  9
$USERI4
 70
     0
  9
$USERI5
 70
     0
  9
$USERR1
 40
20.0
  9
$USERR2
 40
0.0
  9
$USERR3
 40
0.0
  9
$USERR4
 40
0.0
  9
$USERR5
 40
0.0
  9
$WORLDVIEW
 70
     1
  9
$SHADEDGE
 70
     3
  9
$SHADEDIF
 70
    70
  9
$TILEMODE
 70
     1
  9
$MAXACTVP
 70
    64
  9
$PLIMCHECK
 70
     0
  9
$PEXTMIN
 10
1.0000000000000000E+020
 20
1.0000000000000000E+020
 30
1.0000000000000000E+020
  9
$PEXTMAX
 10
-1.0000000000000000E+020
 20
-1.0000000000000000E+020
 30
-1.0000000000000000E+020
  9
$PLIMMIN
 10
0.0
 20
0.0
  9
$PLIMMAX
 10
12.0
 20
9.0
  9
$UNITMODE
 70
     0
  9
$VISRETAIN
 70
     1
  9
$PLINEGEN
 70
     0
  9
$PSLTSCALE
 70
     1
  0
ENDSEC
  0
SECTION
  2
TABLES
  0
TABLE
  2
VPORT
 70
    10
  0
VPORT
  2
*ACTIVE
 70
     0
 10
0.0
 20
0.0
 11
1.0
 21
1.0
 12
320.44940313753239
 22
-139.35930975007429
 13
0.0
 23
0.0
 14
400.0
 24
400.0
 15
400.0
 25
400.0
 16
0.0
 26
0.0
 36
1.0
 17
0.0
 27
0.0
 37
0.0
 40
1622.431400018957
 41
1.493654822335025
 42
50.0
 43
0.0
 44
0.0
 50
0.0
 51
0.0
 71
     0
 72
  1000
 73
     1
 74
     0
 75
     0
 76
     0
 77
     0
 78
     0
  0
ENDTAB
  0
TABLE
  2
LTYPE
 70
     7
  0
LTYPE
  2
CONTINUOUS
 70
     0
  3
実線
 72
    65
 73
     0
 40
0.0
  0
LTYPE
  2
DASHDOT
 70
     0
  3
____ _ ____ _ ____ _ ____ _ ____ _ ____ _ ____
 72
    65
 73
     4
 40
5.5
 49
4.0
 49
-0.6
 49
0.3
 49
-0.6
  0
LTYPE
  2
DASHED
 70
     0
  3
_ _ _ _ _ _ _ _ _ _ _ _ _ _ _ _ _ _ _ _ _ _ _
 72
    65
 73
     2
 40
2.0
 49
1.1999999999999991
 49
-0.8
  0
LTYPE
  2
DOT
 70
     0
  3
...............................................
 72
    65
 73
     2
 40
0.8
 49
0.5
 49
-0.3
  0
LTYPE
  2
DASHDOT1
 70
     0
  3
____ _ ____ _ ____ _ ____ _ ____ _ ____ _ ____
 72
    65
 73
     4
 40
2.0
 49
1.5
 49
-0.2
 49
0.1
 49
-0.2
  0
LTYPE
  2
DIVIDE
 70
     0
  3
_____ _ _ _____ _ _ _____ _ _ _____ _ _ ____
 72
    65
 73
     6
 40
6.4000000000000004
 49
4.0
 49
-0.6
 49
0.3
 49
-0.6
 49
0.3
 49
-0.6
  0
LTYPE
  2
DIVIDE1
 70
     0
  3
_____ _ _ _____ _ _ _____ _ _ _____ _ _ ____
 72
    65
 73
     6
 40
3.2000000000000002
 49
2.0
 49
-0.3
 49
0.15
 49
-0.3
 49
0.15
 49
-0.3
  0
ENDTAB
  0
TABLE
  2
LAYER
 70
    12
  0
LAYER
  2
0
 70
     0
 62
     7
  6
CONTINUOUS
  0
LAYER
  2
OUTLINE
 70
     0
 62
     3
  6
CONTINUOUS
  0
LAYER
  2
DETAIL
 70
     0
 62
     5
  6
CONTINUOUS
  0
LAYER
  2
BASIS
 70
     0
 62
     6
  6
DASHDOT
  0
LAYER
  2
NOTE
 70
     0
 62
     4
  6
CONTINUOUS
  0
LAYER
  2
DEFPOINTS
 70
     0
 62
     7
  6
CONTINUOUS
  0
LAYER
  2
SIZE
 70
     0
 62
    30
  6
CONTINUOUS
  0
LAYER
  2
ARRANGE
 70
     0
 62
     1
  6
CONTINUOUS
  0
LAYER
  2
FIX
 70
     0
 62
    11
  6
CONTINUOUS
  0
LAYER
  2
ETC
 70
     0
 62
    61
  6
CONTINUOUS
  0
LAYER
  2
SERVICESPACE
 70
     0
 62
     2
  6
DASHDOT
  0
LAYER
  2
SYMBOLLINE
 70
     0
 62
    15
  6
CONTINUOUS
  0
ENDTAB
  0
TABLE
  2
STYLE
 70
     1
  0
STYLE
  2
STANDARD
 70
     0
 40
0.0
 41
0.9
 50
0.0
 71
     0
 42
64.0
  3
SIMPLEX
  4
BIGFONT
  0
ENDTAB
  0
TABLE
  2
VIEW
 70
     1
  0
VIEW
  2
ALL
 70
     0
 40
4508.0208510000002
 10
0.0
 20
41.309903999999989
 41
6252.631578999999
 11
0.0
 21
0.0
 31
1.0
 12
0.0
 22
0.0
 32
0.0
 42
50.0
 43
0.0
 44
0.0
 50
0.0
 71
     0
  0
ENDTAB
  0
TABLE
  2
UCS
 70
     0
  0
ENDTAB
  0
TABLE
  2
APPID
 70
     1
  0
APPID
  2
ACAD
 70
     0
  0
ENDTAB
  0
TABLE
  2
DIMSTYLE
 70
     1
  0
DIMSTYLE
  2
STANDARD
 70
     0
  3

  4

  5

  6

  7

 40
1.0
 41
0.18
 42
0.0625
 43
0.38
 44
0.18
 45
0.0
 46
0.0
 47
0.0
 48
0.0
140
0.18
141
0.09
142
0.0
143
25.399999999999999
144
1.0
145
0.0
146
1.0
147
0.09
 71
     0
 72
     0
 73
     1
 74
     1
 75
     0
 76
     0
 77
     0
 78
     0
170
     0
171
     2
172
     0
173
     0
174
     0
175
     0
176
     0
177
     0
178
     0
  0
ENDTAB
  0
ENDSEC
  0
SECTION
  2
BLOCKS
  0
BLOCK
  8
0
  2
$MODEL_SPACE
 70
     0
 10
0.0
 20
0.0
 30
0.0
  3
$MODEL_SPACE
  1

  0
ENDBLK
  5
2E4
  8
0
  0
BLOCK
 67
     1
  8
0
  2
$PAPER_SPACE
 70
     0
 10
0.0
 20
0.0
 30
0.0
  3
$PAPER_SPACE
  1

  0
ENDBLK
  5
2E0
 67
     1
  8
0
  0
BLOCK
  8
0
  2
DOT1
 70
     0
 10
0.0
 20
0.0
 30
0.0
  3
DOT1
  1

  0
CIRCLE
  5
304
  8
SIZE
  6
CONTINUOUS
 62
     7
 10
0.0
 20
0.0
 30
0.0
 40
3.0
  0
ENDBLK
  5
305
  8
0
  0
BLOCK
  8
0
  2
_ORIGIN
 70
     0
 10
0.0
 20
0.0
 30
0.0
  3
_ORIGIN
  1

  0
CIRCLE
  5
308
  8
0
  6
CONTINUOUS
 62
     7
 10
0.0
 20
0.0
 30
0.0
 40
0.5
  0
LINE
  5
309
  8
0
  6
CONTINUOUS
 62
     7
 10
0.0
 20
0.0
 30
0.0
 11
-1.0
 21
0.0
 31
0.0
  0
ENDBLK
  5
30A
  8
0
  0
ENDSEC
  0
SECTION
  2
ENTITIES
  0
LINE
  5
30B
  8
DETAIL
  6
CONTINUOUS
 62
     5
 10
310.0
 20
0.0
 30
0.0
 11
-310.0
 21
0.0
 31
0.0
  0
LINE
  5
30C
  8
BASIS
  6
DASHDOT
 62
     6
 10
0.0
 20
39.121371000000003
 30
0.0
 11
0.0
 21
-410.02135800000002
 31
0.0
  0
LINE
  5
30D
  8
DETAIL
  6
CONTINUOUS
 62
     5
 10
-264.5
 20
-20.0
 30
0.0
 11
-264.5
 21
-207.46083400000001
 31
0.0
  0
LINE
  5
30E
  8
DETAIL
  6
CONTINUOUS
 62
     5
 10
264.5
 20
-20.0
 30
0.0
 11
264.5
 21
-207.46083400000001
 31
0.0
  0
LINE
  5
30F
  8
DETAIL
  6
CONTINUOUS
 62
     5
 10
303.0
 20
-10.0
 30
0.0
 11
290.5
 21
-10.0
 31
0.0
  0
LINE
  5
310
  8
DETAIL
  6
CONTINUOUS
 62
     5
 10
310.0
 20
-3.0
 30
0.0
 11
310.0
 21
0.0
 31
0.0
  0
LINE
  5
311
  8
DETAIL
  6
CONTINUOUS
 62
     5
 10
-310.0
 20
-3.0
 30
0.0
 11
-310.0
 21
0.0
 31
0.0
  0
LINE
  5
312
  8
SIZE
  6
CONTINUOUS
 62
    30
 10
-364.53778499999999
 20
0.0
 30
0.0
 11
-364.53778499999999
 21
145.28836100000001
 31
0.0
  0
LINE
  5
313
  8
DETAIL
  6
CONTINUOUS
 62
     5
 10
290.5
 20
-10.0
 30
0.0
 11
-290.5
 21
-10.0
 31
0.0
  0
LINE
  5
314
  8
DETAIL
  6
CONTINUOUS
 62
     5
 10
-290.5
 20
-10.0
 30
0.0
 11
-303.0
 21
-10.0
 31
0.0
  0
LINE
  5
315
  8
DETAIL
  6
CONTINUOUS
 62
     5
 10
287.05401099999978
 20
-20.0
 30
0.0
 11
227.0540109999998
 21
-20.0
 31
0.0
  0
LINE
  5
316
  8
DETAIL
  6
CONTINUOUS
 62
     5
 10
130.0
 20
-286.9624819999998
 30
0.0
 11
-130.0
 21
-286.9624819999998
 31
0.0
  0
LINE
  5
317
  8
DETAIL
  6
CONTINUOUS
 62
     5
 10
90.0
 20
-239.46083400000001
 30
0.0
 11
14.852179999999979
 21
-239.46083400000001
 31
0.0
  0
LINE
  5
318
  8
DETAIL
  6
CONTINUOUS
 62
     5
 10
130.0
 20
-286.9624819999998
 30
0.0
 11
130.0
 21
-239.46083400000001
 31
0.0
  0
LINE
  5
319
  8
DETAIL
  6
CONTINUOUS
 62
     5
 10
-130.0
 20
-286.9624819999998
 30
0.0
 11
-130.0
 21
-239.46083400000001
 31
0.0
  0
LINE
  5
31A
  8
DETAIL
  6
CONTINUOUS
 62
     5
 10
-82.0
 20
-151.80385599999991
 30
0.0
 11
-82.0
 21
-234.9602839999998
 31
0.0
  0
LINE
  5
31B
  8
DETAIL
  6
CONTINUOUS
 62
     5
 10
82.0
 20
-151.80385599999991
 30
0.0
 11
82.0
 21
-234.9602839999998
 31
0.0
  0
LINE
  5
31C
  8
DETAIL
  6
CONTINUOUS
 62
     5
 10
72.0
 20
-316.0
 30
0.0
 11
-72.0
 21
-316.0
 31
0.0
  0
LINE
  5
31D
  8
DETAIL
  6
CONTINUOUS
 62
     5
 10
-286.28576499999991
 20
-20.0
 30
0.0
 11
-286.28576499999991
 21
-10.0
 31
0.0
  0
LINE
  5
31E
  8
DETAIL
  6
CONTINUOUS
 62
     5
 10
287.05401099999978
 20
-20.0
 30
0.0
 11
287.05401099999978
 21
-10.0
 31
0.0
  0
LINE
  5
31F
  8
DETAIL
  6
CONTINUOUS
 62
     5
 10
90.0
 20
-239.46083400000001
 30
0.0
 11
194.5
 21
-239.46083400000001
 31
0.0
  0
LINE
  5
320
  8
DETAIL
  6
CONTINUOUS
 62
     5
 10
-90.0
 20
-239.46083400000001
 30
0.0
 11
-194.5
 21
-239.46083400000001
 31
0.0
  0
LINE
  5
321
  8
DETAIL
  6
CONTINUOUS
 62
     5
 10
194.5
 20
-277.46083399999992
 30
0.0
 11
130.0
 21
-277.46083399999992
 31
0.0
  0
LINE
  5
322
  8
DETAIL
  6
CONTINUOUS
 62
     5
 10
-194.5
 20
-277.46083399999992
 30
0.0
 11
-130.0
 21
-277.46083399999992
 31
0.0
  0
LINE
  5
323
  8
DETAIL
  6
CONTINUOUS
 62
     5
 10
-244.4999999999998
 20
-20.0
 30
0.0
 11
-244.4999999999998
 21
-189.46083399999981
 31
0.0
  0
LINE
  5
324
  8
DETAIL
  6
CONTINUOUS
 62
     5
 10
-226.28576499999991
 20
-10.0
 30
0.0
 11
-226.28576499999991
 21
-20.0
 31
0.0
  0
LINE
  5
325
  8
DETAIL
  6
CONTINUOUS
 62
     5
 10
227.0540109999998
 20
-20.0
 30
0.0
 11
227.0540109999998
 21
-10.0
 31
0.0
  0
ARC
  5
326
  8
DETAIL
  6
CONTINUOUS
 62
     5
 10
-194.5
 20
-207.46083400000001
 30
0.0
 40
70.0
 50
180.0
 51
270.0
  0
ARC
  5
327
  8
DETAIL
  6
CONTINUOUS
 62
     5
 10
194.5
 20
-207.46083400000001
 30
0.0
 40
70.0
 50
270.0
 51
0.0
  0
LINE
  5
328
  8
DETAIL
  6
CONTINUOUS
 62
     5
 10
-226.28576499999991
 20
-20.0
 30
0.0
 11
-286.28576499999991
 21
-20.0
 31
0.0
  0
CIRCLE
  5
329
  8
FIX
  6
CONTINUOUS
 62
    11
 10
-280.0
 20
0.0
 30
0.0
 40
7.5
  0
ARC
  5
32A
  8
DETAIL
  6
CONTINUOUS
 62
     5
 10
-303.0
 20
-3.0
 30
0.0
 40
7.0
 50
180.0
 51
270.0
  0
ARC
  5
32B
  8
DETAIL
  6
CONTINUOUS
 62
     5
 10
303.0
 20
-3.0
 30
0.0
 40
7.0
 50
270.0
 51
0.0
  0
LINE
  5
32C
  8
DETAIL
  6
CONTINUOUS
 62
     5
 10
244.4999999999998
 20
-88.0
 30
0.0
 11
-244.4999999999998
 21
-88.0
 31
0.0
  0
LINE
  5
32D
  8
DETAIL
  6
CONTINUOUS
 62
     5
 10
-264.5
 20
-88.0
 30
0.0
 11
-302.49999999999989
 21
-88.0
 31
0.0
  0
LINE
  5
32E
  8
DETAIL
  6
CONTINUOUS
 62
     5
 10
264.5
 20
-88.0
 30
0.0
 11
302.49999999999989
 21
-88.0
 31
0.0
  0
LINE
  5
32F
  8
SIZE
  6
CONTINUOUS
 62
    30
 10
-493.9475309999998
 20
0.0
 30
0.0
 11
-493.9475309999998
 21
145.0399559999999
 31
0.0
  0
TEXT
  5
330
  8
NOTE
  6
CONTINUOUS
 62
     4
 10
400.70733000000001
 20
-162.55681200000001
 30
0.0
 40
64.0
  1
4-15×15
 41
0.9
  0
LINE
  5
331
  8
NOTE
  6
CONTINUOUS
 62
     4
 10
374.57261199999999
 20
-187.656361
 30
0.0
 11
799.26377600000001
 21
-187.656361
 31
0.0
  0
LINE
  5
332
  8
DETAIL
  6
CONTINUOUS
 62
     5
 10
72.0
 20
-141.803856
 30
0.0
 11
52.366206112776482
 21
-141.803856
 31
0.0
  0
ARC
  5
333
  8
DETAIL
  6
CONTINUOUS
 62
     5
 10
-72.0
 20
-151.80385599999991
 30
0.0
 40
10.0
 50
90.0
 51
180.0
  0
ARC
  5
334
  8
DETAIL
  6
CONTINUOUS
 62
     5
 10
72.0
 20
-151.80385599999991
 30
0.0
 40
10.0
 50
0.0
 51
90.0
  0
LINE
  5
335
  8
DETAIL
  6
CONTINUOUS
 62
     5
 10
-20.0
 20
-126.803856
 30
0.0
 11
-20.0
 21
-141.803856
 31
0.0
  0
LINE
  5
337
  8
DETAIL
  6
CONTINUOUS
 62
     5
 10
16.374053175898968
 20
-126.803856
 30
0.0
 11
-20.0
 21
-126.803856
 31
0.0
  0
LINE
  5
338
  8
DETAIL
  6
CONTINUOUS
 62
     5
 10
-8.0
 20
-87.999999999999986
 30
0.0
 11
-8.0
 21
-126.803856
 31
0.0
  0
LINE
  5
339
  8
DETAIL
  6
CONTINUOUS
 62
     5
 10
8.0
 20
-87.999999999999986
 30
0.0
 11
8.0
 21
-126.803856
 31
0.0
  0
LINE
  5
33A
  8
DETAIL
  6
CONTINUOUS
 62
     5
 10
82.0
 20
-286.9624819999998
 30
0.0
 11
82.0
 21
-306.0
 31
0.0
  0
LINE
  5
33B
  8
DETAIL
  6
CONTINUOUS
 62
     5
 10
-82.0
 20
-286.9624819999998
 30
0.0
 11
-82.0
 21
-306.0
 31
0.0
  0
ARC
  5
33C
  8
DETAIL
  6
CONTINUOUS
 62
     5
 10
-72.0
 20
-306.0
 30
0.0
 40
10.0
 50
180.0
 51
270.0
  0
ARC
  5
33D
  8
DETAIL
  6
CONTINUOUS
 62
     5
 10
72.0
 20
-306.0
 30
0.0
 40
10.0
 50
270.0
 51
0.0
  0
ARC
  5
33E
  8
DETAIL
  6
CONTINUOUS
 62
     5
 10
-194.5
 20
-189.46083399999981
 30
0.0
 40
50.0
 50
180.0
 51
270.0
  0
LINE
  5
33F
  8
DETAIL
  6
CONTINUOUS
 62
     5
 10
244.4999999999998
 20
-20.0
 30
0.0
 11
244.4999999999998
 21
-189.46083399999981
 31
0.0
  0
ARC
  5
340
  8
DETAIL
  6
CONTINUOUS
 62
     5
 10
194.5
 20
-189.46083399999981
 30
0.0
 40
50.0
 50
270.0
 51
0.0
  0
LINE
  5
341
  8
DETAIL
  6
CONTINUOUS
 62
     5
 10
-274.76685600000002
 20
-20.0
 30
0.0
 11
-274.76685600000002
 21
-63.018098999999999
 31
0.0
  0
LINE
  5
352
  8
DETAIL
  6
CONTINUOUS
 62
     5
 10
274.76685600000002
 20
-20.0
 30
0.0
 11
274.76685600000002
 21
-63.018098999999999
 31
0.0
  0
CIRCLE
  5
355
  8
FIX
  6
CONTINUOUS
 62
    11
 10
280.0
 20
0.0
 30
0.0
 40
7.5
  0
LINE
  5
356
  8
DETAIL
  6
CONTINUOUS
 62
     5
 10
130.0
 20
-234.9602839999998
 30
0.0
 11
-130.0
 21
-234.9602839999998
 31
0.0
  0
LINE
  5
357
  8
DETAIL
  6
CONTINUOUS
 62
     5
 10
130.0
 20
-239.46083400000001
 30
0.0
 11
130.0
 21
-234.9602839999998
 31
0.0
  0
LINE
  5
358
  8
DETAIL
  6
CONTINUOUS
 62
     5
 10
-130.0
 20
-239.46083400000001
 30
0.0
 11
-130.0
 21
-234.9602839999998
 31
0.0
  0
LINE
  5
359
  8
DETAIL
  6
CONTINUOUS
 62
     5
 10
130.0
 20
-277.46083399999992
 30
0.0
 11
14.852179999999979
 21
-277.46083399999992
 31
0.0
  0
LINE
  5
35A
  8
DETAIL
  6
CONTINUOUS
 62
     5
 10
14.852179999999979
 20
-277.46083399999992
 30
0.0
 11
14.852179999999979
 21
-239.46083400000001
 31
0.0
  0
LINE
  5
35B
  8
DETAIL
  6
CONTINUOUS
 62
     5
 10
-14.852179999999979
 20
-239.46083400000001
 30
0.0
 11
-90.0
 21
-239.46083400000001
 31
0.0
  0
LINE
  5
35C
  8
DETAIL
  6
CONTINUOUS
 62
     5
 10
-14.852179999999979
 20
-277.46083399999992
 30
0.0
 11
-14.852179999999979
 21
-239.46083400000001
 31
0.0
  0
LINE
  5
35D
  8
DETAIL
  6
CONTINUOUS
 62
     5
 10
-130.0
 20
-277.46083399999992
 30
0.0
 11
-14.852179999999979
 21
-277.46083399999992
 31
0.0
  0
LINE
  5
35E
  8
NOTE
  6
CONTINUOUS
 62
     4
 10
280.0
 20
0.0
 30
0.0
 11
374.57261199999999
 21
-187.656361
 31
0.0
  0
TEXT
  5
399
  8
ETC
  6
CONTINUOUS
 62
    61
 10
704.39616404500237
 20
377.26424999999989
 30
0.0
 40
64.0
  1
EG-50ETXB3_1
 41
0.9
  0
LINE
  5
39A
  8
SIZE
  6
CONTINUOUS
 62
    30
 10
-82.0
 20
-542.39284999999995
 30
0.0
 11
-291.25883299999992
 21
-542.39284999999995
 31
0.0
  0
CIRCLE
  5
39C
  8
ARRANGE
  6
CONTINUOUS
 62
     1
 10
0.0
 20
0.0
 30
0.0
 40
40.0
  0
LINE
  5
39D
  8
SIZE
  6
BYBLOCK
 62
    30
 10
-82.0
 20
-326.0
 30
0.0
 11
-82.0
 21
-572.39284999999995
 31
0.0
  0
LINE
  5
39E
  8
SIZE
  6
BYBLOCK
 62
    30
 10
82.0
 20
-326.0
 30
0.0
 11
82.0
 21
-572.39284999999995
 31
0.0
  0
LINE
  5
39F
  8
SIZE
  6
BYBLOCK
 62
    30
 10
84.0
 20
-542.39284999999995
 30
0.0
 11
86.0
 21
-542.39284999999995
 31
0.0
  0
LINE
  5
3A0
  8
SIZE
  6
BYBLOCK
 62
    30
 10
-84.0
 20
-542.39284999999995
 30
0.0
 11
-86.0
 21
-542.39284999999995
 31
0.0
  0
LINE
  5
3A1
  8
SIZE
  6
BYBLOCK
 62
    30
 10
82.0
 20
-542.39284999999995
 30
0.0
 11
-82.0
 21
-542.39284999999995
 31
0.0
  0
TEXT
  5
3A2
  8
SIZE
  6
BYBLOCK
 62
    30
 10
-300.27630099999982
 20
-510.39285000000001
 30
0.0
 40
64.0
  1
φ164
 41
0.9
  0
LINE
  5
3A3
  8
SIZE
  6
BYBLOCK
 62
    30
 10
-310.0
 20
17.0
 30
0.0
 11
-310.0
 21
376.57552599999991
 31
0.0
  0
LINE
  5
3A4
  8
SIZE
  6
BYBLOCK
 62
    30
 10
310.0
 20
17.0
 30
0.0
 11
310.0
 21
376.57552599999991
 31
0.0
  0
LINE
  5
3A5
  8
SIZE
  6
BYBLOCK
 62
    30
 10
-308.0
 20
346.57552599999991
 30
0.0
 11
0.0
 21
346.57552599999991
 31
0.0
  0
LINE
  5
3A6
  8
SIZE
  6
BYBLOCK
 62
    30
 10
308.0
 20
346.57552599999991
 30
0.0
 11
0.0
 21
346.57552599999991
 31
0.0
  0
TEXT
  5
3A7
  8
SIZE
  6
BYBLOCK
 62
    30
 10
-74.057143000000025
 20
378.57552599999991
 30
0.0
 40
64.0
  1
620
 41
0.9
  0
LINE
  5
3A8
  8
SIZE
  6
BYBLOCK
 62
    30
 10
-280.0
 20
40.0
 30
0.0
 11
-280.0
 21
241.98143399999981
 31
0.0
  0
LINE
  5
3A9
  8
SIZE
  6
BYBLOCK
 62
    30
 10
280.0
 20
40.0
 30
0.0
 11
280.0
 21
241.98143399999981
 31
0.0
  0
LINE
  5
3AA
  8
SIZE
  6
BYBLOCK
 62
    30
 10
-278.0
 20
211.98143400000001
 30
0.0
 11
0.0
 21
211.98143400000001
 31
0.0
  0
LINE
  5
3AB
  8
SIZE
  6
BYBLOCK
 62
    30
 10
278.0
 20
211.98143400000001
 30
0.0
 11
0.0
 21
211.98143400000001
 31
0.0
  0
TEXT
  5
3AC
  8
SIZE
  6
BYBLOCK
 62
    30
 10
-67.939476999999997
 20
237.10167999999999
 30
0.0
 40
64.0
  1
560
 41
0.9
  0
LINE
  5
3AD
  8
SIZE
  6
BYBLOCK
 62
    30
 10
-330.0
 20
0.0
 30
0.0
 11
-636.59381199999996
 21
0.0
 31
0.0
  0
LINE
  5
3AE
  8
SIZE
  6
BYBLOCK
 62
    30
 10
-92.0
 20
-316.0
 30
0.0
 11
-636.59381199999996
 21
-316.0
 31
0.0
  0
LINE
  5
3AF
  8
SIZE
  6
BYBLOCK
 62
    30
 10
-606.59381199999984
 20
-2.0
 30
0.0
 11
-606.59381199999984
 21
-314.0
 31
0.0
  0
TEXT
  5
3B0
  8
SIZE
  6
BYBLOCK
 62
    30
 10
-638.59381199999984
 20
-225.1999999999999
 30
0.0
 40
64.0
  1
316
 50
90.0
 41
0.9
  0
LINE
  5
3B1
  8
SIZE
  6
BYBLOCK
 62
    30
 10
-302.49999999999989
 20
-108.0
 30
0.0
 11
-302.49999999999989
 21
-714.12443499999995
 31
0.0
  0
LINE
  5
3B2
  8
SIZE
  6
BYBLOCK
 62
    30
 10
302.49999999999989
 20
-108.0
 30
0.0
 11
302.49999999999989
 21
-714.12443499999995
 31
0.0
  0
LINE
  5
3B3
  8
SIZE
  6
BYBLOCK
 62
    30
 10
-300.49999999999989
 20
-684.12443499999995
 30
0.0
 11
0.0
 21
-684.12443499999995
 31
0.0
  0
LINE
  5
3B4
  8
SIZE
  6
BYBLOCK
 62
    30
 10
300.49999999999989
 20
-684.12443499999995
 30
0.0
 11
0.0
 21
-684.12443499999995
 31
0.0
  0
TEXT
  5
3B5
  8
SIZE
  6
BYBLOCK
 62
    30
 10
-102.85714299999989
 20
-660.24877699999968
 30
0.0
 40
64.0
  1
φ605
 41
0.9
  0
LINE
  5
3B6
  8
SIZE
  6
BYBLOCK
 62
    30
 10
-330.0
 20
0.0
 30
0.0
 11
-523.94753099999991
 21
0.0
 31
0.0
  0
LINE
  5
3B7
  8
SIZE
  6
BYBLOCK
 62
    30
 10
-322.5
 20
-88.0
 30
0.0
 11
-523.94753099999991
 21
-88.0
 31
0.0
  0
LINE
  5
3B8
  8
SIZE
  6
BYBLOCK
 62
    30
 10
-493.9475309999998
 20
-90.0
 30
0.0
 11
-493.9475309999998
 21
-92.0
 31
0.0
  0
LINE
  5
3B9
  8
SIZE
  6
BYBLOCK
 62
    30
 10
-493.9475309999998
 20
2.0
 30
0.0
 11
-493.9475309999998
 21
4.0
 31
0.0
  0
LINE
  5
3BA
  8
SIZE
  6
BYBLOCK
 62
    30
 10
-493.9475309999998
 20
-88.0
 30
0.0
 11
-493.9475309999998
 21
0.0
 31
0.0
  0
TEXT
  5
3BB
  8
SIZE
  6
BYBLOCK
 62
    30
 10
-525.94753099999991
 20
28.282371999999999
 30
0.0
 40
64.0
  1
88
 50
90.0
 41
0.9
  0
LINE
  5
3BC
  8
SIZE
  6
BYBLOCK
 62
    30
 10
-330.0
 20
0.0
 30
0.0
 11
-394.53778499999987
 21
0.0
 31
0.0
  0
LINE
  5
3BD
  8
SIZE
  6
BYBLOCK
 62
    30
 10
-323.0
 20
-10.0
 30
0.0
 11
-394.53778499999987
 21
-10.0
 31
0.0
  0
LINE
  5
3BE
  8
SIZE
  6
BYBLOCK
 62
    30
 10
-364.53778499999999
 20
-12.0
 30
0.0
 11
-364.53778499999999
 21
-14.0
 31
0.0
  0
LINE
  5
3BF
  8
SIZE
  6
BYBLOCK
 62
    30
 10
-364.53778499999999
 20
2.0
 30
0.0
 11
-364.53778499999999
 21
4.0
 31
0.0
  0
LINE
  5
3C0
  8
SIZE
  6
BYBLOCK
 62
    30
 10
-364.53778499999999
 20
-10.0
 30
0.0
 11
-364.53778499999999
 21
0.0
 31
0.0
  0
TEXT
  5
3C1
  8
SIZE
  6
BYBLOCK
 62
    30
 10
-396.53778499999987
 20
35.562821999999997
 30
0.0
 40
64.0
  1
10
 50
90.0
 41
0.9
  0
CIRCLE
  5
3C2
  8
SIZE
  6
CONTINUOUS
 62
    30
 10
-364.53778499999999
 20
0.0
 30
0.0
 40
6.0
  0
CIRCLE
  5
3C3
  8
SIZE
  6
CONTINUOUS
 62
    30
 10
-364.53778499999999
 20
-10.0
 30
0.0
 40
6.0
  0
CIRCLE
  5
3C4
  8
SIZE
  6
CONTINUOUS
 62
    30
 10
-493.9475309999998
 20
0.0
 30
0.0
 40
6.0
  0
CIRCLE
  5
3C5
  8
SIZE
  6
CONTINUOUS
 62
    30
 10
-493.9475309999998
 20
-88.0
 30
0.0
 40
6.0
  0
CIRCLE
  5
3C6
  8
SIZE
  6
CONTINUOUS
 62
    30
 10
302.49999999999989
 20
-684.12443499999995
 30
0.0
 40
6.0
  0
CIRCLE
  5
3C7
  8
SIZE
  6
CONTINUOUS
 62
    30
 10
-302.49999999999989
 20
-684.12443499999995
 30
0.0
 40
6.0
  0
CIRCLE
  5
3C8
  8
SIZE
  6
CONTINUOUS
 62
    30
 10
-606.59381199999984
 20
-316.0
 30
0.0
 40
6.0
  0
CIRCLE
  5
3C9
  8
SIZE
  6
CONTINUOUS
 62
    30
 10
-606.59381199999984
 20
0.0
 30
0.0
 40
6.0
  0
CIRCLE
  5
3CA
  8
SIZE
  6
CONTINUOUS
 62
    30
 10
280.0
 20
211.98143400000001
 30
0.0
 40
6.0
  0
CIRCLE
  5
3CB
  8
SIZE
  6
CONTINUOUS
 62
    30
 10
-280.0
 20
211.98143400000001
 30
0.0
 40
6.0
  0
CIRCLE
  5
3CC
  8
SIZE
  6
CONTINUOUS
 62
    30
 10
310.0
 20
346.57552599999991
 30
0.0
 40
6.0
  0
CIRCLE
  5
3CD
  8
SIZE
  6
CONTINUOUS
 62
    30
 10
-310.0
 20
346.57552599999991
 30
0.0
 40
6.0
  0
CIRCLE
  5
3CE
  8
SIZE
  6
CONTINUOUS
 62
    30
 10
-82.0
 20
-542.39284999999995
 30
0.0
 40
6.0
  0
CIRCLE
  5
3CF
  8
SIZE
  6
CONTINUOUS
 62
    30
 10
82.0
 20
-542.39284999999995
 30
0.0
 40
6.0
  0
LINE
  5
3D5
  8
NOTE
  6
CONTINUOUS
 62
     4
 10
280.0
 20
-20.0
 30
0.0
 11
280.0
 21
20.0
 31
0.0
  0
LINE
  5
3D6
  8
NOTE
  6
CONTINUOUS
 62
     4
 10
260.0
 20
0.0
 30
0.0
 11
300.0
 21
0.0
 31
0.0
  0
LINE
  5
3D7
  8
NOTE
  6
CONTINUOUS
 62
     4
 10
-280.0
 20
-20.0
 30
0.0
 11
-280.0
 21
20.0
 31
0.0
  0
LINE
  5
3D8
  8
NOTE
  6
CONTINUOUS
 62
     4
 10
-300.0
 20
0.0
 30
0.0
 11
-260.0
 21
0.0
 31
0.0
  0
TEXT
  5
3D9
  8
ETC
  6
CONTINUOUS
 62
    61
 10
702.32784304500251
 20
277.931265
 30
0.0
 40
64.0
  1
産業扇
 41
0.9
  0
ARC
  5
448
  8
DETAIL
  6
CONTINUOUS
 62
     5
 10
370.92002455126288
 20
67.731935999999877
 30
0.0
 40
268.52848699999993
 50
215.4467220000019
 51
241.9145319999968
  0
ARC
  5
449
  8
DETAIL
  6
CONTINUOUS
 62
     5
 10
284.6547755512629
 20
95.281209999999874
 30
0.0
 40
269.96017899999998
 50
230.70048399999629
 51
261.37223899999998
  0
ARC
  5
44B
  8
DETAIL
  6
CONTINUOUS
 62
     5
 10
-169.13025522663969
 20
-75.44074599999999
 30
0.0
 40
93.132537000000013
 50
215.97493599999709
 51
274.72937799999892
  0
ARC
  5
44C
  8
DETAIL
  6
CONTINUOUS
 62
     5
 10
-42.429749811248143
 20
-218.67695126026501
 30
0.0
 40
137.39268270080021
 50
107.9881946601454
 51
146.43572637838869
  0
ARC
  5
44D
  8
DETAIL
  6
CONTINUOUS
 62
     5
 10
-131.45152322663961
 20
-158.57956399999989
 30
0.0
 40
30.0
 50
148.0774129999977
 51
180.0
  0
LINE
  5
44E
  8
DETAIL
  6
CONTINUOUS
 62
     5
 10
-161.45152322663981
 20
-168.25618999999989
 30
0.0
 11
-161.45152322663981
 21
-158.57956399999989
 31
0.0
  0
ARC
  5
44F
  8
DETAIL
  6
CONTINUOUS
 62
     5
 10
-68.213004448736555
 20
201.29992099999981
 30
0.0
 40
363.67505799999992
 50
275.23378399999928
 51
307.2984249999983
  0
ARC
  5
450
  8
DETAIL
  6
CONTINUOUS
 62
     5
 10
-123.6586554487365
 20
28.766467999999861
 30
0.0
 40
209.311455
 50
295.04868699999849
 51
326.0920750000011
  0
ARC
  5
451
  8
DETAIL
  6
CONTINUOUS
 62
     5
 10
75.327742551263327
 20
-129.1348320000001
 30
0.0
 40
10.0
 50
0.0
 51
4.2894489999970782
  0
TEXT
  5
45C
  8
ETC
  6
CONTINUOUS
 62
    61
 10
835.55025620074775
 20
187.3715300023338
 30
0.0
 40
50.0
  1
EG-50ETXB3
 41
0.9
  0
ARC
  5
462
  8
DETAIL
  6
CONTINUOUS
 62
     5
 10
-301.97779140795518
 20
-81.198056750609155
 30
0.0
 40
6.8219596731099701
 50
265.60981778928033
 51
280.87988326965171
  0
ARC
  5
463
  8
DETAIL
  6
CONTINUOUS
 62
     5
 10
-304.87368755417953
 20
-66.131300835092503
 30
0.0
 40
22.164493632902168
 50
280.87983772130741
 51
304.06298413803131
  0
ARC
  5
464
  8
DETAIL
  6
CONTINUOUS
 62
     5
 10
-315.18160623480429
 20
-50.885320946291941
 30
0.0
 40
40.568109861671047
 50
304.0629522006758
 51
317.7947333162914
  0
ARC
  5
465
  8
DETAIL
  6
CONTINUOUS
 62
     5
 10
-335.30664190271608
 20
-32.633667232363038
 30
0.0
 40
67.736840489505383
 50
317.79472420977072
 51
328.41136541356713
  0
ARC
  5
466
  8
DETAIL
  6
CONTINUOUS
 62
     5
 10
-335.30594892133331
 20
-32.634071751673211
 30
0.0
 40
67.736038292513811
 50
328.41134983828692
 51
333.34833631623678
  0
ARC
  5
46C
  8
DETAIL
  6
CONTINUOUS
 62
     5
 10
301.97779140795518
 20
-81.198056750609155
 30
0.0
 40
6.8219596731099701
 50
259.12011673034817
 51
274.39018221071962
  0
ARC
  5
46D
  8
DETAIL
  6
CONTINUOUS
 62
     5
 10
304.87368755417953
 20
-66.131300835092503
 30
0.0
 40
22.164493632902168
 50
235.9370158619686
 51
259.12016227869248
  0
ARC
  5
46E
  8
DETAIL
  6
CONTINUOUS
 62
     5
 10
315.18160623480418
 20
-50.885320946292254
 30
0.0
 40
40.568109861670763
 50
222.20526668370829
 51
235.93704779932401
  0
ARC
  5
46F
  8
DETAIL
  6
CONTINUOUS
 62
     5
 10
335.30664190271608
 20
-32.633667232363038
 30
0.0
 40
67.736840489505383
 50
211.58863458643279
 51
222.20527579022919
  0
ARC
  5
470
  8
DETAIL
  6
CONTINUOUS
 62
     5
 10
335.30594892133331
 20
-32.634071751673211
 30
0.0
 40
67.736038292513811
 50
206.65166368376299
 51
211.58865016171299
  0
LINE
  5
471
  8
NOTE
  6
CONTINUOUS
 62
     4
 10
306.66597300000001
 20
-29.814859999999982
 30
0.0
 11
280.0
 21
0.0
 31
0.0
  0
LINE
  5
472
  8
NOTE
  6
CONTINUOUS
 62
     4
 10
280.0
 20
0.0
 30
0.0
 11
288.18597899999992
 21
-39.153413
 31
0.0
  0
LINE
  5
473
  8
DETAIL
  6
CONTINUOUS
 62
     5
 10
-2.3448072501401489
 20
-141.803856
 30
0.0
 11
-72.0
 21
-141.803856
 31
0.0
  0
POINT
  5
4B4
  8
ARRANGE
  6
CONTINUOUS
 62
     1
 10
0.0
 20
0.0
 30
0.0
  0
LINE
  5
4B5
  8
OUTLINE
  6
CONTINUOUS
 62
     3
 10
130.0
 20
-234.9602839999998
 30
0.0
 11
-130.0
 21
-234.9602839999998
 31
0.0
  0
LINE
  5
4B6
  8
OUTLINE
  6
CONTINUOUS
 62
     3
 10
72.0
 20
-316.0
 30
0.0
 11
-72.0
 21
-316.0
 31
0.0
  0
LINE
  5
4B7
  8
OUTLINE
  6
CONTINUOUS
 62
     3
 10
130.0
 20
-286.9624819999998
 30
0.0
 11
-130.0
 21
-286.9624819999998
 31
0.0
  0
LINE
  5
4B8
  8
OUTLINE
  6
CONTINUOUS
 62
     3
 10
290.5
 20
-10.0
 30
0.0
 11
-290.5
 21
-10.0
 31
0.0
  0
LINE
  5
4B9
  8
OUTLINE
  6
CONTINUOUS
 62
     3
 10
310.0
 20
0.0
 30
0.0
 11
-310.0
 21
0.0
 31
0.0
  0
LINE
  5
4BA
  8
OUTLINE
  6
CONTINUOUS
 62
     3
 10
244.49999999999989
 20
-88.0
 30
0.0
 11
-244.4999999999998
 21
-88.0
 31
0.0
  0
ARC
  5
4BB
  8
OUTLINE
  6
CONTINUOUS
 62
     3
 10
-194.5
 20
-189.46083399999981
 30
0.0
 40
50.0
 50
180.0
 51
270.0
  0
ARC
  5
4BC
  8
OUTLINE
  6
CONTINUOUS
 62
     3
 10
-194.5
 20
-207.46083400000001
 30
0.0
 40
70.0
 50
180.0
 51
270.0
  0
LINE
  5
4BD
  8
OUTLINE
  6
CONTINUOUS
 62
     3
 10
-244.4999999999998
 20
-20.0
 30
0.0
 11
-244.4999999999998
 21
-189.46083399999981
 31
0.0
  0
LINE
  5
4BE
  8
OUTLINE
  6
CONTINUOUS
 62
     3
 10
-264.5
 20
-20.0
 30
0.0
 11
-264.5
 21
-207.46083400000001
 31
0.0
  0
ARC
  5
4BF
  8
OUTLINE
  6
CONTINUOUS
 62
     3
 10
-315.18160623480429
 20
-50.885320946292261
 30
0.0
 40
40.568109861670763
 50
304.06295220067602
 51
317.79473331629163
  0
ARC
  5
4C0
  8
OUTLINE
  6
CONTINUOUS
 62
     3
 10
-301.97779140795518
 20
-81.198056750609155
 30
0.0
 40
6.8219596731099701
 50
265.60981778928033
 51
280.87988326965171
  0
ARC
  5
4C1
  8
OUTLINE
  6
CONTINUOUS
 62
     3
 10
-304.87368755417953
 20
-66.131300835092532
 30
0.0
 40
22.164493632902168
 50
280.87983772130741
 51
304.06298413803131
  0
LINE
  5
4C2
  8
OUTLINE
  6
CONTINUOUS
 62
     3
 10
-264.5
 20
-88.0
 30
0.0
 11
-302.49999999999989
 21
-88.0
 31
0.0
  0
LINE
  5
4C3
  8
OUTLINE
  6
CONTINUOUS
 62
     3
 10
-226.2857649999998
 20
-20.0
 30
0.0
 11
-286.2857649999998
 21
-20.0
 31
0.0
  0
LINE
  5
4C4
  8
OUTLINE
  6
CONTINUOUS
 62
     3
 10
-274.7668559999999
 20
-20.0
 30
0.0
 11
-274.7668559999999
 21
-63.018099000000007
 31
0.0
  0
LINE
  5
4C5
  8
OUTLINE
  6
CONTINUOUS
 62
     3
 10
-286.2857649999998
 20
-20.0
 30
0.0
 11
-286.2857649999998
 21
-10.0
 31
0.0
  0
ARC
  5
4C6
  8
OUTLINE
  6
CONTINUOUS
 62
     3
 10
-335.30664190271608
 20
-32.633667232363052
 30
0.0
 40
67.736840489505383
 50
317.79472420977072
 51
328.41136541356713
  0
ARC
  5
4C7
  8
OUTLINE
  6
CONTINUOUS
 62
     3
 10
-335.3059489213332
 20
-32.634071751673211
 30
0.0
 40
67.736038292513811
 50
328.41134983828692
 51
333.34833631623678
  0
ARC
  5
4C8
  8
OUTLINE
  6
CONTINUOUS
 62
     3
 10
-303.0
 20
-3.0
 30
0.0
 40
7.0
 50
180.0
 51
270.0
  0
LINE
  5
4C9
  8
OUTLINE
  6
CONTINUOUS
 62
     3
 10
-290.5
 20
-10.0
 30
0.0
 11
-303.0
 21
-10.0
 31
0.0
  0
LINE
  5
4CA
  8
OUTLINE
  6
CONTINUOUS
 62
     3
 10
-310.0
 20
-3.0
 30
0.0
 11
-310.0
 21
0.0
 31
0.0
  0
LINE
  5
4CB
  8
OUTLINE
  6
CONTINUOUS
 62
     3
 10
-226.2857649999998
 20
-10.0
 30
0.0
 11
-226.2857649999998
 21
-20.0
 31
0.0
  0
LINE
  5
4CC
  8
OUTLINE
  6
CONTINUOUS
 62
     3
 10
-130.0
 20
-286.9624819999998
 30
0.0
 11
-130.0
 21
-239.46083400000001
 31
0.0
  0
LINE
  5
4CD
  8
OUTLINE
  6
CONTINUOUS
 62
     3
 10
-194.5
 20
-277.46083399999992
 30
0.0
 11
-130.0
 21
-277.46083399999992
 31
0.0
  0
LINE
  5
4CE
  8
OUTLINE
  6
CONTINUOUS
 62
     3
 10
-130.0
 20
-239.46083400000001
 30
0.0
 11
-194.5
 21
-239.46083400000001
 31
0.0
  0
LINE
  5
4CF
  8
OUTLINE
  6
CONTINUOUS
 62
     3
 10
-130.0
 20
-239.46083400000001
 30
0.0
 11
-130.0
 21
-234.9602839999998
 31
0.0
  0
ARC
  5
4D0
  8
OUTLINE
  6
CONTINUOUS
 62
     3
 10
-72.0
 20
-306.0
 30
0.0
 40
10.0
 50
180.0
 51
270.0
  0
LINE
  5
4D1
  8
OUTLINE
  6
CONTINUOUS
 62
     3
 10
-82.0
 20
-286.9624819999998
 30
0.0
 11
-82.0
 21
-306.0
 31
0.0
  0
ARC
  5
4D2
  8
OUTLINE
  6
CONTINUOUS
 62
     3
 10
194.5
 20
-207.46083400000001
 30
0.0
 40
70.0
 50
270.0
 51
0.0
  0
LINE
  5
4D3
  8
OUTLINE
  6
CONTINUOUS
 62
     3
 10
287.05401099999989
 20
-20.0
 30
0.0
 11
227.05401099999989
 21
-20.0
 31
0.0
  0
LINE
  5
4D4
  8
OUTLINE
  6
CONTINUOUS
 62
     3
 10
244.49999999999989
 20
-20.0
 30
0.0
 11
244.49999999999989
 21
-189.46083399999981
 31
0.0
  0
LINE
  5
4D5
  8
OUTLINE
  6
CONTINUOUS
 62
     3
 10
130.0
 20
-239.46083400000001
 30
0.0
 11
194.5
 21
-239.46083400000001
 31
0.0
  0
LINE
  5
4D6
  8
OUTLINE
  6
CONTINUOUS
 62
     3
 10
194.5
 20
-277.46083399999992
 30
0.0
 11
130.0
 21
-277.46083399999992
 31
0.0
  0
LINE
  5
4D7
  8
OUTLINE
  6
CONTINUOUS
 62
     3
 10
130.0
 20
-286.9624819999998
 30
0.0
 11
130.0
 21
-239.46083400000001
 31
0.0
  0
ARC
  5
4D8
  8
OUTLINE
  6
CONTINUOUS
 62
     3
 10
72.0
 20
-306.0
 30
0.0
 40
10.0
 50
270.0
 51
0.0
  0
LINE
  5
4D9
  8
OUTLINE
  6
CONTINUOUS
 62
     3
 10
82.0
 20
-286.9624819999998
 30
0.0
 11
82.0
 21
-306.0
 31
0.0
  0
LINE
  5
4DA
  8
OUTLINE
  6
CONTINUOUS
 62
     3
 10
130.0
 20
-239.46083400000001
 30
0.0
 11
130.0
 21
-234.9602839999998
 31
0.0
  0
ARC
  5
4DB
  8
OUTLINE
  6
CONTINUOUS
 62
     3
 10
194.5
 20
-189.46083399999981
 30
0.0
 40
50.0
 50
270.0
 51
0.0
  0
LINE
  5
4DC
  8
OUTLINE
  6
CONTINUOUS
 62
     3
 10
227.05401099999989
 20
-20.0
 30
0.0
 11
227.05401099999989
 21
-10.0
 31
0.0
  0
LINE
  5
4DD
  8
OUTLINE
  6
CONTINUOUS
 62
     3
 10
264.5
 20
-20.0
 30
0.0
 11
264.5
 21
-207.46083400000001
 31
0.0
  0
ARC
  5
4DE
  8
OUTLINE
  6
CONTINUOUS
 62
     3
 10
315.18160623480429
 20
-50.885320946292261
 30
0.0
 40
40.568109861670763
 50
222.20526668370829
 51
235.93704779932401
  0
ARC
  5
4DF
  8
OUTLINE
  6
CONTINUOUS
 62
     3
 10
301.97779140795518
 20
-81.198056750609155
 30
0.0
 40
6.8219596731099701
 50
259.12011673034817
 51
274.39018221071962
  0
ARC
  5
4E0
  8
OUTLINE
  6
CONTINUOUS
 62
     3
 10
304.87368755417941
 20
-66.131300835092532
 30
0.0
 40
22.164493632902168
 50
235.9370158619686
 51
259.12016227869248
  0
LINE
  5
4E1
  8
OUTLINE
  6
CONTINUOUS
 62
     3
 10
264.5
 20
-88.0
 30
0.0
 11
302.49999999999989
 21
-88.0
 31
0.0
  0
ARC
  5
4E2
  8
OUTLINE
  6
CONTINUOUS
 62
     3
 10
303.0
 20
-3.0
 30
0.0
 40
7.0
 50
270.0
 51
0.0
  0
LINE
  5
4E3
  8
OUTLINE
  6
CONTINUOUS
 62
     3
 10
310.0
 20
-3.0
 30
0.0
 11
310.0
 21
0.0
 31
0.0
  0
LINE
  5
4E4
  8
OUTLINE
  6
CONTINUOUS
 62
     3
 10
303.0
 20
-10.0
 30
0.0
 11
290.5
 21
-10.0
 31
0.0
  0
LINE
  5
4E5
  8
OUTLINE
  6
CONTINUOUS
 62
     3
 10
274.7668559999999
 20
-20.0
 30
0.0
 11
274.7668559999999
 21
-63.018099000000007
 31
0.0
  0
LINE
  5
4E6
  8
OUTLINE
  6
CONTINUOUS
 62
     3
 10
287.05401099999989
 20
-20.0
 30
0.0
 11
287.05401099999989
 21
-10.0
 31
0.0
  0
ARC
  5
4E7
  8
OUTLINE
  6
CONTINUOUS
 62
     3
 10
335.30664190271608
 20
-32.633667232363052
 30
0.0
 40
67.736840489505383
 50
211.58863458643279
 51
222.20527579022919
  0
ARC
  5
4E8
  8
OUTLINE
  6
CONTINUOUS
 62
     3
 10
335.3059489213332
 20
-32.634071751673211
 30
0.0
 40
67.736038292513811
 50
206.65166368376299
 51
211.58865016171299
  0
ENDSEC
  0
EOF
