  0
SECTION
  2
HEADER
  9
$ACADVER
  1
AC1009
  9
$DWGCODEPAGE
  3
dos932
  9
$INSBASE
 10
0.0
 20
0.0
 30
0.0
  9
$EXTMIN
 10
-612.70750295686048
 20
-427.13927050020902
 30
-0.0000000000112498
  9
$EXTMAX
 10
1168.766796401196
 20
618.11829418656089
 30
0.0000000000002956
  9
$LIMMIN
 10
-2970.0
 20
-2100.0
  9
$LIMMAX
 10
2970.0
 20
2100.0
  9
$ORTHOMODE
 70
     1
  9
$REGENMODE
 70
     1
  9
$FILLMODE
 70
     1
  9
$QTEXTMODE
 70
     0
  9
$MIRRTEXT
 70
     0
  9
$LTSCALE
 40
20.0
  9
$ATTMODE
 70
     1
  9
$TEXTSIZE
 40
64.0
  9
$TRACEWID
 40
0.05
  9
$TEXTSTYLE
  7
STANDARD
  9
$CLAYER
  8
SIZE
  9
$CELTYPE
  6
CONTINUOUS
  9
$CECOLOR
 62
     7
  9
$DIMSCALE
 40
1.0
  9
$DIMASZ
 40
12.0
  9
$DIMEXO
 40
20.0
  9
$DIMDLI
 40
200.0
  9
$DIMRND
 40
0.0
  9
$DIMDLE
 40
0.0
  9
$DIMEXE
 40
20.0
  9
$DIMTP
 40
0.0
  9
$DIMTM
 40
0.0
  9
$DIMTXT
 40
64.0
  9
$DIMCEN
 40
0.09
  9
$DIMTSZ
 40
0.0
  9
$DIMTOL
 70
     0
  9
$DIMLIM
 70
     0
  9
$DIMTIH
 70
     0
  9
$DIMTOH
 70
     0
  9
$DIMSE1
 70
     0
  9
$DIMSE2
 70
     0
  9
$DIMTAD
 70
     1
  9
$DIMZIN
 70
     8
  9
$DIMBLK
  1

  9
$DIMASO
 70
     1
  9
$DIMSHO
 70
     0
  9
$DIMPOST
  1

  9
$DIMAPOST
  1

  9
$DIMALT
 70
     0
  9
$DIMALTD
 70
     2
  9
$DIMALTF
 40
25.399999999999999
  9
$DIMLFAC
 40
1.0
  9
$DIMTOFL
 70
     1
  9
$DIMTVP
 40
0.0
  9
$DIMTIX
 70
     1
  9
$DIMSOXD
 70
     0
  9
$DIMSAH
 70
     0
  9
$DIMBLK1
  1

  9
$DIMBLK2
  1

  9
$DIMSTYLE
  2
STANDARD
  9
$DIMCLRD
 70
     7
  9
$DIMCLRE
 70
     7
  9
$DIMCLRT
 70
     7
  9
$DIMTFAC
 40
1.0
  9
$DIMGAP
 40
25.0
  9
$LUNITS
 70
     2
  9
$LUPREC
 70
     4
  9
$SKETCHINC
 40
0.1
  9
$FILLETRAD
 40
3.0
  9
$AUNITS
 70
     1
  9
$AUPREC
 70
     3
  9
$MENU
  1
ACAD
  9
$ELEVATION
 40
0.0
  9
$PELEVATION
 40
0.0
  9
$THICKNESS
 40
0.0
  9
$LIMCHECK
 70
     0
  9
$CHAMFERA
 40
0.0
  9
$CHAMFERB
 40
0.0
  9
$SKPOLY
 70
     0
  9
$TDCREATE
 40
2453019.62301037
  9
$TDUPDATE
 40
2453425.106488935
  9
$TDINDWG
 40
1.7227937616
  9
$TDUSRTIMER
 40
1.7227937616
  9
$USRTIMER
 70
     1
  9
$ANGBASE
 50
0.0
  9
$ANGDIR
 70
     0
  9
$PDMODE
 70
     3
  9
$PDSIZE
 40
-2.0
  9
$PLINEWID
 40
0.0
  9
$SPLFRAME
 70
     0
  9
$SPLINETYPE
 70
     6
  9
$SPLINESEGS
 70
     8
  9
$SURFTAB1
 70
     6
  9
$SURFTAB2
 70
     6
  9
$SURFTYPE
 70
     6
  9
$SURFU
 70
     6
  9
$SURFV
 70
     6
  9
$UCSNAME
  2

  9
$UCSORG
 10
0.0
 20
0.0
 30
0.0
  9
$UCSXDIR
 10
1.0
 20
0.0
 30
0.0
  9
$UCSYDIR
 10
0.0
 20
1.0
 30
0.0
  9
$PUCSNAME
  2

  9
$PUCSORG
 10
0.0
 20
0.0
 30
0.0
  9
$PUCSXDIR
 10
1.0
 20
0.0
 30
0.0
  9
$PUCSYDIR
 10
0.0
 20
1.0
 30
0.0
  9
$USERI1
 70
     0
  9
$USERI2
 70
     0
  9
$USERI3
 70
     0
  9
$USERI4
 70
     0
  9
$USERI5
 70
     0
  9
$USERR1
 40
20.0
  9
$USERR2
 40
0.0
  9
$USERR3
 40
0.0
  9
$USERR4
 40
0.0
  9
$USERR5
 40
0.0
  9
$WORLDVIEW
 70
     1
  9
$SHADEDGE
 70
     3
  9
$SHADEDIF
 70
    70
  9
$TILEMODE
 70
     1
  9
$MAXACTVP
 70
    48
  9
$PINSBASE
 10
0.0
 20
0.0
 30
0.0
  9
$PLIMCHECK
 70
     0
  9
$PEXTMIN
 10
-100000000000000000000.0
 20
-100000000000000000000.0
 30
-100000000000000000000.0
  9
$PEXTMAX
 10
100000000000000000000.0
 20
100000000000000000000.0
 30
100000000000000000000.0
  9
$PLIMMIN
 10
0.0
 20
0.0
  9
$PLIMMAX
 10
12.0
 20
9.0
  9
$UNITMODE
 70
     0
  9
$VISRETAIN
 70
     0
  9
$PLINEGEN
 70
     0
  9
$PSLTSCALE
 70
     0
  9
$TREEDEPTH
 70
  3020
  9
$ATTDIA
 70
     0
  9
$ATTREQ
 70
     1
  9
$BLIPMODE
 70
     1
  9
$COORDS
 70
     1
  9
$DRAGMODE
 70
     2
  9
$OSMODE
 70
     0
  9
$HANDLING
 70
     0
  9
$HANDSEED
  5
FF98
  0
ENDSEC
  0
SECTION
  2
TABLES
  0
TABLE
  2
LTYPE
 70
     2
  0
LTYPE
  2
CONTINUOUS
 70
     0
  3
実線
 72
    65
 73
     0
 40
0.0
  0
LTYPE
  2
DASHDOT
 70
     0
  3
____ _ ____ _ ____ _ ____ _ ____ _ ____ _ ____
 72
    65
 73
     4
 40
5.5
 49
4.0
 49
-0.6
 49
0.3
 49
-0.6
  0
ENDTAB
  0
TABLE
  2
LAYER
 70
    12
  0
LAYER
  2
0
 70
     0
 62
     7
  6
CONTINUOUS
  0
LAYER
  2
BASIS
 70
     0
 62
     6
  6
DASHDOT
  0
LAYER
  2
OUTLINE
 70
     0
 62
     3
  6
CONTINUOUS
  0
LAYER
  2
DETAIL
 70
     0
 62
     5
  6
CONTINUOUS
  0
LAYER
  2
SIZE
 70
     0
 62
    30
  6
CONTINUOUS
  0
LAYER
  2
ARRANGE
 70
     0
 62
     1
  6
CONTINUOUS
  0
LAYER
  2
DEFPOINTS
 70
     0
 62
     7
  6
CONTINUOUS
  0
LAYER
  2
ETC
 70
     0
 62
    61
  6
CONTINUOUS
  0
LAYER
  2
FIX
 70
     0
 62
    11
  6
CONTINUOUS
  0
LAYER
  2
NOTE
 70
     0
 62
     4
  6
CONTINUOUS
  0
LAYER
  2
SERVICESPACE
 70
    64
 62
     2
  6
DASHDOT
  0
LAYER
  2
SYMBOLLINE
 70
    64
 62
    15
  6
CONTINUOUS
  0
ENDTAB
  0
TABLE
  2
STYLE
 70
     1
  0
STYLE
  2
STANDARD
 70
     0
 40
64.0
 41
0.9
 50
0.0
 71
     0
 42
64.0
  3
SIMPLEX.shx
  4
BIGFONT.shx
  0
ENDTAB
  0
TABLE
  2
APPID
 70
    20
  0
APPID
  2
ACAD
 70
     0
  0
APPID
  2
AUTOCAD_POSTSCRIPT_FIGURE
 70
     0
  0
APPID
  2
ACAD_EXEMPT_FROM_CAD_STANDARDS
 70
     0
  0
APPID
  2
ACAD_PSEXT
 70
     0
  0
APPID
  2
ACAUTHENVIRON
 70
     0
  0
APPID
  2
GENIUS_GENOENT_13
 70
     0
  0
APPID
  2
GENIUS_GENCFG_13
 70
     0
  0
APPID
  2
GENIUS_GENCFG0_13
 70
     0
  0
APPID
  2
GENIUS_GENCFG1_13
 70
     0
  0
APPID
  2
GENIUS_GENCFG2_13
 70
     0
  0
APPID
  2
GENIUS_GENCFG3_13
 70
     0
  0
APPID
  2
GENIUS_GENCFG4_13
 70
     0
  0
APPID
  2
GENIUS_GEVCFG0_13
 70
     0
  0
APPID
  2
CONTENTBLOCKICON
 70
     0
  0
APPID
  2
CONTENTBLOCKDESCRIPTION
 70
     0
  0
APPID
  2
ACAD_NAV_VCDISPLAY
 70
     0
  0
APPID
  2
ACAD_MLEADERVER
 70
     0
  0
APPID
  2
ACDBDYNAMICBLOCKTRUENAME
 70
     0
  0
APPID
  2
ACDBDYNAMICBLOCKGUID
 70
     0
  0
APPID
  2
ACAD_DSTYLE_DIMRADIAL_EXTENSION
 70
     0
  0
ENDTAB
  0
TABLE
  2
DIMSTYLE
 70
     1
  0
DIMSTYLE
  2
STANDARD
 70
     0
  3

  4

  5
_ORIGIN
  6

  7

 40
1.0
 41
12.0
 42
20.0
 43
200.0
 44
20.0
 45
0.0
 46
0.0
 47
0.0
 48
0.0
140
64.0
141
0.09
142
0.0
143
25.399999999999999
144
1.0
145
0.0
146
1.0
147
25.0
 71
     0
 72
     0
 73
     0
 74
     0
 75
     0
 76
     0
 77
     1
 78
     8
170
     0
171
     2
172
     1
173
     0
174
     1
175
     0
176
     7
177
     7
178
     7
  0
ENDTAB
  0
TABLE
  2
VIEW
 70
     1
  0
VIEW
  2
ALL
 70
     0
 40
4282.6198079999986
 10
0.0
 20
41.309904000000003
 41
5940.0
 11
0.0
 21
0.0
 31
1.0
 12
0.0
 22
0.0
 32
0.0
 42
50.0
 43
0.0
 44
0.0
 50
0.0
 71
     0
  0
ENDTAB
  0
TABLE
  2
UCS
 70
     0
  0
ENDTAB
  0
TABLE
  2
VPORT
 70
     1
  0
VPORT
  2
*ACTIVE
 70
     0
 10
0.0
 20
0.0
 11
1.0
 21
1.0
 12
278.02964672216802
 22
95.489511843175933
 13
0.0
 23
0.0
 14
1.0
 24
1.0
 15
0.0
 25
0.0
 16
0.0
 26
0.0
 36
1.0
 17
0.0
 27
0.0
 37
0.0
 40
1052.264877969586
 41
1.767337807606264
 42
50.0
 43
0.0
 44
0.0
 50
0.0
 51
0.0
 71
     0
 72
  1000
 73
     1
 74
     3
 75
     0
 76
     0
 77
     0
 78
     0
  0
ENDTAB
  0
ENDSEC
  0
SECTION
  2
BLOCKS
  0
BLOCK
  8
0
  2
_ORIGIN
 70
     0
 10
0.0
 20
0.0
 30
0.0
  3
_ORIGIN
  1
_ORIGIN
  0
CIRCLE
  8
SIZE
  6
CONTINUOUS
 62
    30
 10
0.0
 20
0.0
 30
0.0
 40
0.5
  0
LINE
  8
SIZE
  6
CONTINUOUS
 62
    30
 10
0.0
 20
0.0
 30
0.0
 11
-1.0
 21
0.0
 31
0.0
  0
ENDBLK
  8
0
  0
ENDSEC
  0
SECTION
  2
ENTITIES
  0
LINE
  8
DETAIL
  6
CONTINUOUS
 62
     5
 10
-137.0
 20
-310.00000000000011
 30
0.0
 11
-132.0
 21
-310.00000000000011
 31
0.0
  0
LINE
  8
DETAIL
  6
CONTINUOUS
 62
     5
 10
-0.0000000000009095
 20
-305.00520382000002
 30
0.0
 11
-1.5000000000009091
 21
-305.00520382000002
 31
0.0
  0
LINE
  8
DETAIL
  6
CONTINUOUS
 62
     5
 10
-132.0
 20
-305.00000000000011
 30
0.0
 11
-3.0000000000009091
 21
-305.00000000000011
 31
0.0
  0
LINE
  8
DETAIL
  6
CONTINUOUS
 62
     5
 10
-142.00000000000361
 20
-262.7532244233999
 30
0.0
 11
-145.00000000000361
 21
-262.7532244233999
 31
0.0
  0
LINE
  8
DETAIL
  6
CONTINUOUS
 62
     5
 10
-148.80000000000649
 20
-252.9762889454
 30
0.0
 11
-145.20000000000439
 21
-252.9762889454
 31
0.0
  0
LINE
  8
DETAIL
  6
CONTINUOUS
 62
     5
 10
-147.50000000000361
 20
-248.79690351240001
 30
0.0
 11
-142.00000000000361
 21
-248.79690351240001
 31
0.0
  0
LINE
  8
DETAIL
  6
CONTINUOUS
 62
     5
 10
-149.0000000000073
 20
-247.9762889454
 30
0.0
 11
-147.50000000000361
 21
-247.9762889454
 31
0.0
  0
LINE
  8
DETAIL
  6
CONTINUOUS
 62
     5
 10
-142.00000000000361
 20
-242.29690351240001
 30
0.0
 11
-147.50000000000361
 21
-242.29690351240001
 31
0.0
  0
LINE
  8
DETAIL
  6
CONTINUOUS
 62
     5
 10
-142.00000000000361
 20
-235.79690351239989
 30
0.0
 11
-147.50000000000361
 21
-235.79690351239989
 31
0.0
  0
LINE
  8
DETAIL
  6
CONTINUOUS
 62
     5
 10
-148.80000000000649
 20
-229.1106479044
 30
0.0
 11
-145.20000000000439
 21
-229.1106479044
 31
0.0
  0
LINE
  8
DETAIL
  6
CONTINUOUS
 62
     5
 10
-149.0000000000073
 20
-225.4624817303999
 30
0.0
 11
-242.89946229900491
 21
-225.4624817303999
 31
0.0
  0
LINE
  8
DETAIL
  6
CONTINUOUS
 62
     5
 10
-149.0000000000073
 20
-224.1106479044
 30
0.0
 11
-145.00000000000361
 21
-224.1106479044
 31
0.0
  0
LINE
  8
DETAIL
  6
CONTINUOUS
 62
     5
 10
-3.0000000000009091
 20
-247.25735931300011
 30
0.0
 11
-0.0000000000009095
 21
-247.25735931300011
 31
0.0
  0
LINE
  8
DETAIL
  6
CONTINUOUS
 62
     5
 10
-148.80000000000649
 20
-219.1106479044
 30
0.0
 11
-145.20000000000439
 21
-219.1106479044
 31
0.0
  0
LINE
  8
DETAIL
  6
CONTINUOUS
 62
     5
 10
-142.00000000000361
 20
-209.3337124263999
 30
0.0
 11
-145.00000000000361
 21
-209.3337124263999
 31
0.0
  0
LINE
  8
DETAIL
  6
CONTINUOUS
 62
     5
 10
-339.99995660799868
 20
74.5
 30
0.0
 11
-339.99995660799868
 21
-74.500000000000057
 31
0.0
  0
LINE
  8
DETAIL
  6
CONTINUOUS
 62
     5
 10
-311.49995660799868
 20
-83.200000000000045
 30
0.0
 11
-311.49995660799868
 21
-82.000000000000057
 31
0.0
  0
LINE
  8
DETAIL
  6
CONTINUOUS
 62
     5
 10
-309.49995660800232
 20
-94.200000000000045
 30
0.0
 11
-309.49995660800232
 21
-85.200000000000045
 31
0.0
  0
LINE
  8
DETAIL
  6
CONTINUOUS
 62
     5
 10
-306.69574564899989
 20
-94.200000000000045
 30
0.0
 11
-306.69574564899989
 21
-97.20632159400003
 31
0.0
  0
LINE
  8
DETAIL
  6
CONTINUOUS
 62
     5
 10
-303.89995660800378
 20
-76.442087733000051
 30
0.0
 11
-303.89995660800741
 21
-196.83118765439991
 31
0.0
  0
LINE
  8
DETAIL
  6
CONTINUOUS
 62
     5
 10
-303.89995660800378
 20
76.442087733999983
 30
0.0
 11
-303.89995660800832
 21
196.74868817239431
 31
0.0
  0
LINE
  8
DETAIL
  6
CONTINUOUS
 62
     5
 10
-294.28670795400279
 20
100.3678593189999
 30
0.0
 11
-297.17345930000192
 21
96.537637104000055
 31
0.0
  0
LINE
  8
DETAIL
  6
CONTINUOUS
 62
     5
 10
-294.28670795400279
 20
88.792143648999968
 30
0.0
 11
-297.17345930000192
 21
84.961921432999929
 31
0.0
  0
LINE
  8
DETAIL
  6
CONTINUOUS
 62
     5
 10
-297.17345930000192
 20
-96.455137620000073
 30
0.0
 11
-294.28670795400279
 21
-100.285359836
 31
0.0
  0
LINE
  8
DETAIL
  6
CONTINUOUS
 62
     5
 10
-297.17345930000192
 20
-84.964470974000051
 30
0.0
 11
-294.28670795400279
 21
-88.794693189000043
 31
0.0
  0
LINE
  8
DETAIL
  6
CONTINUOUS
 62
     5
 10
-297.17345930000192
 20
96.537637104000055
 30
0.0
 11
-297.17345930000192
 21
93.610756422999998
 31
0.0
  0
LINE
  8
DETAIL
  6
CONTINUOUS
 62
     5
 10
-297.17345930000192
 20
84.961921432999929
 30
0.0
 11
-297.17345930000192
 21
82.035040752999976
 31
0.0
  0
LINE
  8
DETAIL
  6
CONTINUOUS
 62
     5
 10
-297.17345930000192
 20
-96.455137620000073
 30
0.0
 11
-297.17345930000192
 21
-93.528256940000006
 31
0.0
  0
LINE
  8
DETAIL
  6
CONTINUOUS
 62
     5
 10
-297.17345930000192
 20
-84.964470974000051
 30
0.0
 11
-297.17345930000192
 21
-82.037590293000051
 31
0.0
  0
LINE
  8
DETAIL
  6
CONTINUOUS
 62
     5
 10
-285.62645391600199
 20
96.537637104000055
 30
0.0
 11
-285.62645391600199
 21
93.610756422999998
 31
0.0
  0
LINE
  8
DETAIL
  6
CONTINUOUS
 62
     5
 10
-285.62645391700238
 20
84.961921432999929
 30
0.0
 11
-285.62645391700238
 21
82.035040752999976
 31
0.0
  0
LINE
  8
DETAIL
  6
CONTINUOUS
 62
     5
 10
-285.62645391600199
 20
-96.455137620000073
 30
0.0
 11
-285.62645391600199
 21
-93.528256940000006
 31
0.0
  0
LINE
  8
DETAIL
  6
CONTINUOUS
 62
     5
 10
-285.62645391600199
 20
-84.964470974000051
 30
0.0
 11
-285.62645391600199
 21
-82.037590293000051
 31
0.0
  0
LINE
  8
DETAIL
  6
CONTINUOUS
 62
     5
 10
-279.39995660800008
 20
-74.581681361000051
 30
0.0
 11
-279.39995660800008
 21
-64.981681361000028
 31
0.0
  0
LINE
  8
DETAIL
  6
CONTINUOUS
 62
     5
 10
-279.39995660800008
 20
64.981681361999961
 30
0.0
 11
-279.39995660800008
 21
74.581681361999983
 31
0.0
  0
LINE
  8
DETAIL
  6
CONTINUOUS
 62
     5
 10
-278.89995660800378
 20
-77.301477001999899
 30
0.0
 11
-278.89995660800741
 21
-194.82032534239991
 31
0.0
  0
LINE
  8
DETAIL
  6
CONTINUOUS
 62
     5
 10
-278.89995660800378
 20
77.301477001999956
 30
0.0
 11
-278.89995660800832
 21
194.8203253433943
 31
0.0
  0
LINE
  8
DETAIL
  6
CONTINUOUS
 62
     5
 10
-275.39995660800378
 20
-101.3252804140001
 30
0.0
 11
-275.39995660800378
 21
101.32528041400001
 31
0.0
  0
LINE
  8
DETAIL
  6
CONTINUOUS
 62
     5
 10
-272.39995660800008
 20
-101.3252804140001
 30
0.0
 11
-272.39995660800008
 21
101.32528041400001
 31
0.0
  0
LINE
  8
DETAIL
  6
CONTINUOUS
 62
     5
 10
-278.89995660800378
 20
-105.18200607199999
 30
0.0
 11
-278.39995660800008
 21
-105.18200607199999
 31
0.0
  0
LINE
  8
DETAIL
  6
CONTINUOUS
 62
     5
 10
-278.89995660800378
 20
-103.253643243
 30
0.0
 11
-278.39995660800008
 21
-103.253643243
 31
0.0
  0
LINE
  8
DETAIL
  6
CONTINUOUS
 62
     5
 10
-294.28670795400279
 20
-100.285359836
 30
0.0
 11
-288.51320526200112
 21
-100.285359836
 31
0.0
  0
LINE
  8
DETAIL
  6
CONTINUOUS
 62
     5
 10
-272.39995660800008
 20
-96.000000000000057
 30
0.0
 11
-268.39995660800008
 21
-96.000000000000057
 31
0.0
  0
LINE
  8
DETAIL
  6
CONTINUOUS
 62
     5
 10
-268.39995660800008
 20
-94.550000000000011
 30
0.0
 11
-265.19995660800299
 21
-94.550000000000011
 31
0.0
  0
LINE
  8
DETAIL
  6
CONTINUOUS
 62
     5
 10
-303.89995660800378
 20
-94.200000000000045
 30
0.0
 11
-309.49982251499932
 21
-94.200000000000045
 31
0.0
  0
LINE
  8
DETAIL
  6
CONTINUOUS
 62
     5
 10
-268.39995660800008
 20
-95.99987784800004
 30
0.0
 11
-268.39995660800008
 21
95.999877847999983
 31
0.0
  0
LINE
  8
DETAIL
  6
CONTINUOUS
 62
     5
 10
-265.19995660800299
 20
94.550000000000068
 30
0.0
 11
-265.19995660800299
 21
86.449999999999932
 31
0.0
  0
LINE
  8
DETAIL
  6
CONTINUOUS
 62
     5
 10
-265.19995660800299
 20
-86.450000000000045
 30
0.0
 11
-265.19995660800299
 21
-94.550000000000011
 31
0.0
  0
LINE
  8
DETAIL
  6
CONTINUOUS
 62
     5
 10
-263.39995660800008
 20
74.781681361999972
 30
0.0
 11
-263.39995660800008
 21
64.781681361999972
 31
0.0
  0
LINE
  8
DETAIL
  6
CONTINUOUS
 62
     5
 10
-263.39995660800008
 20
-64.781681361000096
 30
0.0
 11
-263.39995660800008
 21
-74.781681360999983
 31
0.0
  0
LINE
  8
DETAIL
  6
CONTINUOUS
 62
     5
 10
-262.39995660800008
 20
91.994698137
 30
0.0
 11
-262.39995660800008
 21
89.005301863999989
 31
0.0
  0
LINE
  8
DETAIL
  6
CONTINUOUS
 62
     5
 10
-262.39995660800008
 20
-89.005301863
 30
0.0
 11
-262.39995660800008
 21
-91.994698136000011
 31
0.0
  0
LINE
  8
DETAIL
  6
CONTINUOUS
 62
     5
 10
-261.39995660800378
 20
72.781681361999972
 30
0.0
 11
-261.39995660800378
 21
66.781681361999972
 31
0.0
  0
LINE
  8
DETAIL
  6
CONTINUOUS
 62
     5
 10
-261.39995660800378
 20
-66.781681361000039
 30
0.0
 11
-261.39995660800378
 21
-72.781681361000039
 31
0.0
  0
LINE
  8
DETAIL
  6
CONTINUOUS
 62
     5
 10
-146.91944341547881
 20
249.7199575293979
 30
0.0
 11
-147.49999999947701
 21
248.71440402939791
 31
0.0
  0
LINE
  8
DETAIL
  6
CONTINUOUS
 62
     5
 10
-268.39995660800008
 20
-92.522437298000057
 30
0.0
 11
-265.19995660800299
 21
-92.522437298000057
 31
0.0
  0
LINE
  8
DETAIL
  6
CONTINUOUS
 62
     5
 10
-265.19995660800299
 20
-92.000000000000057
 30
0.0
 11
-262.39995660800008
 21
-92.000000000000057
 31
0.0
  0
LINE
  8
DETAIL
  6
CONTINUOUS
 62
     5
 10
-265.19995660800299
 20
-89.0
 30
0.0
 11
-262.39995660800008
 21
-89.0
 31
0.0
  0
LINE
  8
DETAIL
  6
CONTINUOUS
 62
     5
 10
-294.28670795400279
 20
-88.794693189000043
 30
0.0
 11
-288.51320526200112
 21
-88.794693189000043
 31
0.0
  0
LINE
  8
DETAIL
  6
CONTINUOUS
 62
     5
 10
-268.39995660800008
 20
-88.477562701000011
 30
0.0
 11
-265.19995660800299
 21
-88.477562701000011
 31
0.0
  0
LINE
  8
DETAIL
  6
CONTINUOUS
 62
     5
 10
-268.39995660800008
 20
-86.450000000000045
 30
0.0
 11
-265.19995660800299
 21
-86.450000000000045
 31
0.0
  0
LINE
  8
DETAIL
  6
CONTINUOUS
 62
     5
 10
-303.89995660800378
 20
-84.200000000000045
 30
0.0
 11
-310.49995660800232
 21
-84.200000000000045
 31
0.0
  0
LINE
  8
DETAIL
  6
CONTINUOUS
 62
     5
 10
-332.49995660799868
 20
-82.000000000000057
 30
0.0
 11
-303.89995660800378
 21
-82.000000000000057
 31
0.0
  0
LINE
  8
DETAIL
  6
CONTINUOUS
 62
     5
 10
-263.89995660800378
 20
-81.700000000000045
 30
0.0
 11
-220.0
 21
-81.700000000000045
 31
0.0
  0
LINE
  8
DETAIL
  6
CONTINUOUS
 62
     5
 10
-300.89995660800008
 20
-74.920844189000036
 30
0.0
 11
-281.89995660800008
 21
-74.920844189000036
 31
0.0
  0
LINE
  8
DETAIL
  6
CONTINUOUS
 62
     5
 10
-279.19995660799941
 20
-74.781681360999983
 30
0.0
 11
-275.59995660800092
 21
-74.781681360999983
 31
0.0
  0
LINE
  8
DETAIL
  6
CONTINUOUS
 62
     5
 10
-268.39995660800008
 20
-74.781681360999983
 30
0.0
 11
-263.39995660800008
 21
-74.781681360999983
 31
0.0
  0
LINE
  8
DETAIL
  6
CONTINUOUS
 62
     5
 10
-279.39995660800008
 20
-74.143954404000056
 30
0.0
 11
-300.89995660800008
 21
-74.143954404000056
 31
0.0
  0
LINE
  8
DETAIL
  6
CONTINUOUS
 62
     5
 10
-263.39995660800008
 20
-72.781681361000039
 30
0.0
 11
-261.39995660800378
 21
-72.781681361000039
 31
0.0
  0
LINE
  8
DETAIL
  6
CONTINUOUS
 62
     5
 10
-279.39995660800008
 20
-69.781681360999983
 30
0.0
 11
-275.39995660800378
 21
-69.781681360999983
 31
0.0
  0
LINE
  8
DETAIL
  6
CONTINUOUS
 62
     5
 10
-268.39995660800008
 20
-69.781681360999983
 30
0.0
 11
-263.39995660800378
 21
-69.781681360999983
 31
0.0
  0
LINE
  8
DETAIL
  6
CONTINUOUS
 62
     5
 10
-263.39995660800008
 20
-66.781681361000039
 30
0.0
 11
-261.39995660800378
 21
-66.781681361000039
 31
0.0
  0
LINE
  8
DETAIL
  6
CONTINUOUS
 62
     5
 10
-279.19995660799941
 20
-64.781681361000096
 30
0.0
 11
-275.59995660800092
 21
-64.781681361000096
 31
0.0
  0
LINE
  8
DETAIL
  6
CONTINUOUS
 62
     5
 10
-268.39995660800008
 20
-64.781681361000096
 30
0.0
 11
-263.39995660800008
 21
-64.781681361000096
 31
0.0
  0
LINE
  8
DETAIL
  6
CONTINUOUS
 62
     5
 10
-288.51320526200112
 20
-88.794693189000043
 30
0.0
 11
-285.62645391600199
 21
-84.964470974000051
 31
0.0
  0
LINE
  8
DETAIL
  6
CONTINUOUS
 62
     5
 10
-288.51320526200112
 20
-100.285359836
 30
0.0
 11
-285.62645391600199
 21
-96.455137620000073
 31
0.0
  0
LINE
  8
DETAIL
  6
CONTINUOUS
 62
     5
 10
-285.62645391700238
 20
84.961921432999929
 30
0.0
 11
-288.51320526200112
 21
88.792143648999968
 31
0.0
  0
LINE
  8
DETAIL
  6
CONTINUOUS
 62
     5
 10
-285.62645391600199
 20
96.537637104000055
 30
0.0
 11
-288.51320526200112
 21
100.3678593189999
 31
0.0
  0
LINE
  8
DETAIL
  6
CONTINUOUS
 62
     5
 10
-132.0
 20
-0.5
 30
0.0
 11
-0.0000000000009095
 21
-0.5
 31
0.0
  0
LINE
  8
BASIS
  6
DASHDOT
 62
     6
 10
-355.8253001030007
 20
0.0
 30
0.0
 11
15.97904075300085
 21
0.0
 31
0.0
  0
LINE
  8
DETAIL
  6
CONTINUOUS
 62
     5
 10
-132.0
 20
0.5
 30
0.0
 11
-0.0000000000009095
 21
0.5
 31
0.0
  0
LINE
  8
DETAIL
  6
CONTINUOUS
 62
     5
 10
-279.19995660799941
 20
64.781681361999972
 30
0.0
 11
-275.59995660800092
 21
64.781681361999972
 31
0.0
  0
LINE
  8
DETAIL
  6
CONTINUOUS
 62
     5
 10
-268.39995660800008
 20
64.781681361999972
 30
0.0
 11
-263.39995660800008
 21
64.781681361999972
 31
0.0
  0
LINE
  8
DETAIL
  6
CONTINUOUS
 62
     5
 10
-149.0000000000073
 20
-252.7762889453999
 30
0.0
 11
-149.0000000000073
 21
-246.54195563739989
 31
0.0
  0
LINE
  8
DETAIL
  6
CONTINUOUS
 62
     5
 10
-149.0000000000073
 20
-228.91064790439989
 30
0.0
 11
-149.0000000000073
 21
-219.3106479043999
 31
0.0
  0
LINE
  8
DETAIL
  6
CONTINUOUS
 62
     5
 10
-148.99999999948071
 20
246.54195563739779
 30
0.0
 11
-148.99999999948071
 21
252.69378946339791
 31
0.0
  0
LINE
  8
DETAIL
  6
CONTINUOUS
 62
     5
 10
-147.50000000000361
 20
-248.79690351240001
 30
0.0
 11
-147.50000000000361
 21
-235.79690351239989
 31
0.0
  0
LINE
  8
DETAIL
  6
CONTINUOUS
 62
     5
 10
-147.49999999947701
 20
235.71473591239791
 30
0.0
 11
-147.49999999947701
 21
248.71407214739779
 31
0.0
  0
LINE
  8
DETAIL
  6
CONTINUOUS
 62
     5
 10
-145.00000000000361
 20
-262.7532244233999
 30
0.0
 11
-145.00000000000361
 21
-248.79690351240001
 31
0.0
  0
LINE
  8
DETAIL
  6
CONTINUOUS
 62
     5
 10
-145.00000000000361
 20
-235.79690351239989
 30
0.0
 11
-145.00000000000361
 21
-209.3337124263999
 31
0.0
  0
LINE
  8
DETAIL
  6
CONTINUOUS
 62
     5
 10
-144.99999999947701
 20
249.7199575293979
 30
0.0
 11
-144.99999999947701
 21
262.67072494139791
 31
0.0
  0
LINE
  8
DETAIL
  6
CONTINUOUS
 62
     5
 10
-142.0
 20
-305.00000000000011
 30
0.0
 11
-142.0
 21
305.0
 31
0.0
  0
LINE
  8
DETAIL
  6
CONTINUOUS
 62
     5
 10
-263.39995660800008
 20
66.781681361999972
 30
0.0
 11
-261.39995660800378
 21
66.781681361999972
 31
0.0
  0
LINE
  8
DETAIL
  6
CONTINUOUS
 62
     5
 10
-279.39995660800008
 20
69.781681361999972
 30
0.0
 11
-275.39995660800378
 21
69.781681361999972
 31
0.0
  0
LINE
  8
DETAIL
  6
CONTINUOUS
 62
     5
 10
-268.39995660800008
 20
69.781681361999972
 30
0.0
 11
-263.39995660800008
 21
69.781681361999972
 31
0.0
  0
LINE
  8
DETAIL
  6
CONTINUOUS
 62
     5
 10
-263.39995660800008
 20
72.781681361999972
 30
0.0
 11
-261.39995660800378
 21
72.781681361999972
 31
0.0
  0
LINE
  8
DETAIL
  6
CONTINUOUS
 62
     5
 10
-279.39995660800008
 20
74.143954405000045
 30
0.0
 11
-300.89995660800008
 21
74.143954405000045
 31
0.0
  0
LINE
  8
DETAIL
  6
CONTINUOUS
 62
     5
 10
-279.19995660799941
 20
74.781681361999972
 30
0.0
 11
-275.59995660800092
 21
74.781681361999972
 31
0.0
  0
LINE
  8
DETAIL
  6
CONTINUOUS
 62
     5
 10
-268.39995660800008
 20
74.781681361999972
 30
0.0
 11
-263.39995660800008
 21
74.781681361999972
 31
0.0
  0
LINE
  8
DETAIL
  6
CONTINUOUS
 62
     5
 10
-300.89995660800008
 20
75.003343672999961
 30
0.0
 11
-281.89995660800008
 21
75.003343672999961
 31
0.0
  0
LINE
  8
DETAIL
  6
CONTINUOUS
 62
     5
 10
-332.49995660799868
 20
82.0
 30
0.0
 11
-303.89995660800378
 21
82.0
 31
0.0
  0
LINE
  8
DETAIL
  6
CONTINUOUS
 62
     5
 10
-263.89995660800378
 20
81.699999999999989
 30
0.0
 11
-220.0
 21
81.699999999999989
 31
0.0
  0
LINE
  8
DETAIL
  6
CONTINUOUS
 62
     5
 10
-132.0
 20
-310.00000000000011
 30
0.0
 11
-132.0
 21
310.0
 31
0.0
  0
LINE
  8
DETAIL
  6
CONTINUOUS
 62
     5
 10
-268.39995660800008
 20
86.449999999999932
 30
0.0
 11
-265.19995660800299
 21
86.449999999999932
 31
0.0
  0
LINE
  8
DETAIL
  6
CONTINUOUS
 62
     5
 10
-268.39995660800008
 20
88.477562702
 30
0.0
 11
-265.19995660800299
 21
88.477562702
 31
0.0
  0
LINE
  8
DETAIL
  6
CONTINUOUS
 62
     5
 10
-288.51320526200112
 20
88.792143648999968
 30
0.0
 11
-294.28670795400279
 21
88.792143648999968
 31
0.0
  0
LINE
  8
DETAIL
  6
CONTINUOUS
 62
     5
 10
-265.19995660800299
 20
89.0
 30
0.0
 11
-262.39995660800008
 21
89.0
 31
0.0
  0
LINE
  8
DETAIL
  6
CONTINUOUS
 62
     5
 10
-265.19995660800299
 20
92.0
 30
0.0
 11
-262.39995660800008
 21
92.0
 31
0.0
  0
LINE
  8
DETAIL
  6
CONTINUOUS
 62
     5
 10
-268.39995660800008
 20
92.522437298999989
 30
0.0
 11
-265.19995660800299
 21
92.522437298999989
 31
0.0
  0
LINE
  8
DETAIL
  6
CONTINUOUS
 62
     5
 10
-268.39995660800008
 20
94.550000000000068
 30
0.0
 11
-265.19995660800299
 21
94.550000000000068
 31
0.0
  0
LINE
  8
DETAIL
  6
CONTINUOUS
 62
     5
 10
-272.39995660800008
 20
96.0
 30
0.0
 11
-268.39995660800008
 21
96.0
 31
0.0
  0
LINE
  8
DETAIL
  6
CONTINUOUS
 62
     5
 10
-288.51320526200112
 20
100.3678593189999
 30
0.0
 11
-294.28670795400279
 21
100.3678593189999
 31
0.0
  0
LINE
  8
DETAIL
  6
CONTINUOUS
 62
     5
 10
-278.89995660800378
 20
103.2536432429999
 30
0.0
 11
-278.39995660800008
 21
103.2536432429999
 31
0.0
  0
LINE
  8
DETAIL
  6
CONTINUOUS
 62
     5
 10
-278.89995660800378
 20
105.18200607199999
 30
0.0
 11
-278.39995660800008
 21
105.18200607199999
 31
0.0
  0
LINE
  8
DETAIL
  6
CONTINUOUS
 62
     5
 10
-3.0000000000009091
 20
-305.00000000000011
 30
0.0
 11
-3.0000000000009091
 21
-303.94454364800009
 31
0.0
  0
LINE
  8
DETAIL
  6
CONTINUOUS
 62
     5
 10
-3.0000000000009091
 20
-250.055456351
 30
0.0
 11
-3.0000000000009091
 21
-247.25735931300011
 31
0.0
  0
LINE
  8
DETAIL
  6
CONTINUOUS
 62
     5
 10
-3.0000000000009091
 20
247.25735931300011
 30
0.0
 11
-3.0000000000009091
 21
250.05545635199999
 31
0.0
  0
LINE
  8
DETAIL
  6
CONTINUOUS
 62
     5
 10
-3.0000000000009091
 20
303.94454364900002
 30
0.0
 11
-3.0000000000009091
 21
305.0
 31
0.0
  0
LINE
  8
DETAIL
  6
CONTINUOUS
 62
     5
 10
-2.0000000000009091
 20
0.5
 30
0.0
 11
-2.0000000000009091
 21
-0.5
 31
0.0
  0
LINE
  8
DETAIL
  6
CONTINUOUS
 62
     5
 10
-1.5000000000009091
 20
-251.1161165230001
 30
0.0
 11
-1.5000000000009091
 21
-305.00520382000002
 31
0.0
  0
LINE
  8
DETAIL
  6
CONTINUOUS
 62
     5
 10
-1.5000000000009091
 20
251.11611652399989
 30
0.0
 11
-1.5000000000009091
 21
305.00520381999991
 31
0.0
  0
LINE
  8
DETAIL
  6
CONTINUOUS
 62
     5
 10
-0.0000000000009095
 20
305.00520381999991
 30
0.0
 11
-0.0000000000009095
 21
251.11611652399989
 31
0.0
  0
LINE
  8
DETAIL
  6
CONTINUOUS
 62
     5
 10
-0.0000000000009095
 20
247.25735931300011
 30
0.0
 11
-0.0000000000009095
 21
0.5
 31
0.0
  0
LINE
  8
DETAIL
  6
CONTINUOUS
 62
     5
 10
-0.0000000000009095
 20
-305.00520382000002
 30
0.0
 11
-0.0000000000009095
 21
-251.1161165230001
 31
0.0
  0
LINE
  8
DETAIL
  6
CONTINUOUS
 62
     5
 10
-0.0000000000009095
 20
-247.25735931300011
 30
0.0
 11
-0.0000000000009095
 21
-0.5
 31
0.0
  0
LINE
  8
DETAIL
  6
CONTINUOUS
 62
     5
 10
-146.91944341547881
 20
234.70885053039791
 30
0.0
 11
-147.49999999947701
 21
235.71440402939791
 31
0.0
  0
LINE
  8
DETAIL
  6
CONTINUOUS
 62
     5
 10
-3.0000000000009091
 20
247.25735931300011
 30
0.0
 11
-0.0000000000009095
 21
247.25735931300011
 31
0.0
  0
LINE
  8
DETAIL
  6
CONTINUOUS
 62
     5
 10
-242.89946229900491
 20
225.4624817303999
 30
0.0
 11
-148.0000000000073
 21
225.4624817303999
 31
0.0
  0
LINE
  8
DETAIL
  6
CONTINUOUS
 62
     5
 10
-141.99999999947701
 20
234.70885053039791
 30
0.0
 11
-146.91944341547881
 21
234.70885053039791
 31
0.0
  0
LINE
  8
DETAIL
  6
CONTINUOUS
 62
     5
 10
-141.99999999947701
 20
238.46162728039781
 30
0.0
 11
-147.4999999994734
 21
238.46162728039781
 31
0.0
  0
LINE
  8
DETAIL
  6
CONTINUOUS
 62
     5
 10
-147.5000000000073
 20
244.6135928084
 30
0.0
 11
-242.89946229900491
 21
244.6135928084
 31
0.0
  0
LINE
  8
DETAIL
  6
CONTINUOUS
 62
     5
 10
-141.99999999947701
 20
245.96718077939781
 30
0.0
 11
-147.4999999994734
 21
245.96718077939781
 31
0.0
  0
LINE
  8
DETAIL
  6
CONTINUOUS
 62
     5
 10
-147.5000000000073
 20
246.54195563740001
 30
0.0
 11
-242.89946229900491
 21
246.54195563739981
 31
0.0
  0
LINE
  8
DETAIL
  6
CONTINUOUS
 62
     5
 10
-148.99999999948071
 20
247.89378946339789
 30
0.0
 11
-147.49999999947701
 21
247.89378946339789
 31
0.0
  0
LINE
  8
DETAIL
  6
CONTINUOUS
 62
     5
 10
-141.99999999947701
 20
249.7199575293979
 30
0.0
 11
-146.91944341547881
 21
249.7199575293979
 31
0.0
  0
LINE
  8
DETAIL
  6
CONTINUOUS
 62
     5
 10
-148.79999999948001
 20
252.89378946339789
 30
0.0
 11
-145.1999999994778
 21
252.89378946339789
 31
0.0
  0
LINE
  8
DETAIL
  6
CONTINUOUS
 62
     5
 10
-141.99999999947701
 20
262.67072494139791
 30
0.0
 11
-144.99999999947701
 21
262.67072494139791
 31
0.0
  0
LINE
  8
DETAIL
  6
CONTINUOUS
 62
     5
 10
-132.0
 20
305.0
 30
0.0
 11
-3.0000000000009091
 21
305.0
 31
0.0
  0
LINE
  8
DETAIL
  6
CONTINUOUS
 62
     5
 10
-0.0000000000009095
 20
305.00520381999991
 30
0.0
 11
-1.5000000000009091
 21
305.00520381999991
 31
0.0
  0
LINE
  8
DETAIL
  6
CONTINUOUS
 62
     5
 10
-137.0
 20
310.0
 30
0.0
 11
-132.0
 21
310.0
 31
0.0
  0
ARC
  8
DETAIL
  6
CONTINUOUS
 62
     5
 10
-265.73997533500187
 20
-194.81955729640001
 30
0.0
 40
38.159981281
 50
180.00115319290171
 51
182.89536028629749
  0
ARC
  8
DETAIL
  6
CONTINUOUS
 62
     5
 10
-332.49995660799868
 20
-74.500000000000057
 30
0.0
 40
7.5
 50
180.0
 51
270.0
  0
ARC
  8
DETAIL
  6
CONTINUOUS
 62
     5
 10
-263.89995660800378
 20
-86.200000000000045
 30
0.0
 40
4.5
 50
90.0
 51
180.0
  0
ARC
  8
DETAIL
  6
CONTINUOUS
 62
     5
 10
-310.49995660800232
 20
-83.200000000000045
 30
0.0
 40
1.0
 50
180.0
 51
270.0
  0
ARC
  8
DETAIL
  6
CONTINUOUS
 62
     5
 10
-310.49995660800232
 20
-85.200000000000045
 30
0.0
 40
1.0
 50
0.0
 51
90.0
  0
ARC
  8
DETAIL
  6
CONTINUOUS
 62
     5
 10
-279.19995660799941
 20
-64.981681361000028
 30
0.0
 40
0.2
 50
90.000000000104222
 51
180.0
  0
ARC
  8
DETAIL
  6
CONTINUOUS
 62
     5
 10
-279.19995660799941
 20
-74.581681361000051
 30
0.0
 40
0.2
 50
180.00000000009771
 51
269.99999999989569
  0
ARC
  8
DETAIL
  6
CONTINUOUS
 62
     5
 10
-275.59995660800092
 20
-74.581681361000051
 30
0.0
 40
0.2
 50
269.99999999989569
 51
0.0
  0
ARC
  8
DETAIL
  6
CONTINUOUS
 62
     5
 10
-275.59995660800092
 20
-64.981681361000028
 30
0.0
 40
0.2
 50
0.0
 51
90.000000000104222
  0
ARC
  8
DETAIL
  6
CONTINUOUS
 62
     5
 10
-265.73997533500278
 20
194.81955729639441
 30
0.0
 40
38.159981281
 50
177.10463971370251
 51
179.99884680709829
  0
ARC
  8
DETAIL
  6
CONTINUOUS
 62
     5
 10
-332.49995660799868
 20
74.5
 30
0.0
 40
7.5
 50
90.0
 51
180.0
  0
ARC
  8
DETAIL
  6
CONTINUOUS
 62
     5
 10
-263.89995660800378
 20
86.199999999999932
 30
0.0
 40
4.5
 50
180.0
 51
270.0
  0
ARC
  8
DETAIL
  6
CONTINUOUS
 62
     5
 10
-279.19995660799941
 20
74.581681361999983
 30
0.0
 40
0.2
 50
90.000000000104222
 51
180.0
  0
ARC
  8
DETAIL
  6
CONTINUOUS
 62
     5
 10
-279.19995660799941
 20
64.981681361999961
 30
0.0
 40
0.2
 50
180.00000000009771
 51
269.99999999989569
  0
ARC
  8
DETAIL
  6
CONTINUOUS
 62
     5
 10
-275.59995660800092
 20
64.981681361999961
 30
0.0
 40
0.2
 50
269.99999999989569
 51
0.0
  0
ARC
  8
DETAIL
  6
CONTINUOUS
 62
     5
 10
-275.59995660800092
 20
74.581681361999983
 30
0.0
 40
0.2
 50
0.0
 51
90.000000000104222
  0
CIRCLE
  8
DETAIL
  6
CONTINUOUS
 62
     5
 10
-67.042858974258706
 20
-227.75735931300011
 30
0.0
 40
6.5
  0
ARC
  8
DETAIL
  6
CONTINUOUS
 62
     5
 10
-137.0
 20
-305.00000000000011
 30
0.0
 40
5.0
 50
180.0
 51
270.0
  0
ARC
  8
DETAIL
  6
CONTINUOUS
 62
     5
 10
-3.0000000000009091
 20
-302.0
 30
0.0
 40
3.0
 50
270.0
 51
298.07776528020759
  0
ARC
  8
DETAIL
  6
CONTINUOUS
 62
     5
 10
-148.80000000000649
 20
-252.7762889453999
 30
0.0
 40
0.2
 50
180.00000000009771
 51
269.99999999989569
  0
ARC
  8
DETAIL
  6
CONTINUOUS
 62
     5
 10
-145.20000000000439
 20
-252.7762889453999
 30
0.0
 40
0.2
 50
269.99999999989569
 51
0.0
  0
ARC
  8
DETAIL
  6
CONTINUOUS
 62
     5
 10
-148.80000000000649
 20
-219.3106479043999
 30
0.0
 40
0.2
 50
90.000000000104222
 51
180.0
  0
ARC
  8
DETAIL
  6
CONTINUOUS
 62
     5
 10
-148.80000000000649
 20
-228.91064790439989
 30
0.0
 40
0.2
 50
180.00000000009771
 51
269.99999999989569
  0
ARC
  8
DETAIL
  6
CONTINUOUS
 62
     5
 10
-145.20000000000439
 20
-219.3106479043999
 30
0.0
 40
0.2
 50
0.0
 51
90.000000000104222
  0
ARC
  8
DETAIL
  6
CONTINUOUS
 62
     5
 10
-145.20000000000439
 20
-228.91064790439989
 30
0.0
 40
0.2
 50
269.99999999989569
 51
0.0
  0
ARC
  8
DETAIL
  6
CONTINUOUS
 62
     5
 10
-137.0
 20
305.0
 30
0.0
 40
5.0
 50
90.0
 51
180.0
  0
ARC
  8
DETAIL
  6
CONTINUOUS
 62
     5
 10
-3.0000000000009091
 20
302.00000000000011
 30
0.0
 40
3.0
 50
61.922234719792428
 51
90.0
  0
ARC
  8
DETAIL
  6
CONTINUOUS
 62
     5
 10
-144.69529046847771
 20
236.58551024039789
 30
0.0
 40
2.8047095440000001
 50
180.00554296499871
 51
182.94743713529999
  0
ARC
  8
DETAIL
  6
CONTINUOUS
 62
     5
 10
-144.6953140034793
 20
247.8432977213979
 30
0.0
 40
2.8046860090000001
 50
177.052557661002
 51
179.99445501719629
  0
ARC
  8
DETAIL
  6
CONTINUOUS
 62
     5
 10
-148.79999999948001
 20
252.69378946339791
 30
0.0
 40
0.2
 50
90.000000000104222
 51
180.00000000009771
  0
ARC
  8
DETAIL
  6
CONTINUOUS
 62
     5
 10
-145.1999999994778
 20
252.69378946339791
 30
0.0
 40
0.2
 50
0.0
 51
90.000000000104222
  0
LINE
  8
DETAIL
  6
CONTINUOUS
 62
     5
 10
-297.17345930000192
 20
-93.528256940000006
 30
0.0
 11
-294.28670795400279
 21
-89.698034724000081
 31
0.0
  0
LINE
  8
DETAIL
  6
CONTINUOUS
 62
     5
 10
-294.28670795400279
 20
-89.698034724000081
 30
0.0
 11
-288.51320526200112
 21
-89.698034724000081
 31
0.0
  0
LINE
  8
DETAIL
  6
CONTINUOUS
 62
     5
 10
-288.51320526200112
 20
-89.698034724000081
 30
0.0
 11
-285.62645391600199
 21
-93.528256940000006
 31
0.0
  0
LINE
  8
DETAIL
  6
CONTINUOUS
 62
     5
 10
-294.28670795400279
 20
-78.207368078000172
 30
0.0
 11
-297.17345930000192
 21
-82.037590293000051
 31
0.0
  0
LINE
  8
DETAIL
  6
CONTINUOUS
 62
     5
 10
-285.62645391600199
 20
-82.037590293000051
 30
0.0
 11
-288.51320526200112
 21
-78.207368078000172
 31
0.0
  0
LINE
  8
DETAIL
  6
CONTINUOUS
 62
     5
 10
-288.51320526200112
 20
-78.207368078000172
 30
0.0
 11
-294.28670795400279
 21
-78.207368078000172
 31
0.0
  0
LINE
  8
DETAIL
  6
CONTINUOUS
 62
     5
 10
-297.17345930000192
 20
82.035040752999976
 30
0.0
 11
-294.28670795400279
 21
78.204818537999984
 31
0.0
  0
LINE
  8
DETAIL
  6
CONTINUOUS
 62
     5
 10
-294.28670795400279
 20
78.204818537999984
 30
0.0
 11
-288.51320526200112
 21
78.204818537999984
 31
0.0
  0
LINE
  8
DETAIL
  6
CONTINUOUS
 62
     5
 10
-288.51320526200112
 20
78.204818537999984
 30
0.0
 11
-285.62645391600199
 21
82.035040752999976
 31
0.0
  0
LINE
  8
DETAIL
  6
CONTINUOUS
 62
     5
 10
-297.17345930000192
 20
93.610756422999998
 30
0.0
 11
-294.28670795400279
 21
89.780534207999949
 31
0.0
  0
LINE
  8
DETAIL
  6
CONTINUOUS
 62
     5
 10
-294.28670795400279
 20
89.780534207999949
 30
0.0
 11
-288.51320526200112
 21
89.780534207999949
 31
0.0
  0
LINE
  8
DETAIL
  6
CONTINUOUS
 62
     5
 10
-288.51320526200112
 20
89.780534207999949
 30
0.0
 11
-285.62645391600199
 21
93.610756422999998
 31
0.0
  0
ARC
  8
DETAIL
  6
CONTINUOUS
 62
     5
 10
-257.91617926271653
 20
-194.81086447361449
 30
0.0
 40
46.028137966857138
 50
182.51570448907961
 51
238.76687302306459
  0
ARC
  8
DETAIL
  6
CONTINUOUS
 62
     5
 10
-243.58991423558291
 20
-181.43260817834809
 30
0.0
 40
65.113008304182316
 50
234.08655619982821
 51
270.60757019773592
  0
ARC
  8
DETAIL
  6
CONTINUOUS
 62
     5
 10
-257.03583153390719
 20
-192.22236533915611
 30
0.0
 40
47.090205585602753
 50
185.61665577092111
 51
239.4392300471809
  0
ARC
  8
DETAIL
  6
CONTINUOUS
 62
     5
 10
-243.54410267710591
 20
-179.54215908640251
 30
0.0
 40
65.074626759234249
 50
234.88215133501961
 51
270.56759107081058
  0
ARC
  8
DETAIL
  6
CONTINUOUS
 62
     5
 10
-257.61339667483838
 20
194.63626349558379
 30
0.0
 40
46.334738247475073
 50
121.44132036321039
 51
177.38695004819539
  0
ARC
  8
DETAIL
  6
CONTINUOUS
 62
     5
 10
-243.1011386300197
 20
179.89671722002791
 30
0.0
 40
66.645543564821978
 50
89.826616760675066
 51
125.4792568391365
  0
ARC
  8
DETAIL
  6
CONTINUOUS
 62
     5
 10
-257.17598304059169
 20
192.49803519754369
 30
0.0
 40
46.78157267749738
 50
120.5846302660225
 51
177.1565036300841
  0
ARC
  8
DETAIL
  6
CONTINUOUS
 62
     5
 10
-243.0414214206703
 20
177.92576442721881
 30
0.0
 40
66.687979475988001
 50
89.878034021385503
 51
124.6722235701633
  0
ARC
  8
DETAIL
  6
CONTINUOUS
 62
     5
 10
-242.98922511965969
 20
189.09894551962429
 30
0.0
 40
36.363646999663537
 50
89.858566551267415
 51
170.94758800341549
  0
ARC
  8
DETAIL
  6
CONTINUOUS
 62
     5
 10
-242.98922511965969
 20
-189.18144500262741
 30
0.0
 40
36.363646999663288
 50
189.05241199658451
 51
270.14143344873258
  0
ARC
  8
DETAIL
  6
CONTINUOUS
 62
     5
 10
-300.91453547567471
 20
-77.232100642671185
 30
0.0
 40
3.0881806512569732
 50
89.729513657260213
 51
165.17792544846191
  0
ARC
  8
DETAIL
  6
CONTINUOUS
 62
     5
 10
-300.79445888513601
 20
-78.165739284263736
 30
0.0
 40
3.2466096083136091
 50
91.862139048483641
 51
163.04530005719661
  0
ARC
  8
DETAIL
  6
CONTINUOUS
 62
     5
 10
-300.91453547567471
 20
77.232100642670275
 30
0.0
 40
3.0881806512569732
 50
194.82207455153801
 51
270.27048634273979
  0
ARC
  8
DETAIL
  6
CONTINUOUS
 62
     5
 10
-300.97512284137059
 20
78.040405948720718
 30
0.0
 40
3.0379923023658701
 50
195.68719515056279
 51
271.41776115025061
  0
ARC
  8
DETAIL
  6
CONTINUOUS
 62
     5
 10
-281.6177929697842
 20
77.742182801628417
 30
0.0
 40
2.7533354483688122
 50
264.11796400412362
 51
350.7894751013867
  0
ARC
  8
DETAIL
  6
CONTINUOUS
 62
     5
 10
-281.76328281904352
 20
-77.829182211764419
 30
0.0
 40
2.9115476604787638
 50
10.442321028663301
 51
92.690565631466129
  0
ARC
  8
DETAIL
  6
CONTINUOUS
 62
     5
 10
-277.6468745081047
 20
99.758059528696435
 30
0.0
 40
5.4759774245160129
 50
16.630549625665729
 51
97.904635956718096
  0
ARC
  8
DETAIL
  6
CONTINUOUS
 62
     5
 10
-278.02341555819288
 20
100.5416699711317
 30
0.0
 40
2.7379887124529589
 50
16.63054962918207
 51
97.904635953193363
  0
ARC
  8
DETAIL
  6
CONTINUOUS
 62
     5
 10
-277.6468745081047
 20
-99.758059528695298
 30
0.0
 40
5.4759774245160129
 50
262.0953640432819
 51
343.36945037433429
  0
ARC
  8
DETAIL
  6
CONTINUOUS
 62
     5
 10
-278.02341555819288
 20
-100.5416699711305
 30
0.0
 40
2.7379887124529589
 50
262.09536404680671
 51
343.36945037081802
  0
ARC
  8
DETAIL
  6
CONTINUOUS
 62
     5
 10
-283.8089635401584
 20
-95.692335644837613
 30
0.0
 40
22.936803368208238
 50
183.78466508546501
 51
208.84498022842209
  0
ARC
  8
DETAIL
  6
CONTINUOUS
 62
     5
 10
-148.3102214017199
 20
232.5406348655583
 30
0.0
 40
7.0849480677583792
 50
272.50955424239709
 51
332.9552601887429
  0
ARC
  8
DETAIL
  6
CONTINUOUS
 62
     5
 10
-2.8344583887555932
 20
251.41233541784791
 30
0.0
 40
1.3669399490802361
 50
263.04419018000061
 51
347.48458919673061
  0
ARC
  8
DETAIL
  6
CONTINUOUS
 62
     5
 10
-2.6679949390618281
 20
251.70725063526149
 30
0.0
 40
2.73269766574293
 50
263.02169424959408
 51
347.50708512710298
  0
ARC
  8
DETAIL
  6
CONTINUOUS
 62
     5
 10
-2.8344583887555932
 20
-251.41233541784791
 30
0.0
 40
1.3669399490802361
 50
12.515410803269409
 51
96.955809819999359
  0
ARC
  8
DETAIL
  6
CONTINUOUS
 62
     5
 10
-2.6679949390618281
 20
-251.70725063526149
 30
0.0
 40
2.73269766574293
 50
12.49291487289697
 51
96.978305750405909
  0
ARC
  8
DETAIL
  6
CONTINUOUS
 62
     5
 10
-2.8344583887555932
 20
305.30142271512841
 30
0.0
 40
1.366939949357723
 50
263.04419018141789
 51
347.48458914433269
  0
ARC
  8
DETAIL
  6
CONTINUOUS
 62
     5
 10
-2.8344583887555932
 20
-305.30142271512841
 30
0.0
 40
1.366939949357723
 50
12.51541085566727
 51
96.955809818582026
  0
LINE
  8
SIZE
  6
CONTINUOUS
 62
    30
 10
-0.0000000000009083
 20
325.00520381999991
 30
0.0
 11
-0.0000000000008967
 21
513.32170324173387
 31
0.0
  0
LINE
  8
SIZE
  6
CONTINUOUS
 62
    30
 10
-339.99995660799868
 20
94.5
 30
0.0
 11
-339.99995660799868
 21
513.32170324173387
 31
0.0
  0
LINE
  8
SIZE
  6
CONTINUOUS
 62
    30
 10
-12.000000000000901
 20
493.32170324173393
 30
0.0
 11
-327.99995660799868
 21
493.32170324173393
 31
0.0
  0
CIRCLE
  8
SIZE
  6
CONTINUOUS
 62
    30
 10
-0.000000000000898
 20
493.32170324173393
 30
0.0
 40
6.0
  0
LINE
  8
SIZE
  6
CONTINUOUS
 62
    30
 10
-0.000000000000898
 20
493.32170324173393
 30
0.0
 11
-12.000000000000899
 21
493.32170324173393
 31
0.0
  0
CIRCLE
  8
SIZE
  6
CONTINUOUS
 62
    30
 10
-339.99995660799868
 20
493.32170324173393
 30
0.0
 40
6.0
  0
LINE
  8
SIZE
  6
CONTINUOUS
 62
    30
 10
-339.99995660799868
 20
493.32170324173393
 30
0.0
 11
-327.99995660799868
 21
493.32170324173393
 31
0.0
  0
TEXT
  8
SIZE
  6
CONTINUOUS
 62
    30
 10
-251.50397830399982
 20
518.32170324173387
 30
0.0
 40
64.0
  1
340
 50
0.0
 41
0.9
 51
0.0
  7
STANDARD
 71
     0
 72
     1
 11
-169.9999783039998
 21
518.32170324173387
 31
0.0
210
0.0
220
0.0
230
1.0
  0
POINT
  8
DEFPOINTS
  6
CONTINUOUS
 62
    30
 10
-0.0000000000009095
 20
305.00520381999991
 30
0.0
  0
POINT
  8
DEFPOINTS
  6
CONTINUOUS
 62
    30
 10
-339.99995660799868
 20
74.5
 30
0.0
  0
POINT
  8
DEFPOINTS
  6
CONTINUOUS
 62
    30
 10
-339.99995660799868
 20
493.32170324173393
 30
0.0
  0
CIRCLE
  8
FIX
  6
CONTINUOUS
 62
    11
 10
-0.0000000000009095
 20
280.00000000000011
 30
0.0
 40
7.5
  0
CIRCLE
  8
FIX
  6
CONTINUOUS
 62
    11
 10
-0.0000000000009095
 20
-280.0
 30
0.0
 40
7.5
  0
LINE
  8
BASIS
  6
DASHDOT
 62
     6
 10
-0.0000000000009095
 20
-300.0
 30
0.0
 11
-0.0000000000009095
 21
-260.0
 31
0.0
  0
LINE
  8
BASIS
  6
DASHDOT
 62
     6
 10
-20.000000000000909
 20
-280.0
 30
0.0
 11
19.999999999999091
 21
-280.0
 31
0.0
  0
LINE
  8
BASIS
  6
DASHDOT
 62
     6
 10
-0.0000000000009095
 20
260.00000000000011
 30
0.0
 11
-0.0000000000009095
 21
300.00000000000011
 31
0.0
  0
LINE
  8
BASIS
  6
DASHDOT
 62
     6
 10
-20.000000000000909
 20
280.00000000000011
 30
0.0
 11
19.999999999999091
 21
280.00000000000011
 31
0.0
  0
LINE
  8
SIZE
  6
CONTINUOUS
 62
    30
 10
-112.0000000000001
 20
310.00000000000023
 30
0.0
 11
313.84702440830978
 21
310.00000000000023
 31
0.0
  0
LINE
  8
SIZE
  6
CONTINUOUS
 62
    30
 10
-112.0
 20
-310.00000000000011
 30
0.0
 11
313.84702440830989
 21
-310.00000000000011
 31
0.0
  0
LINE
  8
SIZE
  6
CONTINUOUS
 62
    30
 10
293.84702440830978
 20
298.00000000000023
 30
0.0
 11
293.84702440830989
 21
-298.00000000000011
 31
0.0
  0
CIRCLE
  8
SIZE
  6
CONTINUOUS
 62
    30
 10
293.84702440830978
 20
310.00000000000023
 30
0.0
 40
6.0
  0
LINE
  8
SIZE
  6
CONTINUOUS
 62
    30
 10
293.84702440830978
 20
310.00000000000023
 30
0.0
 11
293.84702440830978
 21
298.00000000000023
 31
0.0
  0
CIRCLE
  8
SIZE
  6
CONTINUOUS
 62
    30
 10
293.84702440830989
 20
-310.00000000000011
 30
0.0
 40
6.0
  0
LINE
  8
SIZE
  6
CONTINUOUS
 62
    30
 10
293.84702440830989
 20
-310.00000000000011
 30
0.0
 11
293.84702440830989
 21
-298.00000000000011
 31
0.0
  0
TEXT
  8
SIZE
  6
CONTINUOUS
 62
    30
 10
268.84702440830978
 20
-80.927999999999983
 30
0.0
 40
64.0
  1
620
 50
90.0
 41
0.9
 51
0.0
  7
STANDARD
 71
     0
 72
     1
 11
268.84702440830984
 21
0.0000000000000154
 31
0.0
210
0.0
220
0.0
230
1.0
  0
POINT
  8
DEFPOINTS
  6
CONTINUOUS
 62
    30
 10
-132.00000000000011
 20
310.00000000000011
 30
0.0
  0
POINT
  8
DEFPOINTS
  6
CONTINUOUS
 62
    30
 10
-132.00000000000011
 20
-310.00000000000023
 30
0.0
  0
POINT
  8
DEFPOINTS
  6
CONTINUOUS
 62
    30
 10
293.84702440830989
 20
-310.00000000000011
 30
0.0
  0
LINE
  8
SIZE
  6
CONTINUOUS
 62
    30
 10
39.999999999999098
 20
280.00000000000023
 30
0.0
 11
198.42155636509301
 21
280.00000000000028
 31
0.0
  0
LINE
  8
SIZE
  6
CONTINUOUS
 62
    30
 10
39.999999999999098
 20
-280.00000000000011
 30
0.0
 11
198.4215563650931
 21
-280.00000000000011
 31
0.0
  0
LINE
  8
SIZE
  6
CONTINUOUS
 62
    30
 10
178.42155636509301
 20
268.00000000000028
 30
0.0
 11
178.4215563650931
 21
-268.00000000000011
 31
0.0
  0
CIRCLE
  8
SIZE
  6
CONTINUOUS
 62
    30
 10
178.42155636509301
 20
280.00000000000028
 30
0.0
 40
6.0
  0
LINE
  8
SIZE
  6
CONTINUOUS
 62
    30
 10
178.42155636509301
 20
280.00000000000028
 30
0.0
 11
178.42155636509301
 21
268.00000000000028
 31
0.0
  0
CIRCLE
  8
SIZE
  6
CONTINUOUS
 62
    30
 10
178.4215563650931
 20
-280.00000000000011
 30
0.0
 40
6.0
  0
LINE
  8
SIZE
  6
CONTINUOUS
 62
    30
 10
178.4215563650931
 20
-280.00000000000011
 30
0.0
 11
178.4215563650931
 21
-268.00000000000011
 31
0.0
  0
TEXT
  8
SIZE
  6
CONTINUOUS
 62
    30
 10
153.42155636509298
 20
-80.92799999999994
 30
0.0
 40
64.0
  1
560
 50
90.0
 41
0.9
 51
0.0
  7
STANDARD
 71
     0
 72
     1
 11
153.42155636509301
 21
0.0000000000000509
 31
0.0
210
0.0
220
0.0
230
1.0
  0
POINT
  8
DEFPOINTS
  6
CONTINUOUS
 62
    30
 10
19.999999999999101
 20
280.00000000000023
 30
0.0
  0
POINT
  8
DEFPOINTS
  6
CONTINUOUS
 62
    30
 10
19.999999999999101
 20
-280.00000000000011
 30
0.0
  0
POINT
  8
DEFPOINTS
  6
CONTINUOUS
 62
    30
 10
178.4215563650931
 20
-280.00000000000011
 30
0.0
  0
LINE
  8
SIZE
  6
CONTINUOUS
 62
    30
 10
-240.00000000000011
 20
-302.4999999980065
 30
0.0
 11
-543.6036353790588
 21
-302.49999999800661
 31
0.0
  0
LINE
  8
SIZE
  6
CONTINUOUS
 62
    30
 10
-240.00000000000011
 20
302.39999999980978
 30
0.0
 11
-543.60363537905903
 21
302.39999999980972
 31
0.0
  0
LINE
  8
SIZE
  6
CONTINUOUS
 62
    30
 10
-523.6036353790588
 20
-290.49999999800661
 30
0.0
 11
-523.60363537905903
 21
290.39999999980972
 31
0.0
  0
CIRCLE
  8
SIZE
  6
CONTINUOUS
 62
    30
 10
-523.6036353790588
 20
-302.49999999800661
 30
0.0
 40
6.0
  0
LINE
  8
SIZE
  6
CONTINUOUS
 62
    30
 10
-523.6036353790588
 20
-302.49999999800661
 30
0.0
 11
-523.6036353790588
 21
-290.49999999800661
 31
0.0
  0
CIRCLE
  8
SIZE
  6
CONTINUOUS
 62
    30
 10
-523.60363537905903
 20
302.39999999980972
 30
0.0
 40
6.0
  0
LINE
  8
SIZE
  6
CONTINUOUS
 62
    30
 10
-523.60363537905903
 20
302.39999999980972
 30
0.0
 11
-523.60363537905903
 21
290.39999999980972
 31
0.0
  0
TEXT
  8
SIZE
  6
CONTINUOUS
 62
    30
 10
-548.6036353790588
 20
-115.5379999990982
 30
0.0
 40
64.0
  1
φ605
 50
90.0
 41
0.9
 51
0.0
  7
STANDARD
 71
     0
 72
     1
 11
-548.6036353790588
 21
-0.0499999990981535
 31
0.0
210
0.0
220
0.0
230
1.0
  0
POINT
  8
DEFPOINTS
  6
CONTINUOUS
 62
    30
 10
-220.00000000000011
 20
-302.4999999980065
 30
0.0
  0
POINT
  8
DEFPOINTS
  6
CONTINUOUS
 62
    30
 10
-220.00000000000011
 20
302.39999999980978
 30
0.0
  0
POINT
  8
DEFPOINTS
  6
CONTINUOUS
 62
    30
 10
-523.60363537905903
 20
302.39999999980972
 30
0.0
  0
POINT
  8
ARRANGE
  6
CONTINUOUS
 62
     1
 10
0.0
 20
0.0
 30
0.0
  0
CIRCLE
  8
ARRANGE
  6
CONTINUOUS
 62
     1
 10
0.0
 20
0.0
 30
0.0
 40
40.0
  0
LINE
  8
SIZE
  6
CONTINUOUS
 62
    30
 10
-132.0
 20
330.0
 30
0.0
 11
-132.0
 21
390.79316834125677
 31
0.0
  0
LINE
  8
SIZE
  6
CONTINUOUS
 62
    30
 10
-0.0000000000009083
 20
325.00520381999991
 30
0.0
 11
-0.0000000000009042
 21
390.79316834125677
 31
0.0
  0
LINE
  8
SIZE
  6
CONTINUOUS
 62
    30
 10
-120.0
 20
370.79316834125677
 30
0.0
 11
-12.000000000000909
 21
370.79316834125677
 31
0.0
  0
LINE
  8
SIZE
  6
CONTINUOUS
 62
    30
 10
-0.0000000000009055
 20
370.79316834125677
 30
0.0
 11
199.1428571428562
 21
370.79316834125677
 31
0.0
  0
CIRCLE
  8
SIZE
  6
CONTINUOUS
 62
    30
 10
-132.0
 20
370.79316834125677
 30
0.0
 40
6.0
  0
LINE
  8
SIZE
  6
CONTINUOUS
 62
    30
 10
-132.0
 20
370.79316834125677
 30
0.0
 11
-120.0
 21
370.79316834125677
 31
0.0
  0
CIRCLE
  8
SIZE
  6
CONTINUOUS
 62
    30
 10
-0.0000000000009055
 20
370.79316834125677
 30
0.0
 40
6.0
  0
LINE
  8
SIZE
  6
CONTINUOUS
 62
    30
 10
-0.0000000000009055
 20
370.79316834125677
 30
0.0
 11
-12.000000000000906
 21
370.79316834125677
 31
0.0
  0
TEXT
  8
SIZE
  6
CONTINUOUS
 62
    30
 10
30.97942857142769
 20
395.79316834125677
 30
0.0
 40
64.0
  1
132
 50
0.0
 41
0.9
 51
0.0
  7
STANDARD
 71
     0
 72
     1
 11
105.5714285714277
 21
395.79316834125677
 31
0.0
210
0.0
220
0.0
230
1.0
  0
POINT
  8
DEFPOINTS
  6
CONTINUOUS
 62
    30
 10
-132.0
 20
310.0
 30
0.0
  0
POINT
  8
DEFPOINTS
  6
CONTINUOUS
 62
    30
 10
-0.0000000000009095
 20
305.00520381999991
 30
0.0
  0
POINT
  8
DEFPOINTS
  6
CONTINUOUS
 62
    30
 10
-0.0000000000009055
 20
370.79316834125677
 30
0.0
  0
LINE
  8
SIZE
  6
CONTINUOUS
 62
    30
 10
-352.4999566079988
 20
82.000000000000014
 30
0.0
 11
-422.56613670121459
 21
82.0
 31
0.0
  0
LINE
  8
SIZE
  6
CONTINUOUS
 62
    30
 10
-352.4999566079988
 20
-82.000000000000099
 30
0.0
 11
-422.56613670121459
 21
-82.000000000000114
 31
0.0
  0
LINE
  8
SIZE
  6
CONTINUOUS
 62
    30
 10
-402.56613670121459
 20
94.000000000000014
 30
0.0
 11
-402.56613670121459
 21
106.0
 31
0.0
  0
LINE
  8
SIZE
  6
CONTINUOUS
 62
    30
 10
-402.56613670121459
 20
-94.000000000000099
 30
0.0
 11
-402.56613670121459
 21
-106.0000000000001
 31
0.0
  0
LINE
  8
SIZE
  6
CONTINUOUS
 62
    30
 10
-402.56613670121459
 20
82.000000000000014
 30
0.0
 11
-402.56613670121459
 21
-82.000000000000099
 31
0.0
  0
CIRCLE
  8
SIZE
  6
CONTINUOUS
 62
    30
 10
-402.56613670121459
 20
82.000000000000014
 30
0.0
 40
6.0
  0
LINE
  8
SIZE
  6
CONTINUOUS
 62
    30
 10
-402.56613670121459
 20
82.000000000000014
 30
0.0
 11
-402.56613670121459
 21
94.000000000000014
 31
0.0
  0
CIRCLE
  8
SIZE
  6
CONTINUOUS
 62
    30
 10
-402.56613670121459
 20
-82.000000000000099
 30
0.0
 40
6.0
  0
LINE
  8
SIZE
  6
CONTINUOUS
 62
    30
 10
-402.56613670121459
 20
-82.000000000000099
 30
0.0
 11
-402.56613670121459
 21
-94.000000000000099
 31
0.0
  0
TEXT
  8
SIZE
  6
CONTINUOUS
 62
    30
 10
-427.56613670121448
 20
-109.72799999999994
 30
0.0
 40
64.0
  1
φ164
 50
90.0
 41
0.9
 51
0.0
  7
STANDARD
 71
     0
 72
     1
 11
-427.56613670121448
 21
0.0000000000000723
 31
0.0
210
0.0
220
0.0
230
1.0
  0
POINT
  8
DEFPOINTS
  6
CONTINUOUS
 62
    30
 10
-332.4999566079988
 20
82.000000000000028
 30
0.0
  0
POINT
  8
DEFPOINTS
  6
CONTINUOUS
 62
    30
 10
-332.4999566079988
 20
-82.000000000000085
 30
0.0
  0
POINT
  8
DEFPOINTS
  6
CONTINUOUS
 62
    30
 10
-402.56613670121459
 20
-82.000000000000099
 30
0.0
  0
LINE
  8
DETAIL
  6
CONTINUOUS
 62
     5
 10
-220.0
 20
225.4624817303999
 30
0.0
 11
-220.0
 21
-225.4624817303999
 31
0.0
  0
LINE
  8
DETAIL
  6
CONTINUOUS
 62
     5
 10
-218.800000000002
 20
225.4624817303999
 30
0.0
 11
-218.80000000000109
 21
-225.4624817303999
 31
0.0
  0
LINE
  8
DETAIL
  6
CONTINUOUS
 62
     5
 10
-147.5000000000073
 20
-244.61359280839989
 30
0.0
 11
-242.89946229900491
 21
-244.61359280839989
 31
0.0
  0
LINE
  8
DETAIL
  6
CONTINUOUS
 62
     5
 10
-147.5000000000073
 20
-246.54195563739989
 30
0.0
 11
-242.89946229900491
 21
-246.54195563739989
 31
0.0
  0
LINE
  8
SIZE
  6
CONTINUOUS
 62
    30
 10
-132.0
 20
330.0
 30
0.0
 11
-132.0
 21
390.79316834125677
 31
0.0
  0
LINE
  8
SIZE
  6
CONTINUOUS
 62
    30
 10
-220.0
 20
322.39999999980961
 30
0.0
 11
-220.0
 21
390.79316834125677
 31
0.0
  0
LINE
  8
SIZE
  6
CONTINUOUS
 62
    30
 10
-120.0
 20
370.79316834125677
 30
0.0
 11
-108.0
 21
370.79316834125677
 31
0.0
  0
LINE
  8
SIZE
  6
CONTINUOUS
 62
    30
 10
-232.0
 20
370.79316834125677
 30
0.0
 11
-244.0
 21
370.79316834125677
 31
0.0
  0
LINE
  8
SIZE
  6
CONTINUOUS
 62
    30
 10
-132.0
 20
370.79316834125677
 30
0.0
 11
-220.0
 21
370.79316834125677
 31
0.0
  0
CIRCLE
  8
SIZE
  6
CONTINUOUS
 62
    30
 10
-132.0
 20
370.79316834125677
 30
0.0
 40
6.0
  0
LINE
  8
SIZE
  6
CONTINUOUS
 62
    30
 10
-132.0
 20
370.79316834125677
 30
0.0
 11
-120.0
 21
370.79316834125677
 31
0.0
  0
CIRCLE
  8
SIZE
  6
CONTINUOUS
 62
    30
 10
-220.0
 20
370.79316834125677
 30
0.0
 40
6.0
  0
LINE
  8
SIZE
  6
CONTINUOUS
 62
    30
 10
-220.0
 20
370.79316834125677
 30
0.0
 11
-232.0
 21
370.79316834125677
 31
0.0
  0
TEXT
  8
SIZE
  6
CONTINUOUS
 62
    30
 10
-229.56800000000001
 20
395.79316834125677
 30
0.0
 40
64.0
  1
88
 50
0.0
 41
0.9
 51
0.0
  7
STANDARD
 71
     0
 72
     1
 11
-176.0
 21
395.79316834125677
 31
0.0
210
0.0
220
0.0
230
1.0
  0
POINT
  8
DEFPOINTS
  6
CONTINUOUS
 62
    30
 10
-132.0
 20
310.0
 30
0.0
  0
POINT
  8
DEFPOINTS
  6
CONTINUOUS
 62
    30
 10
-220.0
 20
302.39999999980961
 30
0.0
  0
POINT
  8
DEFPOINTS
  6
CONTINUOUS
 62
    30
 10
-220.0
 20
370.79316834125677
 30
0.0
  0
TEXT
  8
ETC
  6
CONTINUOUS
 62
    61
 10
425.05505152005389
 20
553.9674548057925
 30
0.0
 40
64.0
  1
EG-50ETXC2-Q_4
 41
0.9
  0
TEXT
  8
ETC
  6
CONTINUOUS
 62
    61
 10
420.86905752005441
 20
436.01214479096132
 30
0.0
 40
64.0
  1
有圧換気扇
 41
0.9
  0
TEXT
  8
ETC
  6
CONTINUOUS
 62
    61
 10
471.57045576860952
 20
327.86337190473603
 30
0.0
 40
40.0
  1
EG-50ETXC2-Q
 50
0.0
 41
0.9
 51
0.0
  7
STANDARD
 71
     0
 11
0.0
 21
0.0
 31
0.0
210
0.0
220
0.0
230
1.0
  0
TEXT
  8
ETC
  6
CONTINUOUS
 62
    61
 10
471.57045576860952
 20
261.86337190473603
 30
0.0
 40
40.0
  1
EG-50ETXC2-FQ
 50
0.0
 41
0.9
 51
0.0
  7
STANDARD
 71
     0
 11
0.0
 21
0.0
 31
0.0
210
0.0
220
0.0
230
1.0
  0
LINE
  8
DETAIL
  6
CONTINUOUS
 62
     5
 10
-220.0
 20
302.39999999980961
 30
0.0
 11
-218.80000000000109
 21
302.39999999980961
 31
0.0
  0
LINE
  8
DETAIL
  6
CONTINUOUS
 62
     5
 10
-220.0
 20
-302.49999999800639
 30
0.0
 11
-220.0
 21
-246.54195563740001
 31
0.0
  0
LINE
  8
DETAIL
  6
CONTINUOUS
 62
     5
 10
-220.0
 20
246.54195563740001
 30
0.0
 11
-220.0
 21
302.39999999980961
 31
0.0
  0
LINE
  8
DETAIL
  6
CONTINUOUS
 62
     5
 10
-218.80000000000109
 20
-302.39999999979409
 30
0.0
 11
-218.80000000000291
 21
-246.54195563740001
 31
0.0
  0
LINE
  8
DETAIL
  6
CONTINUOUS
 62
     5
 10
-218.80000000000109
 20
246.54195563740001
 30
0.0
 11
-218.80000000000109
 21
302.39999999980961
 31
0.0
  0
LINE
  8
DETAIL
  6
CONTINUOUS
 62
     5
 10
-218.80000000000109
 20
-302.39999999780679
 30
0.0
 11
-218.80000000000109
 21
-302.49999999800639
 31
0.0
  0
LINE
  8
DETAIL
  6
CONTINUOUS
 62
     5
 10
-220.0
 20
-302.49999999800639
 30
0.0
 11
-218.80000000000109
 21
-302.49999999800639
 31
0.0
  0
ARC
  8
DETAIL
  6
CONTINUOUS
 62
     5
 10
-184.6852336988286
 20
-302.41466297294119
 30
0.0
 40
34.11476945234125
 50
89.856849793360382
 51
179.97537352550989
  0
LINE
  8
OUTLINE
  6
CONTINUOUS
 62
     3
 10
-0.000000000001819
 20
305.00520382000008
 30
0.0
 11
-1.500000000001819
 21
305.00520382000008
 31
0.0
  0
ARC
  8
OUTLINE
  6
CONTINUOUS
 62
     3
 10
-2.834458388759181
 20
305.30142271512949
 30
0.0
 40
1.3669399493600953
 50
332.29648969473203
 51
347.48458914431444
  0
ARC
  8
OUTLINE
  6
CONTINUOUS
 62
     3
 10
-3.0000000000016334
 20
302.0
 30
0.0
 40
2.9999999999999765
 50
62.703569111051479
 51
90.0
  0
LINE
  8
OUTLINE
  6
CONTINUOUS
 62
     3
 10
-3.000000000001819
 20
305.0
 30
0.0
 11
-132.0
 21
305.0
 31
0.0
  0
LINE
  8
OUTLINE
  6
CONTINUOUS
 62
     3
 10
-132.0
 20
305.0
 30
0.0
 11
-132.0
 21
310.0
 31
0.0
  0
LINE
  8
OUTLINE
  6
CONTINUOUS
 62
     3
 10
-132.0
 20
310.0
 30
0.0
 11
-137.0
 21
310.0
 31
0.0
  0
ARC
  8
OUTLINE
  6
CONTINUOUS
 62
     3
 10
-137.0
 20
305.0
 30
0.0
 40
4.9999999999999991
 50
90.0
 51
180.0
  0
LINE
  8
OUTLINE
  6
CONTINUOUS
 62
     3
 10
-142.0
 20
305.0
 30
0.0
 11
-142.0
 21
283.29999999639949
 31
0.0
  0
ARC
  8
OUTLINE
  6
CONTINUOUS
 62
     3
 10
-156.99999999999952
 20
283.29999999639898
 30
0.0
 40
14.999999999999512
 50
270.0
 51
0.0
  0
LINE
  8
OUTLINE
  6
CONTINUOUS
 62
     3
 10
-157.0
 20
268.29999999639949
 30
0.0
 11
-184.77046739752041
 21
268.29999999639949
 31
0.0
  0
ARC
  8
OUTLINE
  6
CONTINUOUS
 62
     3
 10
-184.68523369882826
 20
302.41466297294079
 30
0.0
 40
34.114769452341172
 50
179.85667624712482
 51
269.85684979361054
  0
LINE
  8
OUTLINE
  6
CONTINUOUS
 62
     3
 10
-218.79989641704381
 20
302.50000000349968
 30
0.0
 11
-220.0
 21
302.50000000349968
 31
0.0
  0
LINE
  8
OUTLINE
  6
CONTINUOUS
 62
     3
 10
-220.0
 20
302.50000000349968
 30
0.0
 11
-220.0
 21
246.54195563740001
 31
0.0
  0
LINE
  8
OUTLINE
  6
CONTINUOUS
 62
     3
 10
-220.0
 20
246.54195563740001
 30
0.0
 11
-242.89946229883211
 21
246.54195563740001
 31
0.0
  0
ARC
  8
OUTLINE
  6
CONTINUOUS
 62
     3
 10
-243.58991423556955
 20
181.43260817830344
 30
0.0
 40
65.113008304226796
 50
89.392429802099912
 51
125.913443800153
  0
ARC
  8
OUTLINE
  6
CONTINUOUS
 62
     3
 10
-257.9161792627163
 20
194.81086447361446
 30
0.0
 40
46.028137966857358
 50
121.23312697693279
 51
177.48429551094569
  0
LINE
  8
OUTLINE
  6
CONTINUOUS
 62
     3
 10
-303.89995660800741
 20
196.83118765438209
 30
0.0
 11
-303.8999566080056
 21
106.7580008439836
 31
0.0
  0
ARC
  8
OUTLINE
  6
CONTINUOUS
 62
     3
 10
-283.808963540158
 20
95.692335644838934
 30
0.0
 40
22.936803368208498
 50
151.15501977164303
 51
176.21533491453818
  0
LINE
  8
OUTLINE
  6
CONTINUOUS
 62
     3
 10
-306.69574564899989
 20
97.206321593999746
 30
0.0
 11
-306.69574564899989
 21
94.200000000000728
 31
0.0
  0
LINE
  8
OUTLINE
  6
CONTINUOUS
 62
     3
 10
-306.69574564899989
 20
94.200000000000728
 30
0.0
 11
-309.49995660800232
 21
94.200000000000728
 31
0.0
  0
LINE
  8
OUTLINE
  6
CONTINUOUS
 62
     3
 10
-309.49995660800232
 20
94.200000000000728
 30
0.0
 11
-309.49995660800232
 21
85.200000000000728
 31
0.0
  0
ARC
  8
OUTLINE
  6
CONTINUOUS
 62
     3
 10
-310.49995660800232
 20
85.200000000000713
 30
0.0
 40
0.9999999999999804
 50
270.0
 51
0.0
  0
ARC
  8
OUTLINE
  6
CONTINUOUS
 62
     3
 10
-310.49995660800232
 20
83.200000000000742
 30
0.0
 40
0.9999999999999804
 50
90.0
 51
180.0
  0
LINE
  8
OUTLINE
  6
CONTINUOUS
 62
     3
 10
-311.49995660800232
 20
83.200000000000728
 30
0.0
 11
-311.49995660799868
 21
82.0
 31
0.0
  0
LINE
  8
OUTLINE
  6
CONTINUOUS
 62
     3
 10
-311.49995660799868
 20
82.0
 30
0.0
 11
-332.49995660799868
 21
82.0
 31
0.0
  0
ARC
  8
OUTLINE
  6
CONTINUOUS
 62
     3
 10
-332.49995660799863
 20
74.499999999999957
 30
0.0
 40
7.500000000000048
 50
90.0
 51
180.0
  0
LINE
  8
OUTLINE
  6
CONTINUOUS
 62
     3
 10
-339.99995660799868
 20
74.5
 30
0.0
 11
-339.99995660799868
 21
-74.5
 31
0.0
  0
ARC
  8
OUTLINE
  6
CONTINUOUS
 62
     3
 10
-332.49995660799863
 20
-74.499999999999957
 30
0.0
 40
7.500000000000048
 50
180.0
 51
270.0
  0
LINE
  8
OUTLINE
  6
CONTINUOUS
 62
     3
 10
-332.49995660799868
 20
-82.0
 30
0.0
 11
-303.89995660800378
 21
-82.0
 31
0.0
  0
LINE
  8
OUTLINE
  6
CONTINUOUS
 62
     3
 10
-303.89995660800378
 20
-82.0
 30
0.0
 11
-303.89995660800918
 21
-196.74868817237979
 31
0.0
  0
ARC
  8
OUTLINE
  6
CONTINUOUS
 62
     3
 10
-257.6133966748389
 20
-194.63626349558186
 30
0.0
 40
46.334738247475954
 50
182.61304995178216
 51
238.55867963674814
  0
ARC
  8
OUTLINE
  6
CONTINUOUS
 62
     3
 10
-243.10113863006072
 20
-179.89671722015026
 30
0.0
 40
66.645543564700205
 50
234.52074316081394
 51
270.17338323891772
  0
LINE
  8
OUTLINE
  6
CONTINUOUS
 62
     3
 10
-242.89946229953421
 20
-246.54195563740001
 30
0.0
 11
-220.0
 21
-246.54195563740001
 31
0.0
  0
LINE
  8
OUTLINE
  6
CONTINUOUS
 62
     3
 10
-220.0
 20
-246.54195563740001
 30
0.0
 11
-220.0
 21
-302.5
 31
0.0
  0
LINE
  8
OUTLINE
  6
CONTINUOUS
 62
     3
 10
-220.0
 20
-302.5
 30
0.0
 11
-218.79989641705291
 21
-302.5
 31
0.0
  0
ARC
  8
OUTLINE
  6
CONTINUOUS
 62
     3
 10
-184.6852336988284
 20
-302.4146629729409
 30
0.0
 40
34.11476945234137
 50
89.856849793562674
 51
180.14332374699734
  0
LINE
  8
OUTLINE
  6
CONTINUOUS
 62
     3
 10
-184.60000000010771
 20
-268.29999999639949
 30
0.0
 11
-157.0
 21
-268.29999999639949
 31
0.0
  0
ARC
  8
OUTLINE
  6
CONTINUOUS
 62
     3
 10
-157.00000000000009
 20
-283.29999999639961
 30
0.0
 40
15.000000000000096
 50
0.0
 51
90.0
  0
LINE
  8
OUTLINE
  6
CONTINUOUS
 62
     3
 10
-142.0
 20
-283.29999999639949
 30
0.0
 11
-142.0
 21
-305.0
 31
0.0
  0
ARC
  8
OUTLINE
  6
CONTINUOUS
 62
     3
 10
-137.0
 20
-305.0
 30
0.0
 40
4.9999999999999991
 50
180.0
 51
270.0
  0
LINE
  8
OUTLINE
  6
CONTINUOUS
 62
     3
 10
-137.0
 20
-310.0
 30
0.0
 11
-132.0
 21
-310.0
 31
0.0
  0
LINE
  8
OUTLINE
  6
CONTINUOUS
 62
     3
 10
-132.0
 20
-310.0
 30
0.0
 11
-132.0
 21
-305.0
 31
0.0
  0
LINE
  8
OUTLINE
  6
CONTINUOUS
 62
     3
 10
-132.0
 20
-305.0
 30
0.0
 11
-3.000000000001819
 21
-305.0
 31
0.0
  0
ARC
  8
OUTLINE
  6
CONTINUOUS
 62
     3
 10
-2.9999999999947256
 20
-301.99999999999875
 30
0.0
 40
3.0000000000012497
 50
270.0
 51
297.29643088882676
  0
ARC
  8
OUTLINE
  6
CONTINUOUS
 62
     3
 10
-2.834458388751588
 20
-305.30142271512619
 30
0.0
 40
1.3669399493521508
 50
12.515410855654522
 51
27.703510305154737
  0
LINE
  8
OUTLINE
  6
CONTINUOUS
 62
     3
 10
-1.500000000001819
 20
-305.00520381999922
 30
0.0
 11
-0.000000000001819
 21
-305.00520381999922
 31
0.0
  0
LINE
  8
OUTLINE
  6
CONTINUOUS
 62
     3
 10
-0.000000000001819
 20
-305.00520381999922
 30
0.0
 11
-0.000000000001819
 21
-251.11611652399549
 31
0.0
  0
ARC
  8
OUTLINE
  6
CONTINUOUS
 62
     3
 10
-2.6679949390627637
 20
-251.70725063526135
 30
0.0
 40
2.7326976657429385
 50
12.492914872981828
 51
96.978305750407287
  0
LINE
  8
OUTLINE
  6
CONTINUOUS
 62
     3
 10
-3.000000000001819
 20
-248.9947961799999
 30
0.0
 11
-3.000000000001819
 21
-247.25735931300011
 31
0.0
  0
LINE
  8
OUTLINE
  6
CONTINUOUS
 62
     3
 10
-3.000000000001819
 20
-247.25735931300011
 30
0.0
 11
-0.000000000001819
 21
-247.25735931300011
 31
0.0
  0
LINE
  8
OUTLINE
  6
CONTINUOUS
 62
     3
 10
-0.000000000001819
 20
-247.25735931300011
 30
0.0
 11
-0.000000000001819
 21
-0.5
 31
0.0
  0
LINE
  8
OUTLINE
  6
CONTINUOUS
 62
     3
 10
-0.000000000001819
 20
-0.5
 30
0.0
 11
-2.000000000001819
 21
-0.5
 31
0.0
  0
LINE
  8
OUTLINE
  6
CONTINUOUS
 62
     3
 10
-2.000000000001819
 20
-0.5
 30
0.0
 11
-2.000000000001819
 21
0.5
 31
0.0
  0
LINE
  8
OUTLINE
  6
CONTINUOUS
 62
     3
 10
-2.000000000001819
 20
0.5
 30
0.0
 11
-0.000000000001819
 21
0.5
 31
0.0
  0
LINE
  8
OUTLINE
  6
CONTINUOUS
 62
     3
 10
-0.000000000001819
 20
0.5
 30
0.0
 11
-0.000000000001819
 21
247.25735931300011
 31
0.0
  0
LINE
  8
OUTLINE
  6
CONTINUOUS
 62
     3
 10
-0.000000000001819
 20
247.25735931300011
 30
0.0
 11
-3.000000000001819
 21
247.25735931300011
 31
0.0
  0
LINE
  8
OUTLINE
  6
CONTINUOUS
 62
     3
 10
-3.000000000001819
 20
247.25735931300011
 30
0.0
 11
-3.000000000001819
 21
248.9947961800008
 31
0.0
  0
ARC
  8
OUTLINE
  6
CONTINUOUS
 62
     3
 10
-2.6679949390622562
 20
251.7072506352618
 30
0.0
 40
2.7326976657425388
 50
263.02169424958106
 51
347.50708512700658
  0
LINE
  8
OUTLINE
  6
CONTINUOUS
 62
     3
 10
-0.000000000001819
 20
251.11611652399549
 30
0.0
 11
-0.000000000001819
 21
305.00520382000008
 31
0.0
  0
LINE
  8
DETAIL
  6
CONTINUOUS
 62
     5
 10
-184.60000000000039
 20
268.29999999639949
 30
0.0
 11
-157.0
 21
268.29999999639949
 31
0.0
  0
ARC
  8
DETAIL
  6
CONTINUOUS
 62
     5
 10
-184.6852336988286
 20
302.41466297294119
 30
0.0
 40
34.11476945234125
 50
180.02462647459441
 51
270.14315020663958
  0
ARC
  8
DETAIL
  6
CONTINUOUS
 62
     5
 10
-157.0
 20
283.29999999639949
 30
0.0
 40
15.0
 50
270.0
 51
0.0
  0
LINE
  8
DETAIL
  6
CONTINUOUS
 62
     5
 10
-184.60000000010771
 20
-268.29999999639949
 30
0.0
 11
-157.00000000010729
 21
-268.29999999639949
 31
0.0
  0
ARC
  8
DETAIL
  6
CONTINUOUS
 62
     5
 10
-157.00000000010729
 20
-283.29999999639949
 30
0.0
 40
15.0
 50
0.0
 51
90.0
  0
TEXT
  8
NOTE
  6
CONTINUOUS
 62
     4
 10
187.3304229632067
 20
-408.72191765549007
 30
0.0
 40
64.0
  1
4-φ15
 50
0.0
 41
0.9
 51
0.0
  7
STANDARD
 71
     0
 11
0.0
 21
0.0
 31
0.0
210
0.0
220
0.0
230
1.0
  0
LINE
  8
NOTE
  6
CONTINUOUS
 62
     4
 10
187.24042296320661
 20
-421.52191765548997
 30
0.0
 11
456.13042296320651
 21
-421.52191765548997
 31
0.0
  0
LINE
  8
NOTE
  6
CONTINUOUS
 62
     4
 10
17.70822251102382
 20
-305.51541372876477
 30
0.0
 11
-0.0000000000009095
 21
-280.0
 31
0.0
  0
LINE
  8
NOTE
  6
CONTINUOUS
 62
     4
 10
-0.0000000000009095
 20
-280.0
 30
0.0
 11
28.093497371047377
 21
-293.24284288636329
 31
0.0
  0
LINE
  8
NOTE
  6
CONTINUOUS
 62
     4
 10
-0.0000000000009095
 20
-280.0
 30
0.0
 11
45.801719882072106
 21
-318.75825661512806
 31
0.0
  0
LINE
  8
NOTE
  6
CONTINUOUS
 62
     4
 10
45.801719882072078
 20
-318.75825661512812
 30
0.0
 11
167.24042296320661
 21
-421.52191765548997
 31
0.0
  0
LINE
  8
NOTE
  6
CONTINUOUS
 62
     4
 10
167.24042296320661
 20
-421.52191765548997
 30
0.0
 11
187.24042296320661
 21
-421.52191765548997
 31
0.0
  0
TEXT
  8
NOTE
  6
CONTINUOUS
 62
     4
 10
-365.38272588214369
 20
-414.02726805604118
 30
0.0
 40
64.0
  1
EL
 50
0.0
 41
0.9
 51
0.0
  7
STANDARD
 71
     0
 72
     2
 11
-264.00672588214371
 21
-414.02726805604118
 31
0.0
210
0.0
220
0.0
230
1.0
  0
LINE
  8
NOTE
  6
CONTINUOUS
 62
     4
 10
-263.91672588214351
 20
-426.82726805604108
 30
0.0
 11
-349.03529731071501
 21
-426.82726805604108
 31
0.0
  0
LINE
  8
NOTE
  6
CONTINUOUS
 62
     4
 10
-181.92475518348462
 20
-277.45611360482712
 30
0.0
 11
-161.80000000000021
 21
-253.79999999639989
 31
0.0
  0
LINE
  8
NOTE
  6
CONTINUOUS
 62
     4
 10
-161.80000000000021
 20
-253.79999999639989
 30
0.0
 11
-167.40044639373551
 21
-284.34918136744318
 31
0.0
  0
LINE
  8
NOTE
  6
CONTINUOUS
 62
     4
 10
-161.80000000000021
 20
-253.79999999639989
 30
0.0
 11
-187.52520157721992
 21
-308.00529497587041
 31
0.0
  0
LINE
  8
NOTE
  6
CONTINUOUS
 62
     4
 10
-187.52520157721989
 20
-308.00529497587053
 30
0.0
 11
-243.91672588214351
 21
-426.82726805604108
 31
0.0
  0
LINE
  8
NOTE
  6
CONTINUOUS
 62
     4
 10
-243.91672588214351
 20
-426.82726805604108
 30
0.0
 11
-263.91672588214351
 21
-426.82726805604108
 31
0.0
  0
ENDSEC
  0
EOF
