  0
SECTION
  2
HEADER
  9
$ACADVER
  1
AC1009
  9
$INSBASE
 10
0.0
 20
0.0
 30
0.0
  9
$EXTMIN
 10
-497.59824989316979
 20
-472.6409795375547
 30
-0.0030518556252446
  9
$EXTMAX
 10
818.00080478191364
 20
701.11084799411583
 30
50.003052088470113
  9
$LIMMIN
 10
-2970.0
 20
-2100.0
  9
$LIMMAX
 10
2970.0
 20
2100.0
  9
$ORTHOMODE
 70
     1
  9
$REGENMODE
 70
     1
  9
$FILLMODE
 70
     1
  9
$QTEXTMODE
 70
     0
  9
$MIRRTEXT
 70
     0
  9
$DRAGMODE
 70
     2
  9
$LTSCALE
 40
20.0
  9
$OSMODE
 70
    37
  9
$ATTMODE
 70
     1
  9
$TEXTSIZE
 40
64.0
  9
$TRACEWID
 40
0.05
  9
$TEXTSTYLE
  7
STANDARD
  9
$CLAYER
  8
ETC
  9
$CELTYPE
  6
CONTINUOUS
  9
$CECOLOR
 62
     7
  9
$DIMSCALE
 40
1.0
  9
$DIMASZ
 40
2.0
  9
$DIMEXO
 40
20.0
  9
$DIMDLI
 40
200.0
  9
$DIMRND
 40
0.0
  9
$DIMDLE
 40
0.0
  9
$DIMEXE
 40
30.0
  9
$DIMTP
 40
0.1
  9
$DIMTM
 40
0.1
  9
$DIMTXT
 40
64.0
  9
$DIMCEN
 40
0.09
  9
$DIMTSZ
 40
0.0
  9
$DIMTOL
 70
     0
  9
$DIMLIM
 70
     0
  9
$DIMTIH
 70
     0
  9
$DIMTOH
 70
     0
  9
$DIMSE1
 70
     0
  9
$DIMSE2
 70
     0
  9
$DIMTAD
 70
     1
  9
$DIMZIN
 70
     8
  9
$DIMBLK
  1
DOT1
  9
$DIMASO
 70
     1
  9
$DIMSHO
 70
     0
  9
$DIMPOST
  1
<>
  9
$DIMAPOST
  1
"
  9
$DIMALT
 70
     0
  9
$DIMALTD
 70
     2
  9
$DIMALTF
 40
0.03937
  9
$DIMLFAC
 40
1.0
  9
$DIMTOFL
 70
     1
  9
$DIMTVP
 40
0.0
  9
$DIMTIX
 70
     0
  9
$DIMSOXD
 70
     0
  9
$DIMSAH
 70
     1
  9
$DIMBLK1
  1

  9
$DIMBLK2
  1

  9
$DIMSTYLE
  2
GEN-ISO
  9
$DIMCLRD
 70
     7
  9
$DIMCLRE
 70
     7
  9
$DIMCLRT
 70
     7
  9
$DIMTFAC
 40
1.0
  9
$DIMGAP
 40
25.0
  9
$LUNITS
 70
     2
  9
$LUPREC
 70
     4
  9
$SKETCHINC
 40
0.1
  9
$FILLETRAD
 40
5.0
  9
$AUNITS
 70
     1
  9
$AUPREC
 70
     3
  9
$MENU
  1
ACAD
  9
$ELEVATION
 40
0.0
  9
$PELEVATION
 40
0.0
  9
$THICKNESS
 40
0.0
  9
$LIMCHECK
 70
     0
  9
$BLIPMODE
 70
     0
  9
$CHAMFERA
 40
0.0
  9
$CHAMFERB
 40
0.0
  9
$SKPOLY
 70
     0
  9
$TDCREATE
 40
2451372.5474537038
  9
$TDUPDATE
 40
2454950.4371613311
  9
$TDINDWG
 40
0.8803101505000001
  9
$TDUSRTIMER
 40
0.8803101505000001
  9
$USRTIMER
 70
     1
  9
$ANGBASE
 50
0.0
  9
$ANGDIR
 70
     0
  9
$PDMODE
 70
     3
  9
$PDSIZE
 40
-2.0
  9
$PLINEWID
 40
0.0
  9
$COORDS
 70
     0
  9
$SPLFRAME
 70
     0
  9
$SPLINETYPE
 70
     6
  9
$SPLINESEGS
 70
     8
  9
$ATTDIA
 70
     0
  9
$ATTREQ
 70
     1
  9
$HANDLING
 70
     1
  9
$HANDSEED
  5
338
  9
$SURFTAB1
 70
     6
  9
$SURFTAB2
 70
     6
  9
$SURFTYPE
 70
     6
  9
$SURFU
 70
     6
  9
$SURFV
 70
     6
  9
$UCSNAME
  2

  9
$UCSORG
 10
0.0
 20
0.0
 30
0.0
  9
$UCSXDIR
 10
1.0
 20
0.0
 30
0.0
  9
$UCSYDIR
 10
0.0
 20
1.0
 30
0.0
  9
$PUCSNAME
  2

  9
$PUCSORG
 10
0.0
 20
0.0
 30
0.0
  9
$PUCSXDIR
 10
1.0
 20
0.0
 30
0.0
  9
$PUCSYDIR
 10
0.0
 20
1.0
 30
0.0
  9
$USERI1
 70
     0
  9
$USERI2
 70
     0
  9
$USERI3
 70
     0
  9
$USERI4
 70
     0
  9
$USERI5
 70
     0
  9
$USERR1
 40
20.0
  9
$USERR2
 40
0.0
  9
$USERR3
 40
0.0
  9
$USERR4
 40
0.0
  9
$USERR5
 40
0.0
  9
$WORLDVIEW
 70
     1
  9
$SHADEDGE
 70
     3
  9
$SHADEDIF
 70
    70
  9
$TILEMODE
 70
     1
  9
$MAXACTVP
 70
    48
  9
$PLIMCHECK
 70
     0
  9
$PEXTMIN
 10
-1.0000000000000000E+020
 20
-1.0000000000000000E+020
 30
-1.0000000000000000E+020
  9
$PEXTMAX
 10
1.0000000000000000E+020
 20
1.0000000000000000E+020
 30
1.0000000000000000E+020
  9
$PLIMMIN
 10
0.0
 20
0.0
  9
$PLIMMAX
 10
12.0
 20
9.0
  9
$UNITMODE
 70
     0
  9
$VISRETAIN
 70
     0
  9
$PLINEGEN
 70
     0
  9
$PSLTSCALE
 70
     0
  0
ENDSEC
  0
SECTION
  2
TABLES
  0
TABLE
  2
VPORT
 70
     1
  0
VPORT
  2
*ACTIVE
 70
     0
 10
0.0
 20
0.0
 11
1.0
 21
1.0
 12
136.35430515943699
 22
153.80296683219481
 13
0.0
 23
0.0
 14
50.0
 24
50.0
 15
400.0
 25
400.0
 16
0.0
 26
0.0
 36
1.0
 17
0.0
 27
0.0
 37
0.0
 40
1329.6056700605329
 41
1.3098995695839311
 42
50.0
 43
0.0
 44
0.0
 50
0.0
 51
0.0
 71
     0
 72
   500
 73
     1
 74
     0
 75
     0
 76
     0
 77
     0
 78
     0
  0
ENDTAB
  0
TABLE
  2
LTYPE
 70
     5
  0
LTYPE
  2
CONTINUOUS
 70
     0
  3
実線
 72
    65
 73
     0
 40
0.0
  0
LTYPE
  2
DASHDOT
 70
     0
  3
____ _ ____ _ ____ _ ____ _ ____ _ ____ _ ____
 72
    65
 73
     4
 40
5.5
 49
4.0
 49
-0.6
 49
0.3
 49
-0.6
  0
LTYPE
  2
DASHED
 70
     0
  3
-- -- -- -- -- -- -- -- -- -- -- -- -- -- --
 72
    65
 73
     2
 40
0.75
 49
0.5
 49
-0.25
  0
ENDTAB
  0
TABLE
  2
LAYER
 70
    12
  0
LAYER
  2
0
 70
     0
 62
     7
  6
CONTINUOUS
  0
LAYER
  2
ETC
 70
     0
 62
    61
  6
CONTINUOUS
  0
LAYER
  2
OUTLINE
 70
     0
 62
     3
  6
CONTINUOUS
  0
LAYER
  2
DETAIL
 70
     0
 62
     5
  6
CONTINUOUS
  0
LAYER
  2
BASIS
 70
     0
 62
     6
  6
DASHDOT
  0
LAYER
  2
NOTE
 70
     0
 62
     4
  6
CONTINUOUS
  0
LAYER
  2
DEFPOINTS
 70
     0
 62
     7
  6
CONTINUOUS
  0
LAYER
  2
SIZE
 70
     0
 62
    30
  6
CONTINUOUS
  0
LAYER
  2
ARRANGE
 70
     0
 62
     1
  6
CONTINUOUS
  0
LAYER
  2
FIX
 70
     0
 62
    11
  6
CONTINUOUS
  0
LAYER
  2
SERVICESPACE
 70
     0
 62
     2
  6
DASHDOT
  0
LAYER
  2
SYMBOLLINE
 70
     0
 62
    15
  6
CONTINUOUS
  0
ENDTAB
  0
TABLE
  2
STYLE
 70
     3
  0
STYLE
  2
STANDARD
 70
     0
 40
0.0
 41
0.9
 50
0.0
 71
     0
 42
64.0
  3
SIMPLEX
  4
BIGFONT
  0
STYLE
  2
ANNOTATIVE
 70
     0
 40
0.0
 41
1.0
 50
0.0
 71
     0
 42
0.2
  3
txt
  4

  0
STYLE
  2

 70
     1
 40
0.0
 41
1.0
 50
0.0
 71
     0
 42
64.0
  3
ltypeshp.shx
  4

  0
ENDTAB
  0
TABLE
  2
VIEW
 70
     1
  0
VIEW
  2
ALL
 70
     0
 40
4282.6198079999986
 10
0.0
 20
41.309903999999989
 41
5940.0
 11
0.0
 21
0.0
 31
1.0
 12
0.0
 22
0.0
 32
0.0
 42
50.0
 43
0.0
 44
0.0
 50
0.0
 71
     0
  0
ENDTAB
  0
TABLE
  2
UCS
 70
     0
  0
ENDTAB
  0
TABLE
  2
APPID
 70
    15
  0
APPID
  2
ACAD
 70
     0
  0
APPID
  2
ACADANNOTATIVE
 70
     0
  0
APPID
  2
ACAD_MLEADERVER
 70
     0
  0
APPID
  2
CONTENTBLOCKDESCRIPTION
 70
     0
  0
APPID
  2
CONTENTBLOCKICON
 70
     0
  0
APPID
  2
GENIUS_GENCFG_13
 70
     0
  0
APPID
  2
GENIUS_GENCFG0_13
 70
     0
  0
APPID
  2
GENIUS_GENCFG1_13
 70
     0
  0
APPID
  2
GENIUS_GENCFG2_13
 70
     0
  0
APPID
  2
GENIUS_GENCFG3_13
 70
     0
  0
APPID
  2
GENIUS_GENCFG4_13
 70
     0
  0
APPID
  2
GENIUS_GEVCFG0_13
 70
     0
  0
APPID
  2
GENIUS_GENOENT_13
 70
     0
  0
APPID
  2
ACAD_PSEXT
 70
     0
  0
APPID
  2
ACAD_EXEMPT_FROM_CAD_STANDARDS
 70
     0
  0
ENDTAB
  0
TABLE
  2
DIMSTYLE
 70
     4
  0
DIMSTYLE
  2
STANDARD
 70
     0
  3

  4

  5

  6

  7

 40
1.0
 41
0.18
 42
0.0625
 43
0.38
 44
0.18
 45
0.0
 46
0.0
 47
0.0
 48
0.0
140
0.18
141
0.09
142
0.0
143
25.399999999999999
144
1.0
145
0.0
146
1.0
147
0.09
 71
     0
 72
     0
 73
     1
 74
     1
 75
     0
 76
     0
 77
     0
 78
     0
170
     0
171
     2
172
     0
173
     0
174
     0
175
     0
176
     0
177
     0
178
     0
  0
DIMSTYLE
  2
ANNOTATIVE
 70
     0
  3

  4

  5

  6

  7

 40
1.0
 41
0.18
 42
0.0625
 43
0.38
 44
0.18
 45
0.0
 46
0.0
 47
0.0
 48
0.0
140
0.18
141
0.09
142
0.0
143
25.399999999999999
144
1.0
145
0.0
146
1.0
147
0.09
 71
     0
 72
     0
 73
     1
 74
     1
 75
     0
 76
     0
 77
     0
 78
     0
170
     0
171
     2
172
     0
173
     0
174
     0
175
     0
176
     0
177
     0
178
     0
  0
DIMSTYLE
  2
GEN-ISO
 70
     0
  3

  4
"
  5

  6

  7

 40
1.0
 41
2.0
 42
20.0
 43
200.0
 44
30.0
 45
0.0
 46
0.0
 47
0.1
 48
0.1
140
64.0
141
0.09
142
0.0
143
0.03937
144
1.0
145
0.0
146
1.0
147
25.0
 71
     0
 72
     0
 73
     0
 74
     0
 75
     0
 76
     0
 77
     1
 78
     8
170
     0
171
     2
172
     1
173
     1
174
     0
175
     0
176
     7
177
     7
178
     7
  0
ENDTAB
  0
ENDSEC
  0
SECTION
  2
BLOCKS
  0
BLOCK
  8
0
  2
$MODEL_SPACE
 70
     0
 10
0.0
 20
0.0
 30
0.0
  3
$MODEL_SPACE
  1

  0
ENDBLK
  5
76
  8
0
  0
BLOCK
 67
     1
  8
0
  2
$PAPER_SPACE
 70
     0
 10
0.0
 20
0.0
 30
0.0
  3
$PAPER_SPACE
  1

  0
ENDBLK
  5
72
 67
     1
  8
0
  0
BLOCK
  8
OUTLINE
  2
DOT1
 70
     0
 10
0.0
 20
0.0
 30
0.0
  3
DOT1
  1

  0
CIRCLE
  5
9A
  8
SIZE
  6
CONTINUOUS
 62
     7
 10
0.0
 20
0.0
 30
0.0
 40
3.0
  0
ENDBLK
  5
9B
  8
OUTLINE
  0
ENDSEC
  0
SECTION
  2
ENTITIES
  0
CIRCLE
  5
9C
  8
ARRANGE
  6
CONTINUOUS
 62
     1
 10
0.0
 20
0.0
 30
0.0
 40
40.0
  0
LINE
  5
9D
  8
NOTE
  6
CONTINUOUS
 62
     4
 10
305.0
 20
0.0
 30
0.0
 11
345.0
 21
0.0
 31
0.0
  0
LINE
  5
9E
  8
NOTE
  6
CONTINUOUS
 62
     4
 10
325.0
 20
20.0
 30
0.0
 11
325.0
 21
-20.0
 31
0.0
  0
LINE
  5
9F
  8
NOTE
  6
CONTINUOUS
 62
     4
 39
50.0
 10
293.25832300000002
 20
-40.0
 30
0.0
 11
450.33010400000001
 21
-238.33558199999999
 31
0.0
  0
LINE
  5
A0
  8
NOTE
  6
CONTINUOUS
 62
     4
 39
50.0
 10
450.33010400000001
 20
-238.33558199999999
 30
0.0
 11
580.18285300000002
 21
-238.33560099999991
 31
0.0
  0
TEXT
  5
A1
  8
NOTE
  6
CONTINUOUS
 62
     4
 10
472.91319299999998
 20
-226.53484499999999
 30
0.0
 40
64.0
  1
EL
 50
359.99998799999997
 41
0.9
  0
LINE
  5
A2
  8
NOTE
  6
CONTINUOUS
 62
     4
 10
307.051244
 20
-77.546708999999993
 30
0.0
 11
293.25832300000002
 21
-40.0
 31
0.0
  0
LINE
  5
A3
  8
NOTE
  6
CONTINUOUS
 62
     4
 10
293.25832300000002
 20
-40.0
 30
0.0
 11
323.976697
 21
-65.619943000000006
 31
0.0
  0
LINE
  5
A4
  8
NOTE
  6
CONTINUOUS
 62
     4
 10
273.25832300000002
 20
-40.0
 30
0.0
 11
313.25832300000002
 21
-40.0
 31
0.0
  0
LINE
  5
A5
  8
NOTE
  6
CONTINUOUS
 62
     4
 10
293.25832300000002
 20
-20.0
 30
0.0
 11
293.25832300000002
 21
-60.0
 31
0.0
  0
LINE
  5
A6
  8
SIZE
  6
CONTINUOUS
 62
    30
 10
325.0
 20
40.0
 30
0.0
 11
325.0
 21
208.36659900000001
 31
0.0
  0
LINE
  5
A7
  8
SIZE
  6
CONTINUOUS
 62
    30
 10
-325.0
 20
40.0
 30
0.0
 11
-325.0
 21
208.36659900000001
 31
0.0
  0
LINE
  5
A8
  8
SIZE
  6
CONTINUOUS
 62
    30
 10
323.0
 20
178.36659900000001
 30
0.0
 11
-323.0
 21
178.36659900000001
 31
0.0
  0
CIRCLE
  5
A9
  8
SIZE
  6
CONTINUOUS
 62
    30
 10
325.0
 20
178.36659900000001
 30
0.0
 40
6.0
  0
CIRCLE
  5
AA
  8
SIZE
  6
CONTINUOUS
 62
    30
 10
-325.0
 20
178.36659900000001
 30
0.0
 40
6.0
  0
TEXT
  5
AB
  8
SIZE
  6
CONTINUOUS
 62
    30
 10
-74.05714285714285
 20
203.36659900000001
 30
0.0
 40
64.0
  1
650
 41
0.9
 72
     1
 11
0.0
 21
203.36659900000001
 31
0.0
  0
POINT
  5
AC
  8
DEFPOINTS
  6
CONTINUOUS
 62
    30
 10
325.0
 20
20.0
 30
0.0
  0
POINT
  5
AD
  8
DEFPOINTS
  6
CONTINUOUS
 62
    30
 10
-325.0
 20
20.0
 30
0.0
  0
POINT
  5
AE
  8
DEFPOINTS
  6
CONTINUOUS
 62
    30
 10
-325.0
 20
178.36659900000001
 30
0.0
  0
LINE
  5
AF
  8
DETAIL
  6
CONTINUOUS
 62
     5
 10
0.0
 20
-112.94827600000001
 30
0.0
 11
11.791486000000001
 21
-112.94827600000001
 31
0.0
  0
ARC
  5
B0
  8
DETAIL
  6
CONTINUOUS
 62
     5
 10
0.0
 20
-272.306578
 30
0.0
 40
4.7232560000000001
 50
201.42624599999999
 51
320.18303100000003
  0
ARC
  5
B1
  8
DETAIL
  6
CONTINUOUS
 62
     5
 10
0.0
 20
-272.306578
 30
0.0
 40
4.7232560000000001
 50
219.816969
 51
338.57375400000001
  0
LINE
  5
B2
  8
DETAIL
  6
CONTINUOUS
 62
     5
 10
352.44551799999999
 20
-0.029835
 30
0.0
 11
0.0
 21
-0.029835
 31
0.0
  0
LINE
  5
B3
  8
DETAIL
  6
CONTINUOUS
 62
     5
 10
352.25565599999999
 20
-7.7242789999999992
 30
0.0
 11
0.0
 21
-7.7242789999999992
 31
0.0
  0
LINE
  5
B4
  8
DETAIL
  6
CONTINUOUS
 62
     5
 10
346.94948700000009
 20
-10.029835
 30
0.0
 11
0.0
 21
-10.029835
 31
0.0
  0
LINE
  5
B5
  8
OUTLINE
  6
CONTINUOUS
 62
     3
 10
352.25565599999999
 20
-7.694443999999999
 30
0.0
 11
0.0
 21
-7.694443999999999
 31
0.0
  0
LINE
  5
B6
  8
OUTLINE
  6
CONTINUOUS
 62
     3
 10
346.94948700000009
 20
-10.0
 30
0.0
 11
0.0
 21
-10.0
 31
0.0
  0
LINE
  5
B7
  8
OUTLINE
  6
CONTINUOUS
 62
     3
 10
352.44551799999999
 20
0.0
 30
0.0
 11
0.0
 21
0.0
 31
0.0
  0
LINE
  5
B8
  8
DETAIL
  6
CONTINUOUS
 62
     5
 10
191.331918
 20
-248.85017500000001
 30
0.0
 11
0.0
 21
-248.85017500000001
 31
0.0
  0
LINE
  5
B9
  8
DETAIL
  6
CONTINUOUS
 62
     5
 10
0.0
 20
-252.84728899999999
 30
0.0
 11
94.631714000000002
 21
-252.84728899999999
 31
0.0
  0
LINE
  5
BA
  8
DETAIL
  6
CONTINUOUS
 62
     5
 10
200.69773499999999
 20
-216.87326400000001
 30
0.0
 11
0.0
 21
-216.87326400000001
 31
0.0
  0
LINE
  5
BB
  8
DETAIL
  6
CONTINUOUS
 62
     5
 10
0.0
 20
-209.87829500000001
 30
0.0
 11
85.438310000000001
 21
-209.87829500000001
 31
0.0
  0
LINE
  5
BC
  8
DETAIL
  6
CONTINUOUS
 62
     5
 10
0.0
 20
-211.87687199999999
 30
0.0
 11
89.935153999999983
 21
-211.87687199999999
 31
0.0
  0
LINE
  5
BD
  8
DETAIL
  6
CONTINUOUS
 62
     5
 10
0.0
 20
-167.90859900000001
 30
0.0
 11
81.341251999999983
 21
-167.90859900000001
 31
0.0
  0
LINE
  5
BE
  8
DETAIL
  6
CONTINUOUS
 62
     5
 10
0.0
 20
-207.879738
 30
0.0
 11
81.341251999999983
 21
-207.879738
 31
0.0
  0
LINE
  5
BF
  8
DETAIL
  6
CONTINUOUS
 62
     5
 10
0.0
 20
-114.946839
 30
0.0
 11
58.158006999999998
 21
-114.946839
 31
0.0
  0
LINE
  5
C0
  8
DETAIL
  6
CONTINUOUS
 62
     5
 10
0.0
 20
-113.44792200000001
 30
0.0
 11
30.039911
 21
-113.44792200000001
 31
0.0
  0
LINE
  5
C1
  8
DETAIL
  6
CONTINUOUS
 62
     5
 10
65.152957000000001
 20
-151.292596
 30
0.0
 11
0.0
 21
-151.292596
 31
0.0
  0
LINE
  5
C2
  8
DETAIL
  6
CONTINUOUS
 62
     5
 10
65.952380000000005
 20
-152.09201899999999
 30
0.0
 11
0.0
 21
-152.09201899999999
 31
0.0
  0
LINE
  5
C3
  8
DETAIL
  6
CONTINUOUS
 62
     5
 10
71.948049999999995
 20
-207.879738
 30
0.0
 11
0.0
 21
-207.879738
 31
0.0
  0
LINE
  5
C4
  8
DETAIL
  6
CONTINUOUS
 62
     5
 10
0.0
 20
-273.83213699999999
 30
0.0
 11
58.158006999999998
 21
-273.83213699999999
 31
0.0
  0
LINE
  5
C5
  8
DETAIL
  6
CONTINUOUS
 62
     5
 10
30.040272999999999
 20
-275.33105499999999
 30
0.0
 11
0.0
 21
-275.33105499999999
 31
0.0
  0
LINE
  5
C6
  8
DETAIL
  6
CONTINUOUS
 62
     5
 10
270.64722799999998
 20
-93.962011000000004
 30
0.0
 11
0.0
 21
-93.962011000000004
 31
0.0
  0
LINE
  5
C7
  8
DETAIL
  6
CONTINUOUS
 62
     5
 10
269.590304
 20
-100.02983500000001
 30
0.0
 11
0.0
 21
-100.02983500000001
 31
0.0
  0
LINE
  5
C8
  8
DETAIL
  6
CONTINUOUS
 62
     5
 10
330.76117599999998
 20
-20.029834999999999
 30
0.0
 11
0.0
 21
-20.029834999999999
 31
0.0
  0
LINE
  5
C9
  8
OUTLINE
  6
CONTINUOUS
 62
     3
 10
330.76117599999998
 20
-20.0
 30
0.0
 11
0.0
 21
-20.0
 31
0.0
  0
LINE
  5
CA
  8
OUTLINE
  6
CONTINUOUS
 62
     3
 10
269.590304
 20
-100.0
 30
0.0
 11
-2.1998479999999989
 21
-100.03607599999999
 31
0.0
  0
LINE
  5
CB
  8
OUTLINE
  6
CONTINUOUS
 62
     3
 10
270.64722799999998
 20
-93.932176999999996
 30
0.0
 11
0.0
 21
-93.932176999999996
 31
0.0
  0
LINE
  5
CC
  8
OUTLINE
  6
CONTINUOUS
 62
     3
 10
191.331918
 20
-248.82034100000001
 30
0.0
 11
0.0
 21
-248.82034100000001
 31
0.0
  0
LINE
  5
CD
  8
OUTLINE
  6
CONTINUOUS
 62
     3
 10
200.69773499999999
 20
-216.84343000000001
 30
0.0
 11
0.0
 21
-216.84343000000001
 31
0.0
  0
LINE
  5
CE
  8
OUTLINE
  6
CONTINUOUS
 62
     3
 10
0.0
 20
-252.817455
 30
0.0
 11
94.631714000000002
 21
-252.817455
 31
0.0
  0
LINE
  5
CF
  8
OUTLINE
  6
CONTINUOUS
 62
     3
 10
0.0
 20
-209.84845999999999
 30
0.0
 11
85.438310000000001
 21
-209.84845999999999
 31
0.0
  0
LINE
  5
D0
  8
OUTLINE
  6
CONTINUOUS
 62
     3
 10
0.0
 20
-211.847037
 30
0.0
 11
89.935153999999983
 21
-211.847037
 31
0.0
  0
LINE
  5
D1
  8
OUTLINE
  6
CONTINUOUS
 62
     3
 10
0.0
 20
-207.84990300000001
 30
0.0
 11
81.341251999999983
 21
-207.84990300000001
 31
0.0
  0
LINE
  5
D2
  8
OUTLINE
  6
CONTINUOUS
 62
     3
 10
71.948049999999995
 20
-207.84990300000001
 30
0.0
 11
0.0
 21
-207.84990300000001
 31
0.0
  0
LINE
  5
D3
  8
OUTLINE
  6
CONTINUOUS
 62
     3
 10
0.0
 20
-273.80230299999999
 30
0.0
 11
58.158006999999998
 21
-273.80230299999999
 31
0.0
  0
LINE
  5
D4
  8
DETAIL
  6
CONTINUOUS
 62
     5
 10
0.0
 20
-111.34944299999999
 30
0.0
 11
25.901433999999998
 21
-111.34944299999999
 31
0.0
  0
LINE
  5
D5
  8
SIZE
  6
CONTINUOUS
 62
    30
 10
65.5
 20
-286.83718800000003
 30
0.0
 11
65.5
 21
-400.0
 31
0.0
  0
LINE
  5
D6
  8
SIZE
  6
CONTINUOUS
 62
    30
 10
-65.5
 20
-286.83718800000003
 30
0.0
 11
-65.5
 21
-400.0
 31
0.0
  0
LINE
  5
D7
  8
SIZE
  6
CONTINUOUS
 62
    30
 10
101.704939201385
 20
-380.0
 30
0.0
 11
-97.026755681569739
 21
-380.0
 31
0.0
  0
CIRCLE
  5
D9
  8
SIZE
  6
CONTINUOUS
 62
    30
 10
65.5
 20
-380.0
 30
0.0
 40
6.0
  0
CIRCLE
  5
DA
  8
SIZE
  6
CONTINUOUS
 62
    30
 10
-65.5
 20
-380.0
 30
0.0
 40
6.0
  0
TEXT
  5
DB
  8
SIZE
  6
CONTINUOUS
 62
    30
 10
-104.5507203785446
 20
-472.43469581201629
 30
0.0
 40
64.0
  1
φ131
 41
0.9
 72
     1
 11
-8.0021489499731615
 21
-472.43469581201629
 31
0.0
  0
POINT
  5
DC
  8
DEFPOINTS
  6
CONTINUOUS
 62
    30
 10
65.5
 20
-266.83718800000003
 30
0.0
  0
POINT
  5
DD
  8
DEFPOINTS
  6
CONTINUOUS
 62
    30
 10
-65.5
 20
-266.83718800000003
 30
0.0
  0
LINE
  5
DF
  8
SIZE
  6
CONTINUOUS
 62
    30
 10
354.76847299999997
 20
19.970165000000001
 30
0.0
 11
354.76847299999997
 21
350.20753000000002
 31
0.0
  0
LINE
  5
E0
  8
SIZE
  6
CONTINUOUS
 62
    30
 10
-355.23152700000003
 20
17.671824999999998
 30
0.0
 11
-355.23152700000003
 21
350.20753000000002
 31
0.0
  0
LINE
  5
E1
  8
SIZE
  6
CONTINUOUS
 62
    30
 10
352.76847299999997
 20
320.20753000000002
 30
0.0
 11
-353.23152700000003
 21
320.20753000000002
 31
0.0
  0
CIRCLE
  5
E2
  8
SIZE
  6
CONTINUOUS
 62
    30
 10
354.76847299999997
 20
320.20753000000002
 30
0.0
 40
6.0
  0
CIRCLE
  5
E3
  8
SIZE
  6
CONTINUOUS
 62
    30
 10
-355.23152700000003
 20
320.20753000000002
 30
0.0
 40
6.0
  0
TEXT
  5
E4
  8
SIZE
  6
CONTINUOUS
 62
    30
 10
-68.802955571428569
 20
345.20753000000002
 30
0.0
 40
64.0
  1
710
 41
0.9
 72
     1
 11
-0.231527
 21
345.20753000000002
 31
0.0
  0
POINT
  5
E5
  8
DEFPOINTS
  6
CONTINUOUS
 62
    30
 10
354.76847299999997
 20
-0.029835
 30
0.0
  0
POINT
  5
E6
  8
DEFPOINTS
  6
CONTINUOUS
 62
    30
 10
-355.23152700000003
 20
-2.328174999999999
 30
0.0
  0
POINT
  5
E7
  8
DEFPOINTS
  6
CONTINUOUS
 62
    30
 10
-355.23152700000003
 20
320.20753000000002
 30
0.0
  0
ARC
  5
E8
  8
DETAIL
  6
CONTINUOUS
 62
     5
 10
-352.93318599999998
 20
-2.328174999999999
 30
0.0
 40
2.29834
 50
90.0
 51
163.245195
  0
ARC
  5
E9
  8
OUTLINE
  6
CONTINUOUS
 62
     3
 10
-352.93318599999998
 20
-2.29834
 30
0.0
 40
2.29834
 50
90.0
 51
163.245195
  0
LINE
  5
EA
  8
NOTE
  6
CONTINUOUS
 62
     4
 10
-305.0
 20
-0.029835
 30
0.0
 11
-345.0
 21
-0.029835
 31
0.0
  0
LINE
  5
EB
  8
NOTE
  6
CONTINUOUS
 62
     4
 10
-325.0
 20
19.970165000000001
 30
0.0
 11
-325.0
 21
-20.029834999999999
 31
0.0
  0
LINE
  5
EC
  8
DETAIL
  6
CONTINUOUS
 62
     5
 10
-214.57644300000001
 20
-99.957682000000005
 30
0.0
 11
-270.64722799999998
 21
-130.335905
 31
0.0
  0
ARC
  5
ED
  8
DETAIL
  6
CONTINUOUS
 62
     5
 10
-195.57149799999999
 20
-146.9237709999999
 30
0.0
 40
101.926405
 50
180.0
 51
270.0
  0
ARC
  5
EE
  8
DETAIL
  6
CONTINUOUS
 62
     5
 10
-191.331918
 20
-146.9237709999999
 30
0.0
 40
101.926405
 50
180.0
 51
270.0
  0
ARC
  5
EF
  8
OUTLINE
  6
CONTINUOUS
 62
     3
 10
-195.57149799999999
 20
-146.893936
 30
0.0
 40
101.926405
 50
180.0
 51
270.0
  0
ARC
  5
F0
  8
OUTLINE
  6
CONTINUOUS
 62
     3
 10
-191.331918
 20
-146.893936
 30
0.0
 40
101.926405
 50
180.0
 51
270.0
  0
LINE
  5
F1
  8
DETAIL
  6
CONTINUOUS
 62
     5
 10
-353.03075699999999
 20
-0.029835
 30
0.0
 11
0.0
 21
-0.029835
 31
0.0
  0
LINE
  5
F2
  8
DETAIL
  6
CONTINUOUS
 62
     5
 10
-352.8408950000001
 20
-7.7242789999999992
 30
0.0
 11
0.0
 21
-7.7242789999999992
 31
0.0
  0
LINE
  5
F3
  8
DETAIL
  6
CONTINUOUS
 62
     5
 10
-330.76117599999998
 20
-20.029834999999999
 30
0.0
 11
0.0
 21
-20.029834999999999
 31
0.0
  0
LINE
  5
F4
  8
OUTLINE
  6
CONTINUOUS
 62
     3
 10
-352.8408950000001
 20
-7.694443999999999
 30
0.0
 11
0.0
 21
-7.694443999999999
 31
0.0
  0
LINE
  5
F5
  8
OUTLINE
  6
CONTINUOUS
 62
     3
 10
-330.76117599999998
 20
-20.0
 30
0.0
 11
0.0
 21
-20.0
 31
0.0
  0
LINE
  5
F6
  8
OUTLINE
  6
CONTINUOUS
 62
     3
 10
-346.94948700000009
 20
-10.0
 30
0.0
 11
0.0
 21
-10.0
 31
0.0
  0
LINE
  5
F7
  8
DETAIL
  6
CONTINUOUS
 62
     5
 10
-119.33408799999999
 20
-100.02983500000001
 30
0.0
 11
-270.64722799999998
 21
-136.61926600000001
 31
0.0
  0
LINE
  5
F8
  8
DETAIL
  6
CONTINUOUS
 62
     5
 10
-270.64722799999998
 20
-99.993758000000014
 30
0.0
 11
-2.1998479999999989
 21
-100.065911
 31
0.0
  0
LINE
  5
F9
  8
DETAIL
  6
CONTINUOUS
 62
     5
 10
-270.64722799999998
 20
-93.962011000000004
 30
0.0
 11
0.0
 21
-93.962011000000004
 31
0.0
  0
LINE
  5
FA
  8
OUTLINE
  6
CONTINUOUS
 62
     3
 10
-270.64722799999998
 20
-99.963924000000006
 30
0.0
 11
-2.1998479999999989
 21
-100.03607599999999
 31
0.0
  0
LINE
  5
FB
  8
OUTLINE
  6
CONTINUOUS
 62
     3
 10
-270.64722799999998
 20
-93.932176999999996
 30
0.0
 11
0.0
 21
-93.932176999999996
 31
0.0
  0
ARC
  5
FC
  8
DETAIL
  6
CONTINUOUS
 62
     5
 10
-200.69773499999999
 20
-146.9237709999999
 30
0.0
 40
69.949493000000004
 50
180.0
 51
270.0
  0
ARC
  5
FD
  8
OUTLINE
  6
CONTINUOUS
 62
     3
 10
-200.69773499999999
 20
-146.893936
 30
0.0
 40
69.949493000000004
 50
180.0
 51
270.0
  0
ARC
  5
FE
  8
DETAIL
  6
CONTINUOUS
 62
     5
 10
-346.931308
 20
-6.0094940000000001
 30
0.0
 40
4.0203819999999988
 50
205.259432
 51
269.74091800000002
  0
ARC
  5
FF
  8
OUTLINE
  6
CONTINUOUS
 62
     3
 10
-346.931308
 20
-5.9796589999999989
 30
0.0
 40
4.0203819999999988
 50
205.259432
 51
269.74091800000002
  0
LINE
  5
100
  8
DETAIL
  6
CONTINUOUS
 62
     5
 10
-349.24782800000003
 20
-100.02983500000001
 30
0.0
 11
-297.49790300000001
 21
-100.02983500000001
 31
0.0
  0
LINE
  5
101
  8
DETAIL
  6
CONTINUOUS
 62
     5
 10
-349.24782800000003
 20
-94.034164000000004
 30
0.0
 11
-297.49790300000001
 21
-94.034164000000004
 31
0.0
  0
LINE
  5
102
  8
OUTLINE
  6
CONTINUOUS
 62
     3
 10
-349.24782800000003
 20
-100.0
 30
0.0
 11
-297.49790300000001
 21
-100.0
 31
0.0
  0
LINE
  5
103
  8
OUTLINE
  6
CONTINUOUS
 62
     3
 10
-349.24782800000003
 20
-94.004328999999998
 30
0.0
 11
-297.49790300000001
 21
-94.004328999999998
 31
0.0
  0
ARC
  5
104
  8
DETAIL
  6
CONTINUOUS
 62
     5
 10
-349.24782800000003
 20
-97.031999000000013
 30
0.0
 40
2.9978349999999989
 50
90.0
 51
270.0
  0
ARC
  5
105
  8
OUTLINE
  6
CONTINUOUS
 62
     3
 10
-349.24782800000003
 20
-97.002165000000005
 30
0.0
 40
2.9978349999999989
 50
90.0
 51
270.0
  0
ARC
  5
106
  8
DETAIL
  6
CONTINUOUS
 62
     5
 10
-352.74332400000009
 20
-6.4252169999999991
 30
0.0
 40
1.2990619999999999
 50
196.754805
 51
270.0
  0
LINE
  5
107
  8
DETAIL
  6
CONTINUOUS
 62
     5
 10
-353.98723699999999
 20
-6.7997059999999987
 30
0.0
 11
-355.13395600000001
 21
-2.9907330000000001
 31
0.0
  0
ARC
  5
108
  8
OUTLINE
  6
CONTINUOUS
 62
     3
 10
-352.74332400000009
 20
-6.3953819999999988
 30
0.0
 40
1.2990619999999999
 50
196.754805
 51
270.0
  0
LINE
  5
109
  8
OUTLINE
  6
CONTINUOUS
 62
     3
 10
-353.98723699999999
 20
-6.7698710000000011
 30
0.0
 11
-355.13395600000001
 21
-2.9608979999999989
 31
0.0
  0
ARC
  5
10A
  8
DETAIL
  6
CONTINUOUS
 62
     5
 10
-352.93318599999998
 20
-2.328174999999999
 30
0.0
 40
2.29834
 50
163.245195
 51
196.754805
  0
ARC
  5
10B
  8
OUTLINE
  6
CONTINUOUS
 62
     3
 10
-352.93318599999998
 20
-2.29834
 30
0.0
 40
2.29834
 50
163.245195
 51
196.754805
  0
ARC
  5
10C
  8
DETAIL
  6
CONTINUOUS
 62
     5
 10
-353.54472500000003
 20
-49.379444999999997
 30
0.0
 40
49.963923999999999
 50
296.80638399999998
 51
0.0
  0
ARC
  5
10D
  8
OUTLINE
  6
CONTINUOUS
 62
     3
 10
-353.54472500000003
 20
-49.349610999999989
 30
0.0
 40
49.963923999999999
 50
296.80638399999998
 51
0.0
  0
LINE
  5
10E
  8
DETAIL
  6
CONTINUOUS
 62
     5
 10
-270.64722799999998
 20
-146.9237709999999
 30
0.0
 11
-270.64722799999998
 21
-34.005296999999999
 31
0.0
  0
LINE
  5
10F
  8
DETAIL
  6
CONTINUOUS
 62
     5
 10
-297.49790300000001
 20
-146.9237709999999
 30
0.0
 11
-297.49790300000001
 21
-26.011075000000002
 31
0.0
  0
LINE
  5
110
  8
DETAIL
  6
CONTINUOUS
 62
     5
 10
-293.25832300000002
 20
-146.9237709999999
 30
0.0
 11
-293.25832300000002
 21
-26.011075000000002
 31
0.0
  0
LINE
  5
111
  8
OUTLINE
  6
CONTINUOUS
 62
     3
 10
-270.64722799999998
 20
-146.893936
 30
0.0
 11
-270.64722799999998
 21
-33.975462999999998
 31
0.0
  0
LINE
  5
112
  8
OUTLINE
  6
CONTINUOUS
 62
     3
 10
-297.49790300000001
 20
-146.893936
 30
0.0
 11
-297.49790300000001
 21
-25.98124
 31
0.0
  0
LINE
  5
113
  8
OUTLINE
  6
CONTINUOUS
 62
     3
 10
-293.25832300000002
 20
-146.893936
 30
0.0
 11
-293.25832300000002
 21
-25.98124
 31
0.0
  0
LINE
  5
114
  8
OUTLINE
  6
CONTINUOUS
 62
     3
 10
-318.69578999999999
 20
-20.0
 30
0.0
 11
-249.44932800000001
 21
-20.0
 31
0.0
  0
LINE
  5
115
  8
DETAIL
  6
CONTINUOUS
 62
     5
 10
-318.69578999999999
 20
-26.011075000000002
 30
0.0
 11
-249.44932800000001
 21
-26.011075000000002
 31
0.0
  0
LINE
  5
116
  8
DETAIL
  6
CONTINUOUS
 62
     5
 10
-318.69578999999999
 20
-20.029834999999999
 30
0.0
 11
-249.44932800000001
 21
-20.029834999999999
 31
0.0
  0
LINE
  5
117
  8
OUTLINE
  6
CONTINUOUS
 62
     3
 10
-318.69578999999999
 20
-25.98124
 30
0.0
 11
-249.44932800000001
 21
-25.98124
 31
0.0
  0
LINE
  5
118
  8
DETAIL
  6
DASHED
 62
     5
 10
-296.72034500000001
 20
-10.022619000000001
 30
0.0
 11
-306.71312899999998
 21
-10.022619000000001
 31
0.0
  0
LINE
  5
119
  8
OUTLINE
  6
DASHED
 62
     3
 10
-296.72034500000001
 20
-9.9927850000000014
 30
0.0
 11
-306.71312899999998
 21
-9.9927850000000014
 31
0.0
  0
LINE
  5
11A
  8
OUTLINE
  6
CONTINUOUS
 62
     3
 10
-309.96079400000002
 20
-33.975462999999998
 30
0.0
 11
-298.537058
 21
-33.975462999999998
 31
0.0
  0
LINE
  5
11B
  8
OUTLINE
  6
CONTINUOUS
 62
     3
 10
-311.50966599999998
 20
-25.98124
 30
0.0
 11
-298.537058
 21
-25.98124
 31
0.0
  0
LINE
  5
11C
  8
OUTLINE
  6
CONTINUOUS
 62
     3
 10
-303.58080100000001
 20
-49.349610999999989
 30
0.0
 11
-303.58080100000001
 21
-39.971139000000001
 31
0.0
  0
ARC
  5
11D
  8
OUTLINE
  6
CONTINUOUS
 62
     3
 10
-323.566371
 20
-39.971139000000001
 30
0.0
 40
19.985569999999999
 50
0.0
 51
17.457619999999999
  0
LINE
  5
11E
  8
OUTLINE
  6
CONTINUOUS
 62
     3
 10
-306.61320000000001
 20
-25.981241000000001
 30
0.0
 11
-306.61320000000001
 21
-33.076117000000004
 31
0.0
  0
LINE
  5
11F
  8
OUTLINE
  6
CONTINUOUS
 62
     3
 10
-309.96078799999998
 20
-33.975473999999998
 30
0.0
 11
-311.50967000000003
 21
-33.076124
 31
0.0
  0
LINE
  5
120
  8
OUTLINE
  6
CONTINUOUS
 62
     3
 10
-311.50966599999998
 20
-33.076117000000004
 30
0.0
 11
-311.50966599999998
 21
-25.98124
 31
0.0
  0
ARC
  5
121
  8
OUTLINE
  6
CONTINUOUS
 62
     3
 10
-309.06143100000003
 20
-30.193445000000001
 30
0.0
 40
3.7820139999999989
 50
270.00001800000001
 51
310.3409759999999
  0
LINE
  5
122
  8
OUTLINE
  6
CONTINUOUS
 62
     3
 10
-318.69578999999999
 20
-20.0
 30
0.0
 11
-318.69578999999999
 21
-25.98124
 31
0.0
  0
LINE
  5
123
  8
DETAIL
  6
CONTINUOUS
 62
     5
 10
-303.58080100000001
 20
-49.379444999999997
 30
0.0
 11
-303.58080100000001
 21
-40.000973999999999
 31
0.0
  0
ARC
  5
124
  8
DETAIL
  6
CONTINUOUS
 62
     5
 10
-323.566371
 20
-40.000973999999999
 30
0.0
 40
19.985569999999999
 50
0.0
 51
17.457619999999999
  0
LINE
  5
125
  8
DETAIL
  6
CONTINUOUS
 62
     5
 10
-306.61320000000001
 20
-26.011075999999999
 30
0.0
 11
-306.61320000000001
 21
-33.105952000000002
 31
0.0
  0
ARC
  5
126
  8
DETAIL
  6
CONTINUOUS
 62
     5
 10
-301.71673700000002
 20
-20.226351000000001
 30
0.0
 40
13.778945999999999
 50
249.18466100000001
 51
283.34203000000002
  0
LINE
  5
127
  8
DETAIL
  6
CONTINUOUS
 62
     5
 10
-309.96078799999998
 20
-34.005309000000011
 30
0.0
 11
-311.50967000000003
 21
-33.105959000000013
 31
0.0
  0
LINE
  5
128
  8
DETAIL
  6
CONTINUOUS
 62
     5
 10
-311.50966599999998
 20
-33.105952000000002
 30
0.0
 11
-311.50966599999998
 21
-26.011075000000002
 31
0.0
  0
ARC
  5
129
  8
DETAIL
  6
CONTINUOUS
 62
     5
 10
-309.06143100000003
 20
-30.223279999999999
 30
0.0
 40
3.7820139999999989
 50
270.00001800000001
 51
310.3409759999999
  0
LINE
  5
12A
  8
DETAIL
  6
CONTINUOUS
 62
     5
 10
-309.96079400000002
 20
-34.005296999999999
 30
0.0
 11
-298.537058
 21
-34.005296999999999
 31
0.0
  0
LINE
  5
12B
  8
DETAIL
  6
CONTINUOUS
 62
     5
 10
-311.50966599999998
 20
-26.011075000000002
 30
0.0
 11
-298.537058
 21
-26.011075000000002
 31
0.0
  0
LINE
  5
12C
  8
DETAIL
  6
CONTINUOUS
 62
     5
 10
-318.69578999999999
 20
-20.029834999999999
 30
0.0
 11
-318.69578999999999
 21
-26.011075000000002
 31
0.0
  0
ARC
  5
12D
  8
OUTLINE
  6
CONTINUOUS
 62
     3
 10
-301.71673700000002
 20
-20.196517
 30
0.0
 40
13.778945999999999
 50
249.18466100000001
 51
283.34203000000002
  0
ARC
  5
12E
  8
DETAIL
  6
CONTINUOUS
 62
     5
 10
-330.76117599999998
 20
-16.01829
 30
0.0
 40
3.9971139999999989
 50
180.0
 51
270.0
  0
ARC
  5
12F
  8
OUTLINE
  6
CONTINUOUS
 62
     3
 10
-330.76117599999998
 20
-15.988455999999999
 30
0.0
 40
3.9971139999999989
 50
180.0
 51
270.0
  0
LINE
  5
130
  8
DETAIL
  6
CONTINUOUS
 62
     5
 10
-333.13028600000001
 20
-14.019733
 30
0.0
 11
-333.13028600000001
 21
-16.01829
 31
0.0
  0
LINE
  5
131
  8
DETAIL
  6
CONTINUOUS
 62
     5
 10
-334.75828999999999
 20
-16.01829
 30
0.0
 11
-334.75828999999999
 21
-14.019733
 31
0.0
  0
ARC
  5
132
  8
DETAIL
  6
CONTINUOUS
 62
     5
 10
-337.11511000000002
 20
-14.014642
 30
0.0
 40
3.9848269999999988
 50
359.9268009999999
 51
90.176717000000011
  0
ARC
  5
133
  8
DETAIL
  6
CONTINUOUS
 62
     5
 10
-338.755404
 20
-14.019733
 30
0.0
 40
3.9971139999999989
 50
0.0
 51
90.0
  0
LINE
  5
134
  8
OUTLINE
  6
CONTINUOUS
 62
     3
 10
-333.13028600000001
 20
-13.989898999999999
 30
0.0
 11
-333.13028600000001
 21
-15.988455999999999
 31
0.0
  0
LINE
  5
135
  8
OUTLINE
  6
CONTINUOUS
 62
     3
 10
-334.75828999999999
 20
-15.988455999999999
 30
0.0
 11
-334.75828999999999
 21
-13.989898999999999
 31
0.0
  0
ARC
  5
136
  8
OUTLINE
  6
CONTINUOUS
 62
     3
 10
-337.11511000000002
 20
-13.984807999999999
 30
0.0
 40
3.9848269999999988
 50
359.9268009999999
 51
90.176717000000011
  0
ARC
  5
137
  8
OUTLINE
  6
CONTINUOUS
 62
     3
 10
-338.755404
 20
-13.989898999999999
 30
0.0
 40
3.9971139999999989
 50
0.0
 51
90.0
  0
ARC
  5
138
  8
DETAIL
  6
CONTINUOUS
 62
     5
 10
-329.133173
 20
-16.01829
 30
0.0
 40
3.9971139999999989
 50
180.0
 51
269.999999
  0
ARC
  5
139
  8
OUTLINE
  6
CONTINUOUS
 62
     3
 10
-329.133173
 20
-15.988455999999999
 30
0.0
 40
3.9971139999999989
 50
180.0
 51
269.999999
  0
LINE
  5
13A
  8
OUTLINE
  6
CONTINUOUS
 62
     3
 10
-256.59398399999998
 20
-25.98124
 30
0.0
 11
-256.59398399999998
 21
-33.076117000000004
 31
0.0
  0
LINE
  5
13B
  8
OUTLINE
  6
CONTINUOUS
 62
     3
 10
-261.49045000000001
 20
-25.981238999999999
 30
0.0
 11
-261.49045000000001
 21
-33.076117000000004
 31
0.0
  0
ARC
  5
13C
  8
OUTLINE
  6
CONTINUOUS
 62
     3
 10
-259.04221899999999
 20
-30.193445000000001
 30
0.0
 40
3.7820139999999989
 50
229.659063
 51
270.00001800000001
  0
LINE
  5
13D
  8
OUTLINE
  6
CONTINUOUS
 62
     3
 10
-260.75487600000002
 20
-25.98124
 30
0.0
 11
-260.75487600000002
 21
-19.985569999999999
 31
0.0
  0
LINE
  5
13E
  8
OUTLINE
  6
CONTINUOUS
 62
     3
 10
-256.59398099999999
 20
-33.076124
 30
0.0
 11
-258.14286199999998
 21
-33.975473999999998
 31
0.0
  0
LINE
  5
13F
  8
OUTLINE
  6
CONTINUOUS
 62
     3
 10
-249.44932800000001
 20
-19.985569999999999
 30
0.0
 11
-249.44932800000001
 21
-25.98124
 31
0.0
  0
LINE
  5
140
  8
DETAIL
  6
CONTINUOUS
 62
     5
 10
-256.59398399999998
 20
-26.011075000000002
 30
0.0
 11
-256.59398399999998
 21
-33.105952000000002
 31
0.0
  0
LINE
  5
141
  8
DETAIL
  6
CONTINUOUS
 62
     5
 10
-261.49045000000001
 20
-26.011074000000001
 30
0.0
 11
-261.49045000000001
 21
-33.105952000000002
 31
0.0
  0
ARC
  5
142
  8
DETAIL
  6
CONTINUOUS
 62
     5
 10
-259.04221899999999
 20
-30.223279999999999
 30
0.0
 40
3.7820139999999989
 50
229.659063
 51
270.00001800000001
  0
LINE
  5
143
  8
DETAIL
  6
CONTINUOUS
 62
     5
 10
-260.75487600000002
 20
-26.011075000000002
 30
0.0
 11
-260.75487600000002
 21
-20.015404
 31
0.0
  0
LINE
  5
144
  8
DETAIL
  6
CONTINUOUS
 62
     5
 10
-256.59398099999999
 20
-33.105959000000013
 30
0.0
 11
-258.14286199999998
 21
-34.005309000000011
 31
0.0
  0
LINE
  5
145
  8
DETAIL
  6
CONTINUOUS
 62
     5
 10
-249.44932800000001
 20
-20.015404
 30
0.0
 11
-249.44932800000001
 21
-26.011075000000002
 31
0.0
  0
LINE
  5
146
  8
OUTLINE
  6
CONTINUOUS
 62
     3
 10
-274.630965
 20
-33.975473999999998
 30
0.0
 11
-276.179847
 21
-33.076124
 31
0.0
  0
LINE
  5
147
  8
OUTLINE
  6
CONTINUOUS
 62
     3
 10
-276.17984300000001
 20
-33.076117000000004
 30
0.0
 11
-276.17984300000001
 21
-25.98124
 31
0.0
  0
LINE
  5
148
  8
OUTLINE
  6
CONTINUOUS
 62
     3
 10
-271.28337699999997
 20
-25.981241000000001
 30
0.0
 11
-271.28337699999997
 21
-33.076117000000004
 31
0.0
  0
LINE
  5
149
  8
OUTLINE
  6
CONTINUOUS
 62
     3
 10
-272.06042300000001
 20
-25.98124
 30
0.0
 11
-272.06042300000001
 21
-19.985569999999999
 31
0.0
  0
LINE
  5
14A
  8
DETAIL
  6
CONTINUOUS
 62
     5
 10
-274.630965
 20
-34.005309000000011
 30
0.0
 11
-276.179847
 21
-33.105959000000013
 31
0.0
  0
LINE
  5
14B
  8
DETAIL
  6
CONTINUOUS
 62
     5
 10
-276.17984300000001
 20
-33.105952000000002
 30
0.0
 11
-276.17984300000001
 21
-26.011075000000002
 31
0.0
  0
LINE
  5
14C
  8
DETAIL
  6
CONTINUOUS
 62
     5
 10
-271.28337699999997
 20
-26.011075999999999
 30
0.0
 11
-271.28337699999997
 21
-33.105952000000002
 31
0.0
  0
LINE
  5
14D
  8
DETAIL
  6
CONTINUOUS
 62
     5
 10
-272.06042300000001
 20
-26.011075000000002
 30
0.0
 11
-272.06042300000001
 21
-20.015404
 31
0.0
  0
LINE
  5
14E
  8
OUTLINE
  6
DASHED
 62
     3
 10
-261.39052099999998
 20
-9.9927850000000014
 30
0.0
 11
-271.383306
 21
-9.9927850000000014
 31
0.0
  0
LINE
  5
14F
  8
DETAIL
  6
DASHED
 62
     5
 10
-261.39052099999998
 20
-10.022619000000001
 30
0.0
 11
-271.383306
 21
-10.022619000000001
 31
0.0
  0
ARC
  5
150
  8
OUTLINE
  6
CONTINUOUS
 62
     3
 10
-273.73160799999999
 20
-30.193445000000001
 30
0.0
 40
3.7820139999999989
 50
270.00001800000001
 51
310.3409759999999
  0
ARC
  5
151
  8
OUTLINE
  6
CONTINUOUS
 62
     3
 10
-266.38691399999999
 20
-20.196517
 30
0.0
 40
13.778945999999999
 50
249.18466100000001
 51
290.81542899999999
  0
LINE
  5
152
  8
OUTLINE
  6
CONTINUOUS
 62
     3
 10
-274.63096999999999
 20
-33.975462999999998
 30
0.0
 11
-258.14285699999999
 21
-33.975462999999998
 31
0.0
  0
LINE
  5
153
  8
OUTLINE
  6
CONTINUOUS
 62
     3
 10
-276.17984300000001
 20
-25.98124
 30
0.0
 11
-256.59398399999998
 21
-25.98124
 31
0.0
  0
ARC
  5
154
  8
DETAIL
  6
CONTINUOUS
 62
     5
 10
-273.73160799999999
 20
-30.223279999999999
 30
0.0
 40
3.7820139999999989
 50
270.00001800000001
 51
310.3409759999999
  0
ARC
  5
155
  8
DETAIL
  6
CONTINUOUS
 62
     5
 10
-266.38691399999999
 20
-20.226351000000001
 30
0.0
 40
13.778945999999999
 50
249.18466100000001
 51
290.81542899999999
  0
LINE
  5
156
  8
DETAIL
  6
CONTINUOUS
 62
     5
 10
-274.63096999999999
 20
-34.005296999999999
 30
0.0
 11
-258.14285699999999
 21
-34.005296999999999
 31
0.0
  0
LINE
  5
157
  8
DETAIL
  6
CONTINUOUS
 62
     5
 10
-276.17984300000001
 20
-26.011075000000002
 30
0.0
 11
-256.59398399999998
 21
-26.011075000000002
 31
0.0
  0
LINE
  5
158
  8
DETAIL
  6
CONTINUOUS
 62
     5
 10
-65.952380000000005
 20
-152.09201899999999
 30
0.0
 11
-65.952380000000005
 21
-167.90859900000001
 31
0.0
  0
LINE
  5
159
  8
DETAIL
  6
CONTINUOUS
 62
     5
 10
-200.69773499999999
 20
-216.87326400000001
 30
0.0
 11
0.0
 21
-216.87326400000001
 31
0.0
  0
LINE
  5
15A
  8
OUTLINE
  6
CONTINUOUS
 62
     3
 10
-200.69773499999999
 20
-216.84343000000001
 30
0.0
 11
0.0
 21
-216.84343000000001
 31
0.0
  0
LINE
  5
15B
  8
DETAIL
  6
CONTINUOUS
 62
     5
 10
-191.331918
 20
-248.85017500000001
 30
0.0
 11
0.0
 21
-248.85017500000001
 31
0.0
  0
LINE
  5
15C
  8
OUTLINE
  6
CONTINUOUS
 62
     3
 10
-191.331918
 20
-248.82034100000001
 30
0.0
 11
0.0
 21
-248.82034100000001
 31
0.0
  0
LINE
  5
15D
  8
DETAIL
  6
CONTINUOUS
 62
     5
 10
0.0
 20
-273.83213699999999
 30
0.0
 11
-58.158006999999998
 21
-273.83213699999999
 31
0.0
  0
LINE
  5
15E
  8
OUTLINE
  6
CONTINUOUS
 62
     3
 10
0.0
 20
-273.80230299999999
 30
0.0
 11
-58.158006999999998
 21
-273.80230299999999
 31
0.0
  0
LINE
  5
15F
  8
DETAIL
  6
CONTINUOUS
 62
     5
 10
0.0
 20
-252.84728899999999
 30
0.0
 11
-94.631714000000002
 21
-252.84728899999999
 31
0.0
  0
LINE
  5
160
  8
OUTLINE
  6
CONTINUOUS
 62
     3
 10
0.0
 20
-252.817455
 30
0.0
 11
-94.631714000000002
 21
-252.817455
 31
0.0
  0
LINE
  5
161
  8
DETAIL
  6
CONTINUOUS
 62
     5
 10
-94.631714000000002
 20
-248.85017500000001
 30
0.0
 11
-94.631714000000002
 21
-252.84728899999999
 31
0.0
  0
LINE
  5
162
  8
OUTLINE
  6
CONTINUOUS
 62
     3
 10
-94.631714000000002
 20
-248.82034100000001
 30
0.0
 11
-94.631714000000002
 21
-252.817455
 31
0.0
  0
ARC
  5
163
  8
DETAIL
  6
CONTINUOUS
 62
     5
 10
-58.505051000000002
 20
-266.83718800000003
 30
0.0
 40
6.9949490000000001
 50
180.0
 51
270.0
  0
LINE
  5
164
  8
DETAIL
  6
CONTINUOUS
 62
     5
 10
-65.5
 20
-252.84728899999999
 30
0.0
 11
-65.5
 21
-266.83718800000003
 31
0.0
  0
ARC
  5
165
  8
DETAIL
  6
CONTINUOUS
 62
     5
 10
-61.902597
 20
-257.843682
 30
0.0
 40
6.0955989999999991
 50
129.60196500000001
 51
230.39801700000001
  0
LINE
  5
166
  8
DETAIL
  6
CONTINUOUS
 62
     5
 10
-65.5
 20
-262.54029000000003
 30
0.0
 11
-65.788236999999995
 21
-262.54029000000003
 31
0.0
  0
LINE
  5
167
  8
DETAIL
  6
CONTINUOUS
 62
     5
 10
-65.5
 20
-253.14707300000001
 30
0.0
 11
-65.5
 21
-262.54029000000003
 31
0.0
  0
LINE
  5
168
  8
DETAIL
  6
CONTINUOUS
 62
     5
 10
-65.788236999999995
 20
-262.54029000000003
 30
0.0
 11
-65.788236999999995
 21
-253.14707300000001
 31
0.0
  0
LINE
  5
169
  8
DETAIL
  6
CONTINUOUS
 62
     5
 10
-65.5
 20
-253.14707300000001
 30
0.0
 11
-65.788236999999995
 21
-253.14707300000001
 31
0.0
  0
ARC
  5
16A
  8
OUTLINE
  6
CONTINUOUS
 62
     3
 10
-58.505051000000002
 20
-266.80735299999998
 30
0.0
 40
6.9949490000000001
 50
180.0
 51
270.0
  0
LINE
  5
16B
  8
OUTLINE
  6
CONTINUOUS
 62
     3
 10
-65.5
 20
-252.817455
 30
0.0
 11
-65.5
 21
-266.80735299999998
 31
0.0
  0
ARC
  5
16C
  8
OUTLINE
  6
CONTINUOUS
 62
     3
 10
-61.902597
 20
-257.81384700000001
 30
0.0
 40
6.0955989999999991
 50
129.60196500000001
 51
230.39801700000001
  0
LINE
  5
16D
  8
OUTLINE
  6
CONTINUOUS
 62
     3
 10
-65.5
 20
-262.51045599999998
 30
0.0
 11
-65.788236999999995
 21
-262.51045599999998
 31
0.0
  0
LINE
  5
16E
  8
OUTLINE
  6
CONTINUOUS
 62
     3
 10
-65.5
 20
-253.11723799999999
 30
0.0
 11
-65.5
 21
-262.51045599999998
 31
0.0
  0
LINE
  5
16F
  8
OUTLINE
  6
CONTINUOUS
 62
     3
 10
-65.788236999999995
 20
-262.51045599999998
 30
0.0
 11
-65.788236999999995
 21
-253.11723799999999
 31
0.0
  0
LINE
  5
170
  8
OUTLINE
  6
CONTINUOUS
 62
     3
 10
-65.5
 20
-253.11723799999999
 30
0.0
 11
-65.788236999999995
 21
-253.11723799999999
 31
0.0
  0
LINE
  5
171
  8
DETAIL
  6
CONTINUOUS
 62
     5
 10
-30.040272999999999
 20
-275.33105499999999
 30
0.0
 11
0.0
 21
-275.33105499999999
 31
0.0
  0
LINE
  5
172
  8
DETAIL
  6
CONTINUOUS
 62
     5
 10
-34.970166999999996
 20
-275.05840000000001
 30
0.0
 11
-35.304029
 21
-275.33105499999999
 31
0.0
  0
LINE
  5
173
  8
DETAIL
  6
CONTINUOUS
 62
     5
 10
-33.459843999999997
 20
-273.83213699999999
 30
0.0
 11
-34.976027000000002
 21
-275.06318599999997
 31
0.0
  0
LINE
  5
174
  8
DETAIL
  6
CONTINUOUS
 62
     5
 10
-30.040326
 20
-275.33105499999999
 30
0.0
 11
-31.273012999999999
 21
-274.56210299999998
 31
0.0
  0
LINE
  5
175
  8
DETAIL
  6
CONTINUOUS
 62
     5
 10
-31.269096000000001
 20
-274.56454600000001
 30
0.0
 11
-32.431759999999997
 21
-273.83213699999999
 31
0.0
  0
ARC
  5
176
  8
DETAIL
  6
CONTINUOUS
 62
     5
 10
-28.479437000000001
 20
-272.306578
 30
0.0
 40
4.7232560000000001
 50
198.843774
 51
320.18303100000003
  0
LINE
  5
177
  8
DETAIL
  6
CONTINUOUS
 62
     5
 10
-53.161614999999998
 20
-275.33105499999999
 30
0.0
 11
-43.768397
 21
-275.33105499999999
 31
0.0
  0
LINE
  5
178
  8
DETAIL
  6
CONTINUOUS
 62
     5
 10
-43.768397
 20
-275.61929199999997
 30
0.0
 11
-53.161614999999998
 21
-275.61929199999997
 31
0.0
  0
ARC
  5
179
  8
DETAIL
  6
CONTINUOUS
 62
     5
 10
-48.465006000000002
 20
-271.73365200000001
 30
0.0
 40
6.0955989999999991
 50
219.60196500000001
 51
320.39801699999998
  0
LINE
  5
17A
  8
DETAIL
  6
CONTINUOUS
 62
     5
 10
-57.458511999999999
 20
-273.83213699999999
 30
0.0
 11
-55.959594999999993
 21
-275.33105499999999
 31
0.0
  0
LINE
  5
17B
  8
DETAIL
  6
CONTINUOUS
 62
     5
 10
-53.161614999999998
 20
-275.33105499999999
 30
0.0
 11
-53.161614999999998
 21
-275.61929199999997
 31
0.0
  0
LINE
  5
17C
  8
DETAIL
  6
CONTINUOUS
 62
     5
 10
-43.768397
 20
-275.33105499999999
 30
0.0
 11
-43.768397
 21
-275.61929199999997
 31
0.0
  0
LINE
  5
17D
  8
DETAIL
  6
CONTINUOUS
 62
     5
 10
-55.959594999999993
 20
-275.33105499999999
 30
0.0
 11
-35.304006000000001
 21
-275.33105499999999
 31
0.0
  0
LINE
  5
17E
  8
DETAIL
  6
CONTINUOUS
 62
     5
 10
-58.405028999999999
 20
-197.63713999999999
 30
0.0
 11
-50.410800999999999
 21
-197.63713999999999
 31
0.0
  0
ARC
  5
17F
  8
DETAIL
  6
CONTINUOUS
 62
     5
 10
-54.407915000000003
 20
-211.77158
 30
0.0
 40
10.387146
 50
68.852896999999999
 51
111.147177
  0
LINE
  5
180
  8
DETAIL
  6
CONTINUOUS
 62
     5
 10
-48.162424999999999
 20
-201.38442800000001
 30
0.0
 11
-60.653405999999997
 21
-201.38442800000001
 31
0.0
  0
LINE
  5
181
  8
DETAIL
  6
CONTINUOUS
 62
     5
 10
-61.902504
 20
-207.879738
 30
0.0
 11
-46.913327000000002
 21
-207.879738
 31
0.0
  0
LINE
  5
182
  8
OUTLINE
  6
CONTINUOUS
 62
     3
 10
-58.405028999999999
 20
-197.60730599999999
 30
0.0
 11
-50.410800999999999
 21
-197.60730599999999
 31
0.0
  0
ARC
  5
183
  8
OUTLINE
  6
CONTINUOUS
 62
     3
 10
-54.407915000000003
 20
-211.74174600000001
 30
0.0
 40
10.387146
 50
68.852896999999999
 51
111.147177
  0
LINE
  5
184
  8
OUTLINE
  6
CONTINUOUS
 62
     3
 10
-48.162424999999999
 20
-201.35459299999999
 30
0.0
 11
-60.653405999999997
 21
-201.35459299999999
 31
0.0
  0
LINE
  5
185
  8
OUTLINE
  6
CONTINUOUS
 62
     3
 10
-61.902504
 20
-207.84990300000001
 30
0.0
 11
-46.913327000000002
 21
-207.84990300000001
 31
0.0
  0
LINE
  5
186
  8
DETAIL
  6
CONTINUOUS
 62
     5
 10
0.0
 20
-207.879738
 30
0.0
 11
-81.341251999999983
 21
-207.879738
 31
0.0
  0
LINE
  5
187
  8
DETAIL
  6
CONTINUOUS
 62
     5
 10
-71.948049999999995
 20
-207.879738
 30
0.0
 11
0.0
 21
-207.879738
 31
0.0
  0
LINE
  5
188
  8
OUTLINE
  6
CONTINUOUS
 62
     3
 10
0.0
 20
-207.84990300000001
 30
0.0
 11
-81.341251999999983
 21
-207.84990300000001
 31
0.0
  0
LINE
  5
189
  8
OUTLINE
  6
CONTINUOUS
 62
     3
 10
-71.948049999999995
 20
-207.84990300000001
 30
0.0
 11
0.0
 21
-207.84990300000001
 31
0.0
  0
LINE
  5
18A
  8
DETAIL
  6
CONTINUOUS
 62
     5
 10
0.0
 20
-167.90859900000001
 30
0.0
 11
-81.341251999999983
 21
-167.90859900000001
 31
0.0
  0
LINE
  5
18B
  8
DETAIL
  6
CONTINUOUS
 62
     5
 10
0.0
 20
-211.87687199999999
 30
0.0
 11
-89.935153999999983
 21
-211.87687199999999
 31
0.0
  0
LINE
  5
18C
  8
DETAIL
  6
CONTINUOUS
 62
     5
 10
0.0
 20
-209.87829500000001
 30
0.0
 11
-85.438310000000001
 21
-209.87829500000001
 31
0.0
  0
LINE
  5
18D
  8
OUTLINE
  6
CONTINUOUS
 62
     3
 10
0.0
 20
-211.847037
 30
0.0
 11
-89.935153999999983
 21
-211.847037
 31
0.0
  0
LINE
  5
18E
  8
OUTLINE
  6
CONTINUOUS
 62
     3
 10
0.0
 20
-209.84845999999999
 30
0.0
 11
-85.438310000000001
 21
-209.84845999999999
 31
0.0
  0
LINE
  5
18F
  8
DETAIL
  6
CONTINUOUS
 62
     5
 10
-81.341251999999983
 20
-207.879738
 30
0.0
 11
-81.341251999999983
 21
-167.90859900000001
 31
0.0
  0
LINE
  5
190
  8
DETAIL
  6
CONTINUOUS
 62
     5
 10
-60.133864000000003
 20
-167.90859900000001
 30
0.0
 11
-60.133864000000003
 21
-201.38442800000001
 31
0.0
  0
LINE
  5
191
  8
DETAIL
  6
CONTINUOUS
 62
     5
 10
-58.365745999999987
 20
-167.90859900000001
 30
0.0
 11
-58.365745999999987
 21
-197.63713999999999
 31
0.0
  0
LINE
  5
192
  8
DETAIL
  6
CONTINUOUS
 62
     5
 10
-75.370114999999998
 20
-167.90859900000001
 30
0.0
 11
-75.370114999999998
 21
-207.879738
 31
0.0
  0
LINE
  5
193
  8
DETAIL
  6
CONTINUOUS
 62
     5
 10
-58.405028999999999
 20
-197.63713999999999
 30
0.0
 11
-58.405028999999999
 21
-201.384434
 31
0.0
  0
LINE
  5
194
  8
DETAIL
  6
CONTINUOUS
 62
     5
 10
-58.155208999999999
 20
-207.87973700000001
 30
0.0
 11
-58.155208999999999
 21
-202.083922
 31
0.0
  0
ARC
  5
195
  8
DETAIL
  6
CONTINUOUS
 62
     5
 10
-60.028855999999998
 20
-204.24352200000001
 30
0.0
 40
2.8590939999999989
 50
49.05541199999999
 51
89.999981999999974
  0
LINE
  5
196
  8
DETAIL
  6
CONTINUOUS
 62
     5
 10
-61.902503000000003
 20
-202.083922
 30
0.0
 11
-61.902503000000003
 21
-207.87973700000001
 31
0.0
  0
LINE
  5
197
  8
DETAIL
  6
CONTINUOUS
 62
     5
 10
-60.653407000000001
 20
-201.384424
 30
0.0
 11
-61.902506000000002
 21
-202.08391900000001
 31
0.0
  0
LINE
  5
198
  8
DETAIL
  6
CONTINUOUS
 62
     5
 10
-62.901803999999998
 20
-207.879738
 30
0.0
 11
-62.901803999999998
 21
-211.87685200000001
 31
0.0
  0
LINE
  5
199
  8
OUTLINE
  6
CONTINUOUS
 62
     3
 10
-58.405028999999999
 20
-197.60730599999999
 30
0.0
 11
-58.405028999999999
 21
-201.3546
 31
0.0
  0
LINE
  5
19A
  8
OUTLINE
  6
CONTINUOUS
 62
     3
 10
-58.155208999999999
 20
-207.84990199999999
 30
0.0
 11
-58.155208999999999
 21
-202.05408800000001
 31
0.0
  0
ARC
  5
19B
  8
OUTLINE
  6
CONTINUOUS
 62
     3
 10
-60.028855999999998
 20
-204.21368699999999
 30
0.0
 40
2.8590939999999989
 50
49.05541199999999
 51
89.999981999999974
  0
LINE
  5
19C
  8
OUTLINE
  6
CONTINUOUS
 62
     3
 10
-61.902503000000003
 20
-202.05408800000001
 30
0.0
 11
-61.902503000000003
 21
-207.84990199999999
 31
0.0
  0
LINE
  5
19D
  8
OUTLINE
  6
CONTINUOUS
 62
     3
 10
-60.653407000000001
 20
-201.354589
 30
0.0
 11
-61.902506000000002
 21
-202.05408399999999
 31
0.0
  0
LINE
  5
19E
  8
OUTLINE
  6
CONTINUOUS
 62
     3
 10
-62.901803999999998
 20
-207.84990300000001
 30
0.0
 11
-62.901803999999998
 21
-211.84701699999999
 31
0.0
  0
LINE
  5
19F
  8
DETAIL
  6
CONTINUOUS
 62
     5
 10
-85.438310000000001
 20
-207.879738
 30
0.0
 11
-85.438310000000001
 21
-211.87685200000001
 31
0.0
  0
LINE
  5
1A0
  8
OUTLINE
  6
CONTINUOUS
 62
     3
 10
-85.438310000000001
 20
-207.84990300000001
 30
0.0
 11
-85.438310000000001
 21
-211.84701699999999
 31
0.0
  0
LINE
  5
1A1
  8
DETAIL
  6
CONTINUOUS
 62
     5
 10
-85.438254999999998
 20
-207.879738
 30
0.0
 11
-69.949493000000004
 21
-207.879738
 31
0.0
  0
LINE
  5
1A2
  8
OUTLINE
  6
CONTINUOUS
 62
     3
 10
-85.438254999999998
 20
-207.84990300000001
 30
0.0
 11
-69.949493000000004
 21
-207.84990300000001
 31
0.0
  0
ARC
  5
1A3
  8
DETAIL
  6
CONTINUOUS
 62
     5
 10
-89.935153999999983
 20
-216.87326400000001
 30
0.0
 40
4.9963920000000002
 50
89.999964000000006
 51
180.0
  0
ARC
  5
1A4
  8
OUTLINE
  6
CONTINUOUS
 62
     3
 10
-89.935153999999983
 20
-216.84343000000001
 30
0.0
 40
4.9963920000000002
 50
89.999964000000006
 51
180.0
  0
LINE
  5
1A5
  8
DETAIL
  6
CONTINUOUS
 62
     5
 10
-2.8979010000000001
 20
-167.90859900000001
 30
0.0
 11
-2.8979010000000001
 21
-207.879738
 31
0.0
  0
LINE
  5
1A6
  8
DETAIL
  6
CONTINUOUS
 62
     5
 10
-32.916896999999999
 20
-167.90859900000001
 30
0.0
 11
-32.916896999999999
 21
-207.879738
 31
0.0
  0
LINE
  5
1A7
  8
DETAIL
  6
CONTINUOUS
 62
     5
 10
-22.690311999999999
 20
-167.90859900000001
 30
0.0
 11
-22.690311999999999
 21
-207.879738
 31
0.0
  0
LINE
  5
1A8
  8
DETAIL
  6
CONTINUOUS
 62
     5
 10
-57.905389999999997
 20
-197.63713999999999
 30
0.0
 11
-57.905389999999997
 21
-201.384434
 31
0.0
  0
LINE
  5
1A9
  8
OUTLINE
  6
CONTINUOUS
 62
     3
 10
-57.905389999999997
 20
-197.60730599999999
 30
0.0
 11
-57.905389999999997
 21
-201.3546
 31
0.0
  0
LINE
  5
1AA
  8
DETAIL
  6
CONTINUOUS
 62
     5
 10
-44.824119000000003
 20
-167.90859900000001
 30
0.0
 11
-44.824119000000003
 21
-207.879738
 31
0.0
  0
LINE
  5
1AB
  8
DETAIL
  6
CONTINUOUS
 62
     5
 10
-50.410800999999999
 20
-197.63713999999999
 30
0.0
 11
-50.410800999999999
 21
-201.384434
 31
0.0
  0
LINE
  5
1AC
  8
DETAIL
  6
CONTINUOUS
 62
     5
 10
-50.910440999999999
 20
-197.63713999999999
 30
0.0
 11
-50.910440999999999
 21
-201.384434
 31
0.0
  0
LINE
  5
1AD
  8
DETAIL
  6
CONTINUOUS
 62
     5
 10
-46.913328
 20
-207.879739
 30
0.0
 11
-46.913328
 21
-202.083922
 31
0.0
  0
LINE
  5
1AE
  8
DETAIL
  6
CONTINUOUS
 62
     5
 10
-46.913323999999989
 20
-202.08391900000001
 30
0.0
 11
-48.16242299999999
 21
-201.384424
 31
0.0
  0
LINE
  5
1AF
  8
DETAIL
  6
CONTINUOUS
 62
     5
 10
-50.660621999999996
 20
-207.879739
 30
0.0
 11
-50.660621999999996
 21
-202.083922
 31
0.0
  0
ARC
  5
1B0
  8
DETAIL
  6
CONTINUOUS
 62
     5
 10
-48.786974999999998
 20
-204.24352200000001
 30
0.0
 40
2.8590939999999989
 50
89.999981999999974
 51
130.94450699999999
  0
LINE
  5
1B1
  8
OUTLINE
  6
CONTINUOUS
 62
     3
 10
-50.410800999999999
 20
-197.60730599999999
 30
0.0
 11
-50.410800999999999
 21
-201.3546
 31
0.0
  0
LINE
  5
1B2
  8
OUTLINE
  6
CONTINUOUS
 62
     3
 10
-50.910440999999999
 20
-197.60730599999999
 30
0.0
 11
-50.910440999999999
 21
-201.3546
 31
0.0
  0
LINE
  5
1B3
  8
OUTLINE
  6
CONTINUOUS
 62
     3
 10
-46.913328
 20
-207.84990400000001
 30
0.0
 11
-46.913328
 21
-202.05408800000001
 31
0.0
  0
LINE
  5
1B4
  8
OUTLINE
  6
CONTINUOUS
 62
     3
 10
-46.913323999999989
 20
-202.05408399999999
 30
0.0
 11
-48.16242299999999
 21
-201.354589
 31
0.0
  0
LINE
  5
1B5
  8
OUTLINE
  6
CONTINUOUS
 62
     3
 10
-50.660621999999996
 20
-207.84990400000001
 30
0.0
 11
-50.660621999999996
 21
-202.05408800000001
 31
0.0
  0
ARC
  5
1B6
  8
OUTLINE
  6
CONTINUOUS
 62
     3
 10
-48.786974999999998
 20
-204.21368699999999
 30
0.0
 40
2.8590939999999989
 50
89.999981999999974
 51
130.94450699999999
  0
LINE
  5
1B7
  8
DETAIL
  6
CONTINUOUS
 62
     5
 10
-205.02494899999999
 20
-19.960068
 30
0.0
 11
-204.83392799999999
 21
-19.919447999999999
 31
0.0
  0
LINE
  5
1B8
  8
DETAIL
  6
CONTINUOUS
 62
     5
 10
-205.22230300000001
 20
-19.990421000000001
 30
0.0
 11
-205.02494899999999
 21
-19.960068
 31
0.0
  0
LINE
  5
1B9
  8
DETAIL
  6
CONTINUOUS
 62
     5
 10
-205.42108400000001
 20
-20.008980999999999
 30
0.0
 11
-205.22230300000001
 21
-19.990421000000001
 31
0.0
  0
LINE
  5
1BA
  8
DETAIL
  6
CONTINUOUS
 62
     5
 10
-205.62254899999999
 20
-20.015404
 30
0.0
 11
-205.42108400000001
 21
-20.008980999999999
 31
0.0
  0
LINE
  5
1BB
  8
OUTLINE
  6
CONTINUOUS
 62
     3
 10
-205.02494899999999
 20
-19.930233000000001
 30
0.0
 11
-204.83392799999999
 21
-19.889613000000001
 31
0.0
  0
LINE
  5
1BC
  8
OUTLINE
  6
CONTINUOUS
 62
     3
 10
-205.22230300000001
 20
-19.960585999999999
 30
0.0
 11
-205.02494899999999
 21
-19.930233000000001
 31
0.0
  0
LINE
  5
1BD
  8
OUTLINE
  6
CONTINUOUS
 62
     3
 10
-205.42108400000001
 20
-19.979147000000001
 30
0.0
 11
-205.22230300000001
 21
-19.960585999999999
 31
0.0
  0
LINE
  5
1BE
  8
OUTLINE
  6
CONTINUOUS
 62
     3
 10
-205.62254899999999
 20
-19.985569999999999
 30
0.0
 11
-205.42108400000001
 21
-19.979147000000001
 31
0.0
  0
LINE
  5
1BF
  8
DETAIL
  6
CONTINUOUS
 62
     5
 10
0.0
 20
-114.946839
 30
0.0
 11
-58.158006999999998
 21
-114.946839
 31
0.0
  0
LINE
  5
1C0
  8
DETAIL
  6
CONTINUOUS
 62
     5
 10
-65.952380000000005
 20
-152.09201899999999
 30
0.0
 11
0.0
 21
-152.09201899999999
 31
0.0
  0
LINE
  5
1C1
  8
DETAIL
  6
CONTINUOUS
 62
     5
 10
-65.152957000000001
 20
-151.292596
 30
0.0
 11
0.0
 21
-151.292596
 31
0.0
  0
LINE
  5
1C2
  8
DETAIL
  6
CONTINUOUS
 62
     5
 10
-65.152957000000001
 20
-126.238686
 30
0.0
 11
-65.441192999999998
 21
-126.238686
 31
0.0
  0
ARC
  5
1C3
  8
DETAIL
  6
CONTINUOUS
 62
     5
 10
-58.158006999999998
 20
-121.941789
 30
0.0
 40
6.9949490000000001
 50
90.0
 51
180.0
  0
LINE
  5
1C4
  8
DETAIL
  6
CONTINUOUS
 62
     5
 10
-65.152957000000001
 20
-151.292596
 30
0.0
 11
-65.952380000000005
 21
-152.09201899999999
 31
0.0
  0
LINE
  5
1C5
  8
DETAIL
  6
CONTINUOUS
 62
     5
 10
-65.152957000000001
 20
-135.63190399999999
 30
0.0
 11
-65.441192999999998
 21
-135.63190399999999
 31
0.0
  0
ARC
  5
1C6
  8
DETAIL
  6
CONTINUOUS
 62
     5
 10
-61.555554000000001
 20
-130.935295
 30
0.0
 40
6.0955989999999991
 50
129.60196500000001
 51
230.39801700000001
  0
LINE
  5
1C7
  8
DETAIL
  6
CONTINUOUS
 62
     5
 10
-65.152957000000001
 20
-126.238686
 30
0.0
 11
-65.152957000000001
 21
-135.63190399999999
 31
0.0
  0
LINE
  5
1C8
  8
DETAIL
  6
CONTINUOUS
 62
     5
 10
-65.441192999999998
 20
-135.63190399999999
 30
0.0
 11
-65.441192999999998
 21
-126.238686
 31
0.0
  0
LINE
  5
1C9
  8
DETAIL
  6
CONTINUOUS
 62
     5
 10
-65.152957000000001
 20
-121.941789
 30
0.0
 11
-65.152957000000001
 21
-151.292596
 31
0.0
  0
LINE
  5
1CA
  8
DETAIL
  6
CONTINUOUS
 62
     5
 10
0.0
 20
-113.44792200000001
 30
0.0
 11
-30.039911
 21
-113.44792200000001
 31
0.0
  0
LINE
  5
1CB
  8
DETAIL
  6
CONTINUOUS
 62
     5
 10
0.0
 20
-111.34944299999999
 30
0.0
 11
-25.901433999999998
 21
-111.34944299999999
 31
0.0
  0
LINE
  5
1CC
  8
DETAIL
  6
CONTINUOUS
 62
     5
 10
0.0
 20
-112.94827600000001
 30
0.0
 11
-11.791486000000001
 21
-112.94827600000001
 31
0.0
  0
LINE
  5
1CD
  8
DETAIL
  6
CONTINUOUS
 62
     5
 10
-35.304029
 20
-113.44792200000001
 30
0.0
 11
-34.154643
 21
-114.38418299999999
 31
0.0
  0
LINE
  5
1CE
  8
DETAIL
  6
CONTINUOUS
 62
     5
 10
-31.269103000000001
 20
-114.21443499999999
 30
0.0
 11
-30.040326
 21
-113.44792200000001
 31
0.0
  0
LINE
  5
1CF
  8
DETAIL
  6
CONTINUOUS
 62
     5
 10
-25.886194
 20
-111.175263
 30
0.0
 11
-25.055945000000001
 21
-101.88520200000001
 31
0.0
  0
ARC
  5
1D0
  8
DETAIL
  6
CONTINUOUS
 62
     5
 10
-10.992063
 20
-111.203951
 30
0.0
 40
1.798700999999999
 50
184.63955300000001
 51
225.0
  0
LINE
  5
1D1
  8
DETAIL
  6
CONTINUOUS
 62
     5
 10
-34.159055000000002
 20
-114.38061
 30
0.0
 11
-33.459843999999997
 21
-114.946839
 31
0.0
  0
LINE
  5
1D2
  8
DETAIL
  6
CONTINUOUS
 62
     5
 10
-32.431759999999997
 20
-114.946839
 30
0.0
 11
-31.264899
 21
-114.211787
 31
0.0
  0
LINE
  5
1D3
  8
DETAIL
  6
CONTINUOUS
 62
     5
 10
-12.263937
 20
-112.475825
 30
0.0
 11
-11.291841
 21
-113.44792200000001
 31
0.0
  0
ARC
  5
1D4
  8
DETAIL
  6
CONTINUOUS
 62
     5
 10
-20.078558000000001
 20
-102.32066399999999
 30
0.0
 40
4.996391
 50
152.70984899999999
 51
175.00002900000001
  0
LINE
  5
1D5
  8
DETAIL
  6
CONTINUOUS
 62
     5
 10
-55.959594999999993
 20
-113.44792200000001
 30
0.0
 11
-57.458511999999999
 21
-114.946839
 31
0.0
  0
LINE
  5
1D6
  8
DETAIL
  6
CONTINUOUS
 62
     5
 10
-55.959594999999993
 20
-113.44792200000001
 30
0.0
 11
-35.304090000000009
 21
-113.44792200000001
 31
0.0
  0
LINE
  5
1D7
  8
OUTLINE
  6
CONTINUOUS
 62
     3
 10
-353.03075699999999
 20
0.0
 30
0.0
 11
0.0
 21
0.0
 31
0.0
  0
ARC
  5
1D8
  8
DETAIL
  6
CONTINUOUS
 62
     5
 10
352.44551899999999
 20
-2.328174999999999
 30
0.0
 40
2.29834
 50
343.24519500000002
 51
90.0
  0
ARC
  5
1D9
  8
OUTLINE
  6
CONTINUOUS
 62
     3
 10
352.44551899999999
 20
-2.29834
 30
0.0
 40
2.29834
 50
343.24519500000002
 51
90.0
  0
LINE
  5
1DA
  8
SIZE
  6
CONTINUOUS
 62
    30
 10
-19.791041
 20
-277.02521000000002
 30
0.0
 11
-438.40702199999993
 21
-277.02521000000002
 31
0.0
  0
LINE
  5
1DB
  8
SIZE
  6
CONTINUOUS
 62
    30
 10
-365.0
 20
-0.029835
 30
0.0
 11
-438.40702199999993
 21
-0.029835
 31
0.0
  0
LINE
  5
1DC
  8
SIZE
  6
CONTINUOUS
 62
    30
 10
-408.40702199999998
 20
-275.02521000000002
 30
0.0
 11
-408.40702199999998
 21
-2.0298349999999989
 31
0.0
  0
CIRCLE
  5
1DD
  8
SIZE
  6
CONTINUOUS
 62
    30
 10
-408.40702199999998
 20
-277.02521000000002
 30
0.0
 40
6.0
  0
CIRCLE
  5
1DE
  8
SIZE
  6
CONTINUOUS
 62
    30
 10
-408.40702199999998
 20
-0.029835
 30
0.0
 40
6.0
  0
TEXT
  5
1DF
  8
SIZE
  6
CONTINUOUS
 62
    30
 10
-433.40702199999998
 20
-212.58466485714291
 30
0.0
 40
64.0
  1
277
 50
90.0
 41
0.9
 72
     1
 11
-433.40702199999998
 21
-138.527522
 31
0.0
  0
POINT
  5
1E0
  8
DEFPOINTS
  6
CONTINUOUS
 62
    30
 10
0.208959
 20
-277.02521000000002
 30
0.0
  0
POINT
  5
1E1
  8
DEFPOINTS
  6
CONTINUOUS
 62
    30
 10
-345.0
 20
-0.029835
 30
0.0
  0
POINT
  5
1E2
  8
DEFPOINTS
  6
CONTINUOUS
 62
    30
 10
-408.40702199999998
 20
-0.029835
 30
0.0
  0
LINE
  5
1E3
  8
SIZE
  6
CONTINUOUS
 62
    30
 10
410.79379499999999
 20
-100.02983500000001
 30
0.0
 11
791.43936799999994
 21
-100.02983500000001
 31
0.0
  0
LINE
  5
1E4
  8
SIZE
  6
CONTINUOUS
 62
    30
 10
372.44551799999999
 20
-0.029835
 30
0.0
 11
791.43936799999994
 21
-0.029835
 31
0.0
  0
LINE
  5
1E5
  8
SIZE
  6
CONTINUOUS
 62
    30
 10
761.43936799999994
 20
-98.029834999999991
 30
0.0
 11
761.43936799999994
 21
-2.0298349999999989
 31
0.0
  0
LINE
  5
1E6
  8
SIZE
  6
CONTINUOUS
 62
    30
 10
761.43936799999994
 20
-0.029835
 30
0.0
 11
761.43936799999994
 21
189.113022
 31
0.0
  0
CIRCLE
  5
1E7
  8
SIZE
  6
CONTINUOUS
 62
    30
 10
761.43936799999994
 20
-100.02983500000001
 30
0.0
 40
6.0
  0
CIRCLE
  5
1E8
  8
SIZE
  6
CONTINUOUS
 62
    30
 10
761.43936799999994
 20
-0.029835
 30
0.0
 40
6.0
  0
TEXT
  5
1E9
  8
SIZE
  6
CONTINUOUS
 62
    30
 10
736.43936799999994
 20
26.97016542857142
 30
0.0
 40
64.0
  1
100
 50
90.0
 41
0.9
 72
     1
 11
736.43936799999994
 21
95.541593999999989
 31
0.0
  0
POINT
  5
1EA
  8
DEFPOINTS
  6
CONTINUOUS
 62
    30
 10
390.79379499999999
 20
-100.02983500000001
 30
0.0
  0
POINT
  5
1EB
  8
DEFPOINTS
  6
CONTINUOUS
 62
    30
 10
352.44551799999999
 20
-0.029835
 30
0.0
  0
POINT
  5
1EC
  8
DEFPOINTS
  6
CONTINUOUS
 62
    30
 10
761.43936799999994
 20
-0.029835
 30
0.0
  0
LINE
  5
1ED
  8
SIZE
  6
CONTINUOUS
 62
    30
 10
364.53627499999999
 20
-10.029835
 30
0.0
 11
604.25666999999999
 21
-10.029835
 31
0.0
  0
LINE
  5
1EE
  8
SIZE
  6
CONTINUOUS
 62
    30
 10
370.17820999999998
 20
-0.029835
 30
0.0
 11
604.25666999999999
 21
-0.029835
 31
0.0
  0
LINE
  5
1EF
  8
SIZE
  6
CONTINUOUS
 62
    30
 10
574.25666999999999
 20
-12.029835
 30
0.0
 11
574.25666999999999
 21
-14.029835
 31
0.0
  0
LINE
  5
1F0
  8
SIZE
  6
CONTINUOUS
 62
    30
 10
574.25666999999999
 20
1.9701649999999999
 30
0.0
 11
574.25666999999999
 21
136.25587999999999
 31
0.0
  0
LINE
  5
1F1
  8
SIZE
  6
CONTINUOUS
 62
    30
 10
574.25666999999999
 20
-10.029835
 30
0.0
 11
574.25666999999999
 21
-0.029835
 31
0.0
  0
CIRCLE
  5
1F2
  8
SIZE
  6
CONTINUOUS
 62
    30
 10
574.25666999999999
 20
-10.029835
 30
0.0
 40
6.0
  0
CIRCLE
  5
1F3
  8
SIZE
  6
CONTINUOUS
 62
    30
 10
574.25666999999999
 20
-0.029835
 30
0.0
 40
6.0
  0
TEXT
  5
1F4
  8
SIZE
  6
CONTINUOUS
 62
    30
 10
549.25666999999999
 20
28.970164857142858
 30
0.0
 40
64.0
  1
10
 50
90.0
 41
0.9
 72
     1
 11
549.25666999999999
 21
70.113022000000001
 31
0.0
  0
POINT
  5
1F5
  8
DEFPOINTS
  6
CONTINUOUS
 62
    30
 10
344.53627499999999
 20
-10.029835
 30
0.0
  0
POINT
  5
1F6
  8
DEFPOINTS
  6
CONTINUOUS
 62
    30
 10
350.17820999999998
 20
-0.029835
 30
0.0
  0
POINT
  5
1F7
  8
DEFPOINTS
  6
CONTINUOUS
 62
    30
 10
574.25666999999999
 20
-0.029835
 30
0.0
  0
LINE
  5
1F8
  8
SIZE
  6
CONTINUOUS
 62
    30
 10
364.53627499999999
 20
-10.029835
 30
0.0
 11
604.25666999999999
 21
-10.029835
 31
0.0
  0
LINE
  5
1F9
  8
SIZE
  6
CONTINUOUS
 62
    30
 10
347.543814
 20
-20.029834999999999
 30
0.0
 11
604.25666999999999
 21
-20.029834999999999
 31
0.0
  0
LINE
  5
1FA
  8
SIZE
  6
CONTINUOUS
 62
    30
 10
574.25666999999999
 20
-8.0298350000000003
 30
0.0
 11
574.25666999999999
 21
-6.0298350000000003
 31
0.0
  0
LINE
  5
1FB
  8
SIZE
  6
CONTINUOUS
 62
    30
 10
574.25666999999999
 20
-22.029834999999999
 30
0.0
 11
574.25666999999999
 21
-156.315549
 31
0.0
  0
LINE
  5
1FC
  8
SIZE
  6
CONTINUOUS
 62
    30
 10
574.25666999999999
 20
-10.029835
 30
0.0
 11
574.25666999999999
 21
-20.029834999999999
 31
0.0
  0
CIRCLE
  5
1FD
  8
SIZE
  6
CONTINUOUS
 62
    30
 10
574.25666999999999
 20
-10.029835
 30
0.0
 40
6.0
  0
CIRCLE
  5
1FE
  8
SIZE
  6
CONTINUOUS
 62
    30
 10
574.25666999999999
 20
-20.029834999999999
 30
0.0
 40
6.0
  0
TEXT
  5
1FF
  8
SIZE
  6
CONTINUOUS
 62
    30
 10
549.25666999999999
 20
-131.31554914285709
 30
0.0
 40
64.0
  1
10
 50
90.0
 41
0.9
 72
     1
 11
549.25666999999999
 21
-90.172691999999984
 31
0.0
  0
POINT
  5
200
  8
DEFPOINTS
  6
CONTINUOUS
 62
    30
 10
344.53627499999999
 20
-10.029835
 30
0.0
  0
POINT
  5
201
  8
DEFPOINTS
  6
CONTINUOUS
 62
    30
 10
327.543814
 20
-20.029834999999999
 30
0.0
  0
POINT
  5
202
  8
DEFPOINTS
  6
CONTINUOUS
 62
    30
 10
574.25666999999999
 20
-20.029834999999999
 30
0.0
  0
ARC
  5
203
  8
DETAIL
  6
CONTINUOUS
 62
     5
 10
191.331918
 20
-146.9237709999999
 30
0.0
 40
101.926405
 50
270.0
 51
0.0
  0
ARC
  5
204
  8
DETAIL
  6
CONTINUOUS
 62
     5
 10
195.57149799999999
 20
-146.9237709999999
 30
0.0
 40
101.926405
 50
270.0
 51
0.0
  0
ARC
  5
205
  8
OUTLINE
  6
CONTINUOUS
 62
     3
 10
191.331918
 20
-146.893936
 30
0.0
 40
101.926405
 50
270.0
 51
0.0
  0
ARC
  5
206
  8
OUTLINE
  6
CONTINUOUS
 62
     3
 10
195.57149799999999
 20
-146.893936
 30
0.0
 40
101.926405
 50
270.0
 51
0.0
  0
ARC
  5
207
  8
DETAIL
  6
CONTINUOUS
 62
     5
 10
185.71640099999999
 20
-60.092399
 30
0.0
 40
92.865883999999994
 50
299.80510500000003
 51
334.57825000000003
  0
ARC
  5
208
  8
DETAIL
  6
CONTINUOUS
 62
     5
 10
200.69773499999999
 20
-146.9237709999999
 30
0.0
 40
69.949493000000004
 50
270.0
 51
0.0
  0
ARC
  5
209
  8
OUTLINE
  6
CONTINUOUS
 62
     3
 10
200.69773499999999
 20
-146.893936
 30
0.0
 40
69.949493000000004
 50
270.0
 51
0.0
  0
LINE
  5
20A
  8
DETAIL
  6
CONTINUOUS
 62
     5
 10
65.952380000000005
 20
-152.09201899999999
 30
0.0
 11
65.952380000000005
 21
-167.90859900000001
 31
0.0
  0
ARC
  5
20B
  8
DETAIL
  6
CONTINUOUS
 62
     5
 10
28.479437000000001
 20
-272.306578
 30
0.0
 40
4.7232560000000001
 50
219.816969
 51
341.156226
  0
LINE
  5
20C
  8
DETAIL
  6
CONTINUOUS
 62
     5
 10
55.959594999999993
 20
-275.33105499999999
 30
0.0
 11
35.304006000000001
 21
-275.33105499999999
 31
0.0
  0
ARC
  5
20D
  8
DETAIL
  6
CONTINUOUS
 62
     5
 10
48.465006000000002
 20
-271.73365200000001
 30
0.0
 40
6.0955989999999991
 50
219.60198299999999
 51
320.39803499999999
  0
LINE
  5
20E
  8
DETAIL
  6
CONTINUOUS
 62
     5
 10
43.768397
 20
-275.61929199999997
 30
0.0
 11
53.161614999999998
 21
-275.61929199999997
 31
0.0
  0
LINE
  5
20F
  8
DETAIL
  6
CONTINUOUS
 62
     5
 10
53.161614999999998
 20
-275.33105499999999
 30
0.0
 11
53.161614999999998
 21
-275.61929199999997
 31
0.0
  0
LINE
  5
210
  8
DETAIL
  6
CONTINUOUS
 62
     5
 10
43.768397
 20
-275.33105499999999
 30
0.0
 11
43.768397
 21
-275.61929199999997
 31
0.0
  0
LINE
  5
211
  8
DETAIL
  6
CONTINUOUS
 62
     5
 10
53.161614999999998
 20
-275.33105499999999
 30
0.0
 11
43.768397
 21
-275.33105499999999
 31
0.0
  0
LINE
  5
212
  8
DETAIL
  6
CONTINUOUS
 62
     5
 10
57.458511999999999
 20
-273.83213699999999
 30
0.0
 11
55.959594999999993
 21
-275.33105499999999
 31
0.0
  0
LINE
  5
213
  8
DETAIL
  6
CONTINUOUS
 62
     5
 10
31.269096000000001
 20
-274.56454600000001
 30
0.0
 11
32.431759999999997
 21
-273.83213699999999
 31
0.0
  0
LINE
  5
214
  8
DETAIL
  6
CONTINUOUS
 62
     5
 10
30.040326
 20
-275.33105499999999
 30
0.0
 11
31.273012999999999
 21
-274.56210299999998
 31
0.0
  0
LINE
  5
215
  8
DETAIL
  6
CONTINUOUS
 62
     5
 10
33.459843999999997
 20
-273.83213699999999
 30
0.0
 11
34.976027000000002
 21
-275.06318599999997
 31
0.0
  0
LINE
  5
216
  8
DETAIL
  6
CONTINUOUS
 62
     5
 10
34.970166999999996
 20
-275.05840000000001
 30
0.0
 11
35.304029
 21
-275.33105499999999
 31
0.0
  0
LINE
  5
217
  8
DETAIL
  6
CONTINUOUS
 62
     5
 10
94.631714000000002
 20
-248.85017500000001
 30
0.0
 11
94.631714000000002
 21
-252.84728899999999
 31
0.0
  0
LINE
  5
218
  8
OUTLINE
  6
CONTINUOUS
 62
     3
 10
94.631714000000002
 20
-248.82034100000001
 30
0.0
 11
94.631714000000002
 21
-252.817455
 31
0.0
  0
LINE
  5
219
  8
DETAIL
  6
CONTINUOUS
 62
     5
 10
65.441192999999998
 20
-262.54029000000003
 30
0.0
 11
65.441192999999998
 21
-253.14707300000001
 31
0.0
  0
LINE
  5
21A
  8
DETAIL
  6
CONTINUOUS
 62
     5
 10
65.152957000000001
 20
-253.14707300000001
 30
0.0
 11
65.441192999999998
 21
-253.14707300000001
 31
0.0
  0
ARC
  5
21B
  8
DETAIL
  6
CONTINUOUS
 62
     5
 10
58.505051000000002
 20
-266.83718800000003
 30
0.0
 40
6.9949490000000001
 50
270.0
 51
0.0
  0
ARC
  5
21C
  8
DETAIL
  6
CONTINUOUS
 62
     5
 10
61.902597
 20
-257.843682
 30
0.0
 40
6.0955989999999991
 50
309.60198300000002
 51
50.398035
  0
LINE
  5
21D
  8
DETAIL
  6
CONTINUOUS
 62
     5
 10
65.5
 20
-252.84728899999999
 30
0.0
 11
65.5
 21
-266.83718800000003
 31
0.0
  0
LINE
  5
21E
  8
DETAIL
  6
CONTINUOUS
 62
     5
 10
65.5
 20
-253.14707300000001
 30
0.0
 11
65.5
 21
-262.54029000000003
 31
0.0
  0
LINE
  5
21F
  8
DETAIL
  6
CONTINUOUS
 62
     5
 10
65.5
 20
-262.54029000000003
 30
0.0
 11
65.788236999999995
 21
-262.54029000000003
 31
0.0
  0
LINE
  5
220
  8
OUTLINE
  6
CONTINUOUS
 62
     3
 10
65.441192999999998
 20
-262.51045599999998
 30
0.0
 11
65.441192999999998
 21
-253.11723799999999
 31
0.0
  0
LINE
  5
221
  8
OUTLINE
  6
CONTINUOUS
 62
     3
 10
65.152957000000001
 20
-253.11723799999999
 30
0.0
 11
65.441192999999998
 21
-253.11723799999999
 31
0.0
  0
ARC
  5
222
  8
OUTLINE
  6
CONTINUOUS
 62
     3
 10
58.505051000000002
 20
-266.80735299999998
 30
0.0
 40
6.9949490000000001
 50
270.0
 51
0.0
  0
ARC
  5
223
  8
OUTLINE
  6
CONTINUOUS
 62
     3
 10
61.902597
 20
-257.81384700000001
 30
0.0
 40
6.0955989999999991
 50
309.60198300000002
 51
50.398035
  0
LINE
  5
224
  8
OUTLINE
  6
CONTINUOUS
 62
     3
 10
65.5
 20
-252.817455
 30
0.0
 11
65.5
 21
-266.80735299999998
 31
0.0
  0
LINE
  5
225
  8
OUTLINE
  6
CONTINUOUS
 62
     3
 10
65.5
 20
-253.11723799999999
 30
0.0
 11
65.5
 21
-262.51045599999998
 31
0.0
  0
LINE
  5
226
  8
OUTLINE
  6
CONTINUOUS
 62
     3
 10
65.5
 20
-262.51045599999998
 30
0.0
 11
65.788236999999995
 21
-262.51045599999998
 31
0.0
  0
LINE
  5
227
  8
DETAIL
  6
CONTINUOUS
 62
     5
 10
61.902504
 20
-207.879738
 30
0.0
 11
46.913327000000002
 21
-207.879738
 31
0.0
  0
LINE
  5
228
  8
DETAIL
  6
CONTINUOUS
 62
     5
 10
48.162424999999999
 20
-201.38442800000001
 30
0.0
 11
60.653405999999997
 21
-201.38442800000001
 31
0.0
  0
ARC
  5
229
  8
DETAIL
  6
CONTINUOUS
 62
     5
 10
54.407915000000003
 20
-211.77158
 30
0.0
 40
10.387146
 50
68.852823000000001
 51
111.147103
  0
LINE
  5
22A
  8
DETAIL
  6
CONTINUOUS
 62
     5
 10
58.405028999999999
 20
-197.63713999999999
 30
0.0
 11
50.410800999999999
 21
-197.63713999999999
 31
0.0
  0
LINE
  5
22B
  8
OUTLINE
  6
CONTINUOUS
 62
     3
 10
61.902504
 20
-207.84990300000001
 30
0.0
 11
46.913327000000002
 21
-207.84990300000001
 31
0.0
  0
LINE
  5
22C
  8
OUTLINE
  6
CONTINUOUS
 62
     3
 10
48.162424999999999
 20
-201.35459299999999
 30
0.0
 11
60.653405999999997
 21
-201.35459299999999
 31
0.0
  0
ARC
  5
22D
  8
OUTLINE
  6
CONTINUOUS
 62
     3
 10
54.407915000000003
 20
-211.74174600000001
 30
0.0
 40
10.387146
 50
68.852823000000001
 51
111.147103
  0
LINE
  5
22E
  8
OUTLINE
  6
CONTINUOUS
 62
     3
 10
58.405028999999999
 20
-197.60730599999999
 30
0.0
 11
50.410800999999999
 21
-197.60730599999999
 31
0.0
  0
LINE
  5
22F
  8
DETAIL
  6
CONTINUOUS
 62
     5
 10
22.690311999999999
 20
-167.90859900000001
 30
0.0
 11
22.690311999999999
 21
-207.879738
 31
0.0
  0
LINE
  5
230
  8
DETAIL
  6
CONTINUOUS
 62
     5
 10
44.824119000000003
 20
-167.90859900000001
 30
0.0
 11
44.824119000000003
 21
-207.879738
 31
0.0
  0
LINE
  5
231
  8
DETAIL
  6
CONTINUOUS
 62
     5
 10
32.916896999999999
 20
-167.90859900000001
 30
0.0
 11
32.916896999999999
 21
-207.879738
 31
0.0
  0
ARC
  5
232
  8
DETAIL
  6
CONTINUOUS
 62
     5
 10
48.786974999999998
 20
-204.24352200000001
 30
0.0
 40
2.8590939999999989
 50
49.055492999999998
 51
90.000018000000011
  0
LINE
  5
233
  8
DETAIL
  6
CONTINUOUS
 62
     5
 10
50.660621999999996
 20
-207.879739
 30
0.0
 11
50.660621999999996
 21
-202.083922
 31
0.0
  0
LINE
  5
234
  8
DETAIL
  6
CONTINUOUS
 62
     5
 10
46.913323999999989
 20
-202.08391900000001
 30
0.0
 11
48.16242299999999
 21
-201.384424
 31
0.0
  0
LINE
  5
235
  8
DETAIL
  6
CONTINUOUS
 62
     5
 10
46.913328
 20
-207.879739
 30
0.0
 11
46.913328
 21
-202.083922
 31
0.0
  0
LINE
  5
236
  8
DETAIL
  6
CONTINUOUS
 62
     5
 10
57.905389999999997
 20
-197.63713999999999
 30
0.0
 11
57.905389999999997
 21
-201.384434
 31
0.0
  0
LINE
  5
237
  8
DETAIL
  6
CONTINUOUS
 62
     5
 10
50.910440999999999
 20
-197.63713999999999
 30
0.0
 11
50.910440999999999
 21
-201.384434
 31
0.0
  0
LINE
  5
238
  8
DETAIL
  6
CONTINUOUS
 62
     5
 10
50.410800999999999
 20
-197.63713999999999
 30
0.0
 11
50.410800999999999
 21
-201.384434
 31
0.0
  0
ARC
  5
239
  8
OUTLINE
  6
CONTINUOUS
 62
     3
 10
48.786974999999998
 20
-204.21368699999999
 30
0.0
 40
2.8590939999999989
 50
49.055492999999998
 51
90.000018000000011
  0
LINE
  5
23A
  8
OUTLINE
  6
CONTINUOUS
 62
     3
 10
50.660621999999996
 20
-207.84990400000001
 30
0.0
 11
50.660621999999996
 21
-202.05408800000001
 31
0.0
  0
LINE
  5
23B
  8
OUTLINE
  6
CONTINUOUS
 62
     3
 10
46.913323999999989
 20
-202.05408399999999
 30
0.0
 11
48.16242299999999
 21
-201.354589
 31
0.0
  0
LINE
  5
23C
  8
OUTLINE
  6
CONTINUOUS
 62
     3
 10
46.913328
 20
-207.84990400000001
 30
0.0
 11
46.913328
 21
-202.05408800000001
 31
0.0
  0
LINE
  5
23D
  8
OUTLINE
  6
CONTINUOUS
 62
     3
 10
57.905389999999997
 20
-197.60730599999999
 30
0.0
 11
57.905389999999997
 21
-201.3546
 31
0.0
  0
LINE
  5
23E
  8
OUTLINE
  6
CONTINUOUS
 62
     3
 10
50.910440999999999
 20
-197.60730599999999
 30
0.0
 11
50.910440999999999
 21
-201.3546
 31
0.0
  0
LINE
  5
23F
  8
OUTLINE
  6
CONTINUOUS
 62
     3
 10
50.410800999999999
 20
-197.60730599999999
 30
0.0
 11
50.410800999999999
 21
-201.3546
 31
0.0
  0
LINE
  5
240
  8
DETAIL
  6
CONTINUOUS
 62
     5
 10
2.8979010000000001
 20
-167.90859900000001
 30
0.0
 11
2.8979010000000001
 21
-207.879738
 31
0.0
  0
LINE
  5
241
  8
DETAIL
  6
CONTINUOUS
 62
     5
 10
81.341251999999983
 20
-207.879738
 30
0.0
 11
81.341251999999983
 21
-167.90859900000001
 31
0.0
  0
LINE
  5
242
  8
DETAIL
  6
CONTINUOUS
 62
     5
 10
85.438310000000001
 20
-207.879738
 30
0.0
 11
85.438310000000001
 21
-211.87685200000001
 31
0.0
  0
LINE
  5
243
  8
OUTLINE
  6
CONTINUOUS
 62
     3
 10
85.438310000000001
 20
-207.84990300000001
 30
0.0
 11
85.438310000000001
 21
-211.84701699999999
 31
0.0
  0
LINE
  5
244
  8
DETAIL
  6
CONTINUOUS
 62
     5
 10
58.365745999999987
 20
-167.90859900000001
 30
0.0
 11
58.365745999999987
 21
-197.63713999999999
 31
0.0
  0
LINE
  5
245
  8
DETAIL
  6
CONTINUOUS
 62
     5
 10
60.133864000000003
 20
-167.90859900000001
 30
0.0
 11
60.133864000000003
 21
-201.38442800000001
 31
0.0
  0
LINE
  5
246
  8
DETAIL
  6
CONTINUOUS
 62
     5
 10
75.370114999999998
 20
-167.90859900000001
 30
0.0
 11
75.370114999999998
 21
-207.879738
 31
0.0
  0
LINE
  5
247
  8
DETAIL
  6
CONTINUOUS
 62
     5
 10
62.901803999999998
 20
-207.879738
 30
0.0
 11
62.901803999999998
 21
-211.87685200000001
 31
0.0
  0
LINE
  5
248
  8
DETAIL
  6
CONTINUOUS
 62
     5
 10
60.653407000000001
 20
-201.384424
 30
0.0
 11
61.902506000000002
 21
-202.08391900000001
 31
0.0
  0
LINE
  5
249
  8
DETAIL
  6
CONTINUOUS
 62
     5
 10
61.902503000000003
 20
-202.083922
 30
0.0
 11
61.902503000000003
 21
-207.87973700000001
 31
0.0
  0
ARC
  5
24A
  8
DETAIL
  6
CONTINUOUS
 62
     5
 10
60.028855999999998
 20
-204.24352200000001
 30
0.0
 40
2.8590939999999989
 50
90.000018000000011
 51
130.94458800000001
  0
LINE
  5
24B
  8
DETAIL
  6
CONTINUOUS
 62
     5
 10
58.155208999999999
 20
-207.87973700000001
 30
0.0
 11
58.155208999999999
 21
-202.083922
 31
0.0
  0
LINE
  5
24C
  8
DETAIL
  6
CONTINUOUS
 62
     5
 10
58.405028999999999
 20
-197.63713999999999
 30
0.0
 11
58.405028999999999
 21
-201.384434
 31
0.0
  0
LINE
  5
24D
  8
OUTLINE
  6
CONTINUOUS
 62
     3
 10
62.901803999999998
 20
-207.84990300000001
 30
0.0
 11
62.901803999999998
 21
-211.84701699999999
 31
0.0
  0
LINE
  5
24E
  8
OUTLINE
  6
CONTINUOUS
 62
     3
 10
60.653407000000001
 20
-201.354589
 30
0.0
 11
61.902506000000002
 21
-202.05408399999999
 31
0.0
  0
LINE
  5
24F
  8
OUTLINE
  6
CONTINUOUS
 62
     3
 10
61.902503000000003
 20
-202.05408800000001
 30
0.0
 11
61.902503000000003
 21
-207.84990199999999
 31
0.0
  0
ARC
  5
250
  8
OUTLINE
  6
CONTINUOUS
 62
     3
 10
60.028855999999998
 20
-204.21368699999999
 30
0.0
 40
2.8590939999999989
 50
90.000018000000011
 51
130.94458800000001
  0
LINE
  5
251
  8
OUTLINE
  6
CONTINUOUS
 62
     3
 10
58.155208999999999
 20
-207.84990199999999
 30
0.0
 11
58.155208999999999
 21
-202.05408800000001
 31
0.0
  0
LINE
  5
252
  8
OUTLINE
  6
CONTINUOUS
 62
     3
 10
58.405028999999999
 20
-197.60730599999999
 30
0.0
 11
58.405028999999999
 21
-201.3546
 31
0.0
  0
LINE
  5
253
  8
DETAIL
  6
CONTINUOUS
 62
     5
 10
85.438254999999998
 20
-207.879738
 30
0.0
 11
69.949493000000004
 21
-207.879738
 31
0.0
  0
LINE
  5
254
  8
OUTLINE
  6
CONTINUOUS
 62
     3
 10
85.438254999999998
 20
-207.84990300000001
 30
0.0
 11
69.949493000000004
 21
-207.84990300000001
 31
0.0
  0
ARC
  5
255
  8
DETAIL
  6
CONTINUOUS
 62
     5
 10
89.935153999999983
 20
-216.87326400000001
 30
0.0
 40
4.9963920000000002
 50
0.0
 51
90.000035999999966
  0
ARC
  5
256
  8
OUTLINE
  6
CONTINUOUS
 62
     3
 10
89.935153999999983
 20
-216.84343000000001
 30
0.0
 40
4.9963920000000002
 50
0.0
 51
90.000035999999966
  0
LINE
  5
257
  8
DETAIL
  6
CONTINUOUS
 62
     5
 10
25.886194
 20
-111.175263
 30
0.0
 11
25.055945000000001
 21
-101.88520200000001
 31
0.0
  0
ARC
  5
258
  8
DETAIL
  6
CONTINUOUS
 62
     5
 10
20.078558000000001
 20
-102.32066399999999
 30
0.0
 40
4.996391
 50
4.9999709999999986
 51
28.225156999999999
  0
LINE
  5
259
  8
DETAIL
  6
CONTINUOUS
 62
     5
 10
55.959594999999993
 20
-113.44792200000001
 30
0.0
 11
35.304090000000009
 21
-113.44792200000001
 31
0.0
  0
LINE
  5
25A
  8
DETAIL
  6
CONTINUOUS
 62
     5
 10
55.959594999999993
 20
-113.44792200000001
 30
0.0
 11
57.458511999999999
 21
-114.946839
 31
0.0
  0
LINE
  5
25B
  8
DETAIL
  6
CONTINUOUS
 62
     5
 10
32.431759999999997
 20
-114.946839
 30
0.0
 11
31.264899
 21
-114.211787
 31
0.0
  0
LINE
  5
25C
  8
DETAIL
  6
CONTINUOUS
 62
     5
 10
34.159055000000002
 20
-114.38061
 30
0.0
 11
33.459843999999997
 21
-114.946839
 31
0.0
  0
LINE
  5
25D
  8
DETAIL
  6
CONTINUOUS
 62
     5
 10
31.269103000000001
 20
-114.21443499999999
 30
0.0
 11
30.040326
 21
-113.44792200000001
 31
0.0
  0
LINE
  5
25E
  8
DETAIL
  6
CONTINUOUS
 62
     5
 10
35.304029
 20
-113.44792200000001
 30
0.0
 11
34.154643
 21
-114.38418299999999
 31
0.0
  0
LINE
  5
25F
  8
DETAIL
  6
CONTINUOUS
 62
     5
 10
12.263937
 20
-112.475825
 30
0.0
 11
11.291841
 21
-113.44792200000001
 31
0.0
  0
ARC
  5
260
  8
DETAIL
  6
CONTINUOUS
 62
     5
 10
10.992063
 20
-111.203951
 30
0.0
 40
1.798700999999999
 50
315.0
 51
355.36044700000002
  0
LINE
  5
261
  8
DETAIL
  6
CONTINUOUS
 62
     5
 10
65.152957000000001
 20
-126.238686
 30
0.0
 11
65.441192999999998
 21
-126.238686
 31
0.0
  0
ARC
  5
262
  8
DETAIL
  6
CONTINUOUS
 62
     5
 10
58.158006999999998
 20
-121.941789
 30
0.0
 40
6.9949490000000001
 50
0.0
 51
90.0
  0
LINE
  5
263
  8
DETAIL
  6
CONTINUOUS
 62
     5
 10
65.152957000000001
 20
-135.63190399999999
 30
0.0
 11
65.441192999999998
 21
-135.63190399999999
 31
0.0
  0
LINE
  5
264
  8
DETAIL
  6
CONTINUOUS
 62
     5
 10
65.152957000000001
 20
-151.292596
 30
0.0
 11
65.952380000000005
 21
-152.09201899999999
 31
0.0
  0
LINE
  5
265
  8
DETAIL
  6
CONTINUOUS
 62
     5
 10
65.152957000000001
 20
-121.941789
 30
0.0
 11
65.152957000000001
 21
-151.292596
 31
0.0
  0
LINE
  5
266
  8
DETAIL
  6
CONTINUOUS
 62
     5
 10
65.441192999999998
 20
-135.63190399999999
 30
0.0
 11
65.441192999999998
 21
-126.238686
 31
0.0
  0
LINE
  5
267
  8
DETAIL
  6
CONTINUOUS
 62
     5
 10
65.152957000000001
 20
-126.238686
 30
0.0
 11
65.152957000000001
 21
-135.63190399999999
 31
0.0
  0
ARC
  5
268
  8
DETAIL
  6
CONTINUOUS
 62
     5
 10
61.555554000000001
 20
-130.935295
 30
0.0
 40
6.0955989999999991
 50
309.60198300000002
 51
50.398035
  0
ARC
  5
269
  8
DETAIL
  6
CONTINUOUS
 62
     5
 10
228.51783499999999
 20
-135.70681300000001
 30
0.0
 40
5.9956680000000002
 50
222.84413799999999
 51
304.05781899999999
  0
ARC
  5
26A
  8
DETAIL
  6
CONTINUOUS
 62
     5
 10
86.886877999999996
 20
-252.31320700000001
 30
0.0
 40
177.471858
 50
39.350924999999997
 51
59.146019000000003
  0
LINE
  5
26B
  8
DETAIL
  6
CONTINUOUS
 62
     5
 10
205.62254899999999
 20
-20.015404
 30
0.0
 11
205.42108400000001
 21
-20.008980999999999
 31
0.0
  0
LINE
  5
26C
  8
OUTLINE
  6
CONTINUOUS
 62
     3
 10
205.62254899999999
 20
-19.985569999999999
 30
0.0
 11
205.42108400000001
 21
-19.979147000000001
 31
0.0
  0
ARC
  5
26D
  8
DETAIL
  6
CONTINUOUS
 62
     5
 10
346.931308
 20
-6.0094940000000001
 30
0.0
 40
4.0203819999999988
 50
270.259075
 51
334.740568
  0
ARC
  5
26E
  8
OUTLINE
  6
CONTINUOUS
 62
     3
 10
346.931308
 20
-5.9796589999999989
 30
0.0
 40
4.0203819999999988
 50
270.259075
 51
334.740568
  0
LINE
  5
26F
  8
DETAIL
  6
CONTINUOUS
 62
     5
 10
349.24782800000003
 20
-94.034164000000004
 30
0.0
 11
297.49790300000001
 21
-94.034164000000004
 31
0.0
  0
LINE
  5
270
  8
DETAIL
  6
CONTINUOUS
 62
     5
 10
349.24782800000003
 20
-100.02983500000001
 30
0.0
 11
297.49790300000001
 21
-100.02983500000001
 31
0.0
  0
LINE
  5
271
  8
OUTLINE
  6
CONTINUOUS
 62
     3
 10
349.24782800000003
 20
-94.004328999999998
 30
0.0
 11
297.49790300000001
 21
-94.004328999999998
 31
0.0
  0
LINE
  5
272
  8
OUTLINE
  6
CONTINUOUS
 62
     3
 10
349.24782800000003
 20
-100.0
 30
0.0
 11
297.49790300000001
 21
-100.0
 31
0.0
  0
ARC
  5
273
  8
DETAIL
  6
CONTINUOUS
 62
     5
 10
353.54472500000003
 20
-49.379444999999997
 30
0.0
 40
49.963923999999999
 50
180.0
 51
243.19361600000011
  0
ARC
  5
274
  8
OUTLINE
  6
CONTINUOUS
 62
     3
 10
353.54472500000003
 20
-49.349610999999989
 30
0.0
 40
49.963923999999999
 50
180.0
 51
243.19361600000011
  0
LINE
  5
275
  8
DETAIL
  6
CONTINUOUS
 62
     5
 10
293.25832300000002
 20
-146.9237709999999
 30
0.0
 11
293.25832300000002
 21
-26.011075000000002
 31
0.0
  0
LINE
  5
276
  8
DETAIL
  6
CONTINUOUS
 62
     5
 10
297.49790300000001
 20
-146.9237709999999
 30
0.0
 11
297.49790300000001
 21
-26.011075000000002
 31
0.0
  0
LINE
  5
277
  8
DETAIL
  6
CONTINUOUS
 62
     5
 10
270.64722799999998
 20
-146.9237709999999
 30
0.0
 11
270.64722799999998
 21
-34.005296999999999
 31
0.0
  0
LINE
  5
278
  8
OUTLINE
  6
CONTINUOUS
 62
     3
 10
270.64722799999998
 20
-146.893936
 30
0.0
 11
270.64722799999998
 21
-33.975462999999998
 31
0.0
  0
LINE
  5
279
  8
OUTLINE
  6
CONTINUOUS
 62
     3
 10
293.25832300000002
 20
-146.893936
 30
0.0
 11
293.25832300000002
 21
-25.98124
 31
0.0
  0
LINE
  5
27A
  8
OUTLINE
  6
CONTINUOUS
 62
     3
 10
297.49790300000001
 20
-146.893936
 30
0.0
 11
297.49790300000001
 21
-25.98124
 31
0.0
  0
LINE
  5
27B
  8
DETAIL
  6
CONTINUOUS
 62
     5
 10
318.69578999999999
 20
-26.011075000000002
 30
0.0
 11
249.44932800000001
 21
-26.011075000000002
 31
0.0
  0
LINE
  5
27C
  8
DETAIL
  6
CONTINUOUS
 62
     5
 10
318.69578999999999
 20
-20.015404
 30
0.0
 11
249.44932800000001
 21
-20.015404
 31
0.0
  0
LINE
  5
27D
  8
OUTLINE
  6
CONTINUOUS
 62
     3
 10
318.69578999999999
 20
-25.98124
 30
0.0
 11
249.44932800000001
 21
-25.98124
 31
0.0
  0
LINE
  5
27E
  8
OUTLINE
  6
CONTINUOUS
 62
     3
 10
318.69578999999999
 20
-19.985569999999999
 30
0.0
 11
249.44932800000001
 21
-19.985569999999999
 31
0.0
  0
LINE
  5
27F
  8
DETAIL
  6
DASHED
 62
     5
 10
261.39052099999998
 20
-10.022619000000001
 30
0.0
 11
271.383306
 21
-10.022619000000001
 31
0.0
  0
LINE
  5
280
  8
OUTLINE
  6
DASHED
 62
     3
 10
261.39052099999998
 20
-9.9927850000000014
 30
0.0
 11
271.383306
 21
-9.9927850000000014
 31
0.0
  0
LINE
  5
281
  8
DETAIL
  6
CONTINUOUS
 62
     5
 10
274.630965
 20
-34.005309000000011
 30
0.0
 11
276.179847
 21
-33.105959000000013
 31
0.0
  0
LINE
  5
282
  8
DETAIL
  6
CONTINUOUS
 62
     5
 10
276.17984300000001
 20
-26.011075000000002
 30
0.0
 11
256.59398399999998
 21
-26.011075000000002
 31
0.0
  0
LINE
  5
283
  8
OUTLINE
  6
CONTINUOUS
 62
     3
 10
274.630965
 20
-33.975473999999998
 30
0.0
 11
276.179847
 21
-33.076124
 31
0.0
  0
LINE
  5
284
  8
OUTLINE
  6
CONTINUOUS
 62
     3
 10
276.17984300000001
 20
-25.98124
 30
0.0
 11
256.59398399999998
 21
-25.98124
 31
0.0
  0
LINE
  5
285
  8
DETAIL
  6
CONTINUOUS
 62
     5
 10
256.59398099999999
 20
-33.105959000000013
 30
0.0
 11
258.14286199999998
 21
-34.005309000000011
 31
0.0
  0
LINE
  5
286
  8
DETAIL
  6
CONTINUOUS
 62
     5
 10
260.75487600000002
 20
-26.011075000000002
 30
0.0
 11
260.75487600000002
 21
-20.015404
 31
0.0
  0
ARC
  5
287
  8
DETAIL
  6
CONTINUOUS
 62
     5
 10
259.04221899999999
 20
-30.223279999999999
 30
0.0
 40
3.7820139999999989
 50
269.99998199999999
 51
310.340937
  0
LINE
  5
288
  8
DETAIL
  6
CONTINUOUS
 62
     5
 10
261.49045000000001
 20
-26.011074000000001
 30
0.0
 11
261.49045000000001
 21
-33.105952000000002
 31
0.0
  0
LINE
  5
289
  8
DETAIL
  6
CONTINUOUS
 62
     5
 10
256.59398399999998
 20
-26.011075000000002
 30
0.0
 11
256.59398399999998
 21
-33.105952000000002
 31
0.0
  0
LINE
  5
28A
  8
DETAIL
  6
CONTINUOUS
 62
     5
 10
272.06042300000001
 20
-26.011075000000002
 30
0.0
 11
272.06042300000001
 21
-20.015404
 31
0.0
  0
ARC
  5
28B
  8
DETAIL
  6
CONTINUOUS
 62
     5
 10
273.73160799999999
 20
-30.223279999999999
 30
0.0
 40
3.7820139999999989
 50
229.65902399999999
 51
269.99998199999999
  0
LINE
  5
28C
  8
DETAIL
  6
CONTINUOUS
 62
     5
 10
271.28337699999997
 20
-26.011075999999999
 30
0.0
 11
271.28337699999997
 21
-33.105952000000002
 31
0.0
  0
LINE
  5
28D
  8
DETAIL
  6
CONTINUOUS
 62
     5
 10
274.63096999999999
 20
-34.005296999999999
 30
0.0
 11
258.14285699999999
 21
-34.005296999999999
 31
0.0
  0
ARC
  5
28E
  8
DETAIL
  6
CONTINUOUS
 62
     5
 10
266.38691399999999
 20
-20.226351000000001
 30
0.0
 40
13.778945999999999
 50
249.18457100000001
 51
290.81533899999999
  0
LINE
  5
28F
  8
OUTLINE
  6
CONTINUOUS
 62
     3
 10
256.59398099999999
 20
-33.076124
 30
0.0
 11
258.14286199999998
 21
-33.975473999999998
 31
0.0
  0
LINE
  5
290
  8
OUTLINE
  6
CONTINUOUS
 62
     3
 10
260.75487600000002
 20
-25.98124
 30
0.0
 11
260.75487600000002
 21
-19.985569999999999
 31
0.0
  0
ARC
  5
291
  8
OUTLINE
  6
CONTINUOUS
 62
     3
 10
259.04221899999999
 20
-30.193445000000001
 30
0.0
 40
3.7820139999999989
 50
269.99998199999999
 51
310.340937
  0
LINE
  5
292
  8
OUTLINE
  6
CONTINUOUS
 62
     3
 10
261.49045000000001
 20
-25.981238999999999
 30
0.0
 11
261.49045000000001
 21
-33.076117000000004
 31
0.0
  0
LINE
  5
293
  8
OUTLINE
  6
CONTINUOUS
 62
     3
 10
256.59398399999998
 20
-25.98124
 30
0.0
 11
256.59398399999998
 21
-33.076117000000004
 31
0.0
  0
LINE
  5
294
  8
OUTLINE
  6
CONTINUOUS
 62
     3
 10
272.06042300000001
 20
-25.98124
 30
0.0
 11
272.06042300000001
 21
-19.985569999999999
 31
0.0
  0
ARC
  5
295
  8
OUTLINE
  6
CONTINUOUS
 62
     3
 10
273.73160799999999
 20
-30.193445000000001
 30
0.0
 40
3.7820139999999989
 50
229.65902399999999
 51
269.99998199999999
  0
LINE
  5
296
  8
OUTLINE
  6
CONTINUOUS
 62
     3
 10
271.28337699999997
 20
-25.981241000000001
 30
0.0
 11
271.28337699999997
 21
-33.076117000000004
 31
0.0
  0
LINE
  5
297
  8
OUTLINE
  6
CONTINUOUS
 62
     3
 10
274.63096999999999
 20
-33.975462999999998
 30
0.0
 11
258.14285699999999
 21
-33.975462999999998
 31
0.0
  0
ARC
  5
298
  8
OUTLINE
  6
CONTINUOUS
 62
     3
 10
266.38691399999999
 20
-20.196517
 30
0.0
 40
13.778945999999999
 50
249.18457100000001
 51
290.81533899999999
  0
LINE
  5
299
  8
DETAIL
  6
CONTINUOUS
 62
     5
 10
276.17984300000001
 20
-33.105952000000002
 30
0.0
 11
276.17984300000001
 21
-26.011075000000002
 31
0.0
  0
LINE
  5
29A
  8
OUTLINE
  6
CONTINUOUS
 62
     3
 10
276.17984300000001
 20
-33.076117000000004
 30
0.0
 11
276.17984300000001
 21
-25.98124
 31
0.0
  0
LINE
  5
29B
  8
DETAIL
  6
CONTINUOUS
 62
     5
 10
249.44932800000001
 20
-20.015404
 30
0.0
 11
249.44932800000001
 21
-26.011075000000002
 31
0.0
  0
LINE
  5
29C
  8
OUTLINE
  6
CONTINUOUS
 62
     3
 10
249.44932800000001
 20
-19.985569999999999
 30
0.0
 11
249.44932800000001
 21
-25.98124
 31
0.0
  0
ARC
  5
29D
  8
DETAIL
  6
CONTINUOUS
 62
     5
 10
329.133173
 20
-16.01829
 30
0.0
 40
3.9971139999999989
 50
270.000001
 51
0.0
  0
ARC
  5
29E
  8
DETAIL
  6
CONTINUOUS
 62
     5
 10
330.76117599999998
 20
-16.01829
 30
0.0
 40
3.9971139999999989
 50
270.0
 51
0.0
  0
ARC
  5
29F
  8
OUTLINE
  6
CONTINUOUS
 62
     3
 10
329.133173
 20
-15.988455999999999
 30
0.0
 40
3.9971139999999989
 50
270.000001
 51
0.0
  0
ARC
  5
2A0
  8
OUTLINE
  6
CONTINUOUS
 62
     3
 10
330.76117599999998
 20
-15.988455999999999
 30
0.0
 40
3.9971139999999989
 50
270.0
 51
0.0
  0
LINE
  5
2A1
  8
DETAIL
  6
CONTINUOUS
 62
     5
 10
334.75828999999999
 20
-16.01829
 30
0.0
 11
334.75828999999999
 21
-14.019733
 31
0.0
  0
LINE
  5
2A2
  8
DETAIL
  6
CONTINUOUS
 62
     5
 10
333.13028600000001
 20
-14.019733
 30
0.0
 11
333.13028600000001
 21
-16.01829
 31
0.0
  0
ARC
  5
2A3
  8
DETAIL
  6
CONTINUOUS
 62
     5
 10
337.12740000000002
 20
-14.019733
 30
0.0
 40
3.9971139999999989
 50
90.0
 51
180.0
  0
ARC
  5
2A4
  8
DETAIL
  6
CONTINUOUS
 62
     5
 10
338.755404
 20
-14.019733
 30
0.0
 40
3.9971139999999989
 50
90.0
 51
180.0
  0
LINE
  5
2A5
  8
OUTLINE
  6
CONTINUOUS
 62
     3
 10
334.75828999999999
 20
-15.988455999999999
 30
0.0
 11
334.75828999999999
 21
-13.989898999999999
 31
0.0
  0
LINE
  5
2A6
  8
OUTLINE
  6
CONTINUOUS
 62
     3
 10
333.13028600000001
 20
-13.989898999999999
 30
0.0
 11
333.13028600000001
 21
-15.988455999999999
 31
0.0
  0
ARC
  5
2A7
  8
OUTLINE
  6
CONTINUOUS
 62
     3
 10
337.12740000000002
 20
-13.989898999999999
 30
0.0
 40
3.9971139999999989
 50
90.0
 51
180.0
  0
ARC
  5
2A8
  8
OUTLINE
  6
CONTINUOUS
 62
     3
 10
338.755404
 20
-13.989898999999999
 30
0.0
 40
3.9971139999999989
 50
90.0
 51
180.0
  0
LINE
  5
2A9
  8
DETAIL
  6
CONTINUOUS
 62
     5
 10
318.69578999999999
 20
-20.015404
 30
0.0
 11
318.69578999999999
 21
-26.011075000000002
 31
0.0
  0
LINE
  5
2AA
  8
DETAIL
  6
CONTINUOUS
 62
     5
 10
311.50966599999998
 20
-33.105952000000002
 30
0.0
 11
311.50966599999998
 21
-26.011075000000002
 31
0.0
  0
LINE
  5
2AB
  8
DETAIL
  6
CONTINUOUS
 62
     5
 10
309.96078799999998
 20
-34.005309000000011
 30
0.0
 11
311.50967000000003
 21
-33.105959000000013
 31
0.0
  0
LINE
  5
2AC
  8
OUTLINE
  6
CONTINUOUS
 62
     3
 10
318.69578999999999
 20
-19.985569999999999
 30
0.0
 11
318.69578999999999
 21
-25.98124
 31
0.0
  0
LINE
  5
2AD
  8
OUTLINE
  6
CONTINUOUS
 62
     3
 10
311.50966599999998
 20
-33.076117000000004
 30
0.0
 11
311.50966599999998
 21
-25.98124
 31
0.0
  0
LINE
  5
2AE
  8
OUTLINE
  6
CONTINUOUS
 62
     3
 10
309.96078799999998
 20
-33.975473999999998
 30
0.0
 11
311.50967000000003
 21
-33.076124
 31
0.0
  0
LINE
  5
2AF
  8
DETAIL
  6
DASHED
 62
     5
 10
296.72034500000001
 20
-10.022619000000001
 30
0.0
 11
306.71312899999998
 21
-10.022619000000001
 31
0.0
  0
LINE
  5
2B0
  8
OUTLINE
  6
DASHED
 62
     3
 10
296.72034500000001
 20
-9.9927850000000014
 30
0.0
 11
306.71312899999998
 21
-9.9927850000000014
 31
0.0
  0
ARC
  5
2B1
  8
DETAIL
  6
CONTINUOUS
 62
     5
 10
301.71673700000002
 20
-20.226351000000001
 30
0.0
 40
13.778945999999999
 50
256.65797000000009
 51
290.81533899999999
  0
LINE
  5
2B2
  8
DETAIL
  6
CONTINUOUS
 62
     5
 10
306.61320000000001
 20
-26.011075999999999
 30
0.0
 11
306.61320000000001
 21
-33.105952000000002
 31
0.0
  0
ARC
  5
2B3
  8
DETAIL
  6
CONTINUOUS
 62
     5
 10
323.566371
 20
-40.000973999999999
 30
0.0
 40
19.985569999999999
 50
162.54238000000001
 51
180.0
  0
LINE
  5
2B4
  8
DETAIL
  6
CONTINUOUS
 62
     5
 10
303.58080100000001
 20
-49.379444999999997
 30
0.0
 11
303.58080100000001
 21
-40.000973999999999
 31
0.0
  0
ARC
  5
2B5
  8
OUTLINE
  6
CONTINUOUS
 62
     3
 10
301.71673700000002
 20
-20.196517
 30
0.0
 40
13.778945999999999
 50
256.65797000000009
 51
290.81533899999999
  0
LINE
  5
2B6
  8
OUTLINE
  6
CONTINUOUS
 62
     3
 10
306.61320000000001
 20
-25.981241000000001
 30
0.0
 11
306.61320000000001
 21
-33.076117000000004
 31
0.0
  0
ARC
  5
2B7
  8
OUTLINE
  6
CONTINUOUS
 62
     3
 10
323.566371
 20
-39.971139000000001
 30
0.0
 40
19.985569999999999
 50
162.54238000000001
 51
180.0
  0
LINE
  5
2B8
  8
OUTLINE
  6
CONTINUOUS
 62
     3
 10
303.58080100000001
 20
-49.349610999999989
 30
0.0
 11
303.58080100000001
 21
-39.971139000000001
 31
0.0
  0
LINE
  5
2B9
  8
DETAIL
  6
CONTINUOUS
 62
     5
 10
311.50966599999998
 20
-26.011075000000002
 30
0.0
 11
298.537058
 21
-26.011075000000002
 31
0.0
  0
LINE
  5
2BA
  8
DETAIL
  6
CONTINUOUS
 62
     5
 10
309.96079400000002
 20
-34.005296999999999
 30
0.0
 11
298.537058
 21
-34.005296999999999
 31
0.0
  0
ARC
  5
2BB
  8
DETAIL
  6
CONTINUOUS
 62
     5
 10
309.06143100000003
 20
-30.223279999999999
 30
0.0
 40
3.7820139999999989
 50
229.65902399999999
 51
269.99998199999999
  0
LINE
  5
2BC
  8
OUTLINE
  6
CONTINUOUS
 62
     3
 10
311.50966599999998
 20
-25.98124
 30
0.0
 11
298.537058
 21
-25.98124
 31
0.0
  0
LINE
  5
2BD
  8
OUTLINE
  6
CONTINUOUS
 62
     3
 10
309.96079400000002
 20
-33.975462999999998
 30
0.0
 11
298.537058
 21
-33.975462999999998
 31
0.0
  0
ARC
  5
2BE
  8
OUTLINE
  6
CONTINUOUS
 62
     3
 10
309.06143100000003
 20
-30.193445000000001
 30
0.0
 40
3.7820139999999989
 50
229.65902399999999
 51
269.99998199999999
  0
ARC
  5
2BF
  8
DETAIL
  6
CONTINUOUS
 62
     5
 10
349.24782800000003
 20
-97.031999000000013
 30
0.0
 40
2.9978349999999989
 50
270.0
 51
90.0
  0
ARC
  5
2C0
  8
OUTLINE
  6
CONTINUOUS
 62
     3
 10
349.24782800000003
 20
-97.002165000000005
 30
0.0
 40
2.9978349999999989
 50
270.0
 51
90.0
  0
LINE
  5
2C1
  8
DETAIL
  6
CONTINUOUS
 62
     5
 10
353.49956900000001
 20
-6.7997059999999987
 30
0.0
 11
354.64628800000003
 21
-2.9907330000000001
 31
0.0
  0
ARC
  5
2C2
  8
DETAIL
  6
CONTINUOUS
 62
     5
 10
352.25565599999999
 20
-6.4252169999999991
 30
0.0
 40
1.2990619999999999
 50
270.0
 51
343.24519500000002
  0
LINE
  5
2C3
  8
OUTLINE
  6
CONTINUOUS
 62
     3
 10
353.49956900000001
 20
-6.7698710000000011
 30
0.0
 11
354.64628800000003
 21
-2.9608979999999989
 31
0.0
  0
ARC
  5
2C4
  8
OUTLINE
  6
CONTINUOUS
 62
     3
 10
352.25565599999999
 20
-6.3953819999999988
 30
0.0
 40
1.2990619999999999
 50
270.0
 51
343.24519500000002
  0
LINE
  5
2C5
  8
NOTE
  6
CONTINUOUS
 62
     4
 39
50.0
 10
432.43468799999999
 20
218.58297099999999
 30
0.0
 11
325.0
 21
0.0
 31
0.0
  0
LINE
  5
2C6
  8
NOTE
  6
CONTINUOUS
 62
     4
 39
50.0
 10
708.37064999999996
 20
221.07870399999999
 30
0.0
 11
433.66135400000002
 21
221.07870399999999
 31
0.0
  0
TEXT
  5
2CA
  8
NOTE
  6
CONTINUOUS
 62
     4
 10
440.24580800000001
 20
237.31981200000001
 30
0.0
 40
64.0
  1
4-φ14
 41
0.9
  0
LINE
  5
2CB
  8
NOTE
  6
CONTINUOUS
 62
     4
 10
352.74280599999997
 20
28.815563999999998
 30
0.0
 11
325.0
 21
0.0
 31
0.0
  0
LINE
  5
2CC
  8
NOTE
  6
CONTINUOUS
 62
     4
 10
325.0
 20
0.0
 30
0.0
 11
334.61819200000002
 21
38.826413000000002
 31
0.0
  0
LINE
  5
2CD
  8
DETAIL
  6
CONTINUOUS
 62
     5
 39
50.0
 10
94.665856999999988
 20
-236.846802
 30
0.0
 11
103.175208
 21
-236.846802
 31
0.0
  0
LINE
  5
2CE
  8
DETAIL
  6
CONTINUOUS
 62
     5
 39
50.0
 10
94.665856999999988
 20
-228.846802
 30
0.0
 11
103.175208
 21
-228.846802
 31
0.0
  0
LINE
  5
2CF
  8
DETAIL
  6
CONTINUOUS
 62
     5
 10
198.43970400000001
 20
-236.847487
 30
0.0
 11
111.10563399999999
 21
-237.165627
 31
0.0
  0
LINE
  5
2D0
  8
DETAIL
  6
CONTINUOUS
 62
     5
 10
199.68066099999999
 20
-228.856435
 30
0.0
 11
111.106837
 21
-228.84616500000001
 31
0.0
  0
LINE
  5
2D1
  8
DETAIL
  6
CONTINUOUS
 62
     5
 10
103.18584
 20
-216.77939699999999
 30
0.0
 11
103.172319
 21
-248.92245800000001
 31
0.0
  0
LINE
  5
2D2
  8
DETAIL
  6
CONTINUOUS
 62
     5
 10
111.109647
 20
-217.101214
 30
0.0
 11
111.101958
 21
-249.24076299999999
 31
0.0
  0
LINE
  5
2D3
  8
DETAIL
  6
CONTINUOUS
 62
     5
 10
111.105971
 20
-229.17635000000001
 30
0.0
 11
111.10563399999999
 21
-237.165627
 31
0.0
  0
ARC
  5
2D4
  8
DETAIL
  6
CONTINUOUS
 62
     5
 10
194.90875399999999
 20
-142.397797
 30
0.0
 40
94.515668000000005
 50
272.14097400000003
 51
357.36233800000002
  0
ARC
  5
2D5
  8
DETAIL
  6
CONTINUOUS
 62
     5
 10
194.07602600000001
 20
-141.67354900000001
 30
0.0
 40
87.375872999999984
 50
273.80877599999991
 51
356.90294699999998
  0
LINE
  5
2D6
  8
DETAIL
  6
CONTINUOUS
 62
     5
 10
281.32428299999998
 20
-64.855367000000001
 30
0.0
 11
281.32428299999998
 21
-146.39424399999999
 31
0.0
  0
LINE
  5
2D7
  8
DETAIL
  6
CONTINUOUS
 62
     5
 10
289.32428599999997
 20
-64.862994999999998
 30
0.0
 11
289.32428599999997
 21
-146.74737400000001
 31
0.0
  0
LINE
  5
2D8
  8
DETAIL
  6
CONTINUOUS
 62
     5
 39
50.0
 10
297.22948000000002
 20
-56.842028000000013
 30
0.0
 11
270.51385800000003
 21
-56.841714000000003
 31
0.0
  0
LINE
  5
2D9
  8
DETAIL
  6
CONTINUOUS
 62
     5
 39
50.0
 10
270.51385800000003
 20
-64.844354999999993
 30
0.0
 11
297.22850399999999
 21
-64.868550999999997
 31
0.0
  0
LINE
  5
2DA
  8
DETAIL
  6
CONTINUOUS
 62
     5
 39
50.0
 10
281.32428299999998
 20
-64.855367000000001
 30
0.0
 11
281.32340900000003
 21
-73.338441000000003
 31
0.0
  0
ARC
  5
2DB
  8
DETAIL
  6
CONTINUOUS
 62
     5
 39
50.0
 10
293.25832300000002
 20
-52.5
 30
0.0
 40
12.5
 50
90.0
 51
180.0
  0
LINE
  5
2DC
  8
DETAIL
  6
CONTINUOUS
 62
     5
 10
280.75832300000002
 20
-52.5
 30
0.0
 11
280.75832300000002
 21
-56.841731000000003
 31
0.0
  0
ARC
  5
2DD
  8
DETAIL
  6
CONTINUOUS
 62
     5
 39
50.0
 10
312.88493299999999
 20
-45.499999999999993
 30
0.0
 40
2.5
 50
270.0
 51
0.0
  0
LINE
  5
2DE
  8
DETAIL
  6
CONTINUOUS
 62
     5
 39
50.0
 10
312.88493299999999
 20
-48.0
 30
0.0
 11
293.75832300000002
 21
-48.0
 31
0.0
  0
ARC
  5
2DF
  8
DETAIL
  6
CONTINUOUS
 62
     5
 39
50.0
 10
312.88493299999999
 20
-42.501688999999999
 30
0.0
 40
2.5
 50
0.0
 51
90.0
  0
LINE
  5
2E0
  8
DETAIL
  6
CONTINUOUS
 62
     5
 39
50.0
 10
293.25832300000002
 20
-40.0
 30
0.0
 11
312.88493299999999
 21
-40.0
 31
0.0
  0
LINE
  5
2E1
  8
DETAIL
  6
CONTINUOUS
 62
     5
 10
315.38493299999999
 20
-42.501688999999999
 30
0.0
 11
315.38493299999999
 21
-45.499999999999993
 31
0.0
  0
ARC
  5
2E2
  8
DETAIL
  6
CONTINUOUS
 62
     5
 39
50.0
 10
293.75832300000002
 20
-53.0
 30
0.0
 40
5.0
 50
90.0
 51
180.0
  0
LINE
  5
2E3
  8
DETAIL
  6
CONTINUOUS
 62
     5
 10
288.75832300000002
 20
-53.0
 30
0.0
 11
288.75827800000002
 21
-56.841929
 31
0.0
  0
LINE
  5
2E4
  8
BASIS
  6
DASHDOT
 62
     6
 10
0.0
 20
23.707404
 30
0.0
 11
0.0
 21
-326.292596
 31
0.0
  0
LINE
  5
2E5
  8
DETAIL
  6
CONTINUOUS
 62
     5
 10
94.700000000000003
 20
-216.87326400000001
 30
0.0
 11
94.631714000000002
 21
-248.82034100000001
 31
0.0
  0
LINE
  5
2E6
  8
DETAIL
  6
CONTINUOUS
 62
     5
 10
-94.700000000000003
 20
-216.87326400000001
 30
0.0
 11
-94.631714000000002
 21
-248.82034100000001
 31
0.0
  0
LINE
  5
2E7
  8
DETAIL
  6
CONTINUOUS
 62
     5
 10
94.665856999999988
 20
-236.846802
 30
0.0
 11
94.665856999999988
 21
-228.846802
 31
0.0
  0
POINT
  5
2E8
  8
ARRANGE
  6
CONTINUOUS
 62
     1
 10
0.0
 20
0.0
 30
0.0
  0
TEXT
  5
2F1
  8
ETC
  6
CONTINUOUS
 62
    61
 10
439.07040804366619
 20
660.80687205295408
 30
0.0
 40
40.0
  1
EG-60ETB3_6
 41
0.9
  0
TEXT
  5
2F2
  8
ETC
  6
CONTINUOUS
 62
    61
 10
487.51718441444473
 20
536.877642052954
 30
0.0
 40
40.0
  1
EG-60ETB1
 41
0.9
  0
TEXT
  5
2F3
  8
ETC
  6
CONTINUOUS
 62
    61
 10
439.07040804366619
 20
599.62095905295405
 30
0.0
 40
40.0
  1
産業扇
 41
0.9
  0
TEXT
  5
2F4
  8
ETC
  6
CONTINUOUS
 62
    61
 10
487.51718441444473
 20
477.04876777750189
 30
0.0
 40
40.0
  1
EG-60ETB3
 41
0.9
  0
ENDSEC
  0
EOF
