  0
SECTION
  2
HEADER
  9
$ACADVER
  1
AC1009
  9
$DWGCODEPAGE
  3
ansi_932
  9
$INSBASE
 10
0.0
 20
0.0
 30
0.0
  9
$EXTMIN
 10
-724.3812677767608
 20
-664.997872
 30
0.0
  9
$EXTMAX
 10
1431.902691565687
 20
876.9773247047266
 30
50.0
  9
$LIMMIN
 10
-2970.0
 20
-2100.0
  9
$LIMMAX
 10
2970.0
 20
2100.0
  9
$ORTHOMODE
 70
     0
  9
$REGENMODE
 70
     0
  9
$FILLMODE
 70
     1
  9
$QTEXTMODE
 70
     0
  9
$MIRRTEXT
 70
     0
  9
$DRAGMODE
 70
     2
  9
$LTSCALE
 40
20.0
  9
$OSMODE
 70
    37
  9
$ATTMODE
 70
     1
  9
$TEXTSIZE
 40
64.0
  9
$TRACEWID
 40
0.05
  9
$TEXTSTYLE
  7
STANDARD
  9
$CLAYER
  8
SIZE
  9
$CELTYPE
  6
CONTINUOUS
  9
$CECOLOR
 62
     8
  9
$DIMSCALE
 40
1.0
  9
$DIMASZ
 40
12.0
  9
$DIMEXO
 40
20.0
  9
$DIMDLI
 40
200.0
  9
$DIMRND
 40
0.0
  9
$DIMDLE
 40
0.0
  9
$DIMEXE
 40
20.0
  9
$DIMTP
 40
0.0
  9
$DIMTM
 40
0.0
  9
$DIMTXT
 40
64.0
  9
$DIMCEN
 40
0.09
  9
$DIMTSZ
 40
0.0
  9
$DIMTOL
 70
     0
  9
$DIMLIM
 70
     0
  9
$DIMTIH
 70
     0
  9
$DIMTOH
 70
     0
  9
$DIMSE1
 70
     0
  9
$DIMSE2
 70
     0
  9
$DIMTAD
 70
     1
  9
$DIMZIN
 70
     8
  9
$DIMBLK
  1
DOT1
  9
$DIMASO
 70
     1
  9
$DIMSHO
 70
     0
  9
$DIMPOST
  1

  9
$DIMAPOST
  1

  9
$DIMALT
 70
     0
  9
$DIMALTD
 70
     2
  9
$DIMALTF
 40
25.4
  9
$DIMLFAC
 40
1.0
  9
$DIMTOFL
 70
     1
  9
$DIMTVP
 40
0.0
  9
$DIMTIX
 70
     1
  9
$DIMSOXD
 70
     0
  9
$DIMSAH
 70
     1
  9
$DIMBLK1
  1
ORIGIN
  9
$DIMBLK2
  1
ORIGIN
  9
$DIMSTYLE
  2
STANDARD
  9
$DIMCLRD
 70
     0
  9
$DIMCLRE
 70
     0
  9
$DIMCLRT
 70
     0
  9
$DIMTFAC
 40
1.0
  9
$DIMGAP
 40
0.09
  9
$LUNITS
 70
     2
  9
$LUPREC
 70
     4
  9
$SKETCHINC
 40
0.1
  9
$FILLETRAD
 40
10.0
  9
$AUNITS
 70
     1
  9
$AUPREC
 70
     3
  9
$MENU
  1
ACAD
  9
$ELEVATION
 40
0.0
  9
$PELEVATION
 40
0.0
  9
$THICKNESS
 40
50.0
  9
$LIMCHECK
 70
     0
  9
$CHAMFERA
 40
0.0
  9
$CHAMFERB
 40
0.0
  9
$SKPOLY
 70
     0
  9
$TDCREATE
 40
2452310.657101389
  9
$TDUPDATE
 40
2457485.555787708
  9
$TDINDWG
 40
0.1450227894
  9
$TDUSRTIMER
 40
0.1450226157
  9
$USRTIMER
 70
     1
  9
$ANGBASE
 50
0.0
  9
$ANGDIR
 70
     0
  9
$PDMODE
 70
     3
  9
$PDSIZE
 40
-2.0
  9
$PLINEWID
 40
0.0
  9
$COORDS
 70
     1
  9
$SPLFRAME
 70
     0
  9
$SPLINETYPE
 70
     6
  9
$SPLINESEGS
 70
     8
  9
$ATTDIA
 70
     0
  9
$ATTREQ
 70
     1
  9
$HANDLING
 70
     1
  9
$HANDSEED
  5
682
  9
$SURFTAB1
 70
     6
  9
$SURFTAB2
 70
     6
  9
$SURFTYPE
 70
     6
  9
$SURFU
 70
     6
  9
$SURFV
 70
     6
  9
$UCSNAME
  2

  9
$UCSORG
 10
0.0
 20
0.0
 30
0.0
  9
$UCSXDIR
 10
1.0
 20
0.0
 30
0.0
  9
$UCSYDIR
 10
0.0
 20
1.0
 30
0.0
  9
$PUCSNAME
  2

  9
$PUCSORG
 10
0.0
 20
0.0
 30
0.0
  9
$PUCSXDIR
 10
1.0
 20
0.0
 30
0.0
  9
$PUCSYDIR
 10
0.0
 20
1.0
 30
0.0
  9
$USERI1
 70
     0
  9
$USERI2
 70
     0
  9
$USERI3
 70
     0
  9
$USERI4
 70
     0
  9
$USERI5
 70
     0
  9
$USERR1
 40
20.0
  9
$USERR2
 40
0.0
  9
$USERR3
 40
0.0
  9
$USERR4
 40
0.0
  9
$USERR5
 40
0.0
  9
$WORLDVIEW
 70
     1
  9
$SHADEDGE
 70
     3
  9
$SHADEDIF
 70
    70
  9
$TILEMODE
 70
     1
  9
$MAXACTVP
 70
    48
  9
$PLIMCHECK
 70
     0
  9
$PEXTMIN
 10
1.000000000000000E+20
 20
1.000000000000000E+20
 30
1.000000000000000E+20
  9
$PEXTMAX
 10
-1.000000000000000E+20
 20
-1.000000000000000E+20
 30
-1.000000000000000E+20
  9
$PLIMMIN
 10
0.0
 20
0.0
  9
$PLIMMAX
 10
12.0
 20
9.0
  9
$UNITMODE
 70
     0
  9
$VISRETAIN
 70
     1
  9
$PLINEGEN
 70
     0
  9
$PSLTSCALE
 70
     1
  0
ENDSEC
  0
SECTION
  2
TABLES
  0
TABLE
  2
VPORT
 70
     1
  0
VPORT
  2
*ACTIVE
 70
     0
 10
0.0
 20
0.0
 11
1.0
 21
1.0
 12
271.3842301130132
 22
78.37311349903075
 13
0.0
 23
0.0
 14
1.0
 24
1.0
 15
0.0
 25
0.0
 16
0.0
 26
0.0
 36
1.0
 17
0.0
 27
0.0
 37
0.0
 40
2073.083237645119
 41
1.447268106734434
 42
50.0
 43
0.0
 44
0.0
 50
0.0
 51
0.0
 71
     0
 72
   100
 73
     1
 74
     0
 75
     0
 76
     0
 77
     0
 78
     0
  0
ENDTAB
  0
TABLE
  2
LTYPE
 70
     2
  0
LTYPE
  2
CONTINUOUS
 70
     0
  3
実線
 72
    65
 73
     0
 40
0.0
  0
LTYPE
  2
DASHDOT
 70
     0
  3
____ _ ____ _ ____ _ ____ _ ____ _ ____ _ ____
 72
    65
 73
     4
 40
5.5
 49
4.0
 49
-0.6
 49
0.3
 49
-0.6
  0
ENDTAB
  0
TABLE
  2
LAYER
 70
    12
  0
LAYER
  2
0
 70
     0
 62
     7
  6
CONTINUOUS
  0
LAYER
  2
SIZE
 70
     0
 62
    30
  6
CONTINUOUS
  0
LAYER
  2
BASIS
 70
     0
 62
     6
  6
DASHDOT
  0
LAYER
  2
OUTLINE
 70
     0
 62
     3
  6
CONTINUOUS
  0
LAYER
  2
DETAIL
 70
     0
 62
     5
  6
CONTINUOUS
  0
LAYER
  2
ARRANGE
 70
     0
 62
     1
  6
CONTINUOUS
  0
LAYER
  2
DEFPOINTS
 70
     0
 62
     7
  6
CONTINUOUS
  0
LAYER
  2
ETC
 70
     0
 62
    61
  6
CONTINUOUS
  0
LAYER
  2
FIX
 70
     0
 62
    11
  6
CONTINUOUS
  0
LAYER
  2
NOTE
 70
     0
 62
     4
  6
CONTINUOUS
  0
LAYER
  2
SERVICESPACE
 70
     0
 62
     2
  6
DASHDOT
  0
LAYER
  2
SYMBOLLINE
 70
     0
 62
    15
  6
CONTINUOUS
  0
ENDTAB
  0
TABLE
  2
STYLE
 70
     1
  0
STYLE
  2
STANDARD
 70
     0
 40
64.0
 41
0.9
 50
0.0
 71
     0
 42
64.0
  3
SIMPLEX.shx
  4
BIGFONT.shx
  0
ENDTAB
  0
TABLE
  2
VIEW
 70
     1
  0
VIEW
  2
ALL
 70
     0
 40
4282.619807999998
 10
0.0
 20
41.30990399999999
 41
5940.0
 11
0.0
 21
0.0
 31
1.0
 12
0.0
 22
0.0
 32
0.0
 42
50.0
 43
0.0
 44
0.0
 50
0.0
 71
     0
  0
ENDTAB
  0
TABLE
  2
UCS
 70
     0
  0
ENDTAB
  0
TABLE
  2
APPID
 70
     1
  0
APPID
  2
ACAD
 70
     0
  0
ENDTAB
  0
TABLE
  2
DIMSTYLE
 70
     1
  0
DIMSTYLE
  2
STANDARD
 70
     0
  3

  4

  5

  6

  7

 40
1.0
 41
0.18
 42
0.0625
 43
0.38
 44
0.18
 45
0.0
 46
0.0
 47
0.0
 48
0.0
140
0.18
141
0.09
142
0.0
143
25.4
144
1.0
145
0.0
146
1.0
147
0.09
 71
     0
 72
     0
 73
     1
 74
     1
 75
     0
 76
     0
 77
     0
 78
     0
170
     0
171
     2
172
     0
173
     0
174
     0
175
     0
176
     0
177
     0
178
     0
  0
ENDTAB
  0
ENDSEC
  0
SECTION
  2
BLOCKS
  0
BLOCK
  8
0
  2
$MODEL_SPACE
 70
     0
 10
0.0
 20
0.0
 30
0.0
  3
$MODEL_SPACE
  1

  0
ENDBLK
  5
28E
  8
0
  0
BLOCK
 67
     1
  8
0
  2
$PAPER_SPACE
 70
     0
 10
0.0
 20
0.0
 30
0.0
  3
$PAPER_SPACE
  1

  0
ENDBLK
  5
28A
 67
     1
  8
0
  0
BLOCK
  8
0
  2
DOT1
 70
     0
 10
0.0
 20
0.0
 30
0.0
  3
DOT1
  1

  0
CIRCLE
  5
2A9
  8
SIZE
  6
CONTINUOUS
 62
     7
 10
0.0
 20
0.0
 30
0.0
 40
3.0
  0
ENDBLK
  5
2AA
  8
0
  0
BLOCK
  8
0
  2
_ORIGIN
 70
     0
 10
0.0
 20
0.0
 30
0.0
  3
_ORIGIN
  1

  0
CIRCLE
  5
2AD
  8
0
  6
CONTINUOUS
 62
     7
 10
0.0
 20
0.0
 30
0.0
 40
0.5
  0
LINE
  5
2AE
  8
0
  6
CONTINUOUS
 62
     7
 10
0.0
 20
0.0
 30
0.0
 11
-1.0
 21
0.0
 31
0.0
  0
ENDBLK
  5
2AF
  8
0
  0
ENDSEC
  0
SECTION
  2
ENTITIES
  0
LINE
  5
2B0
  8
BASIS
  6
DASHDOT
 62
     6
 10
0.0
 20
390.447285
 30
0.0
 11
0.0
 21
-391.7615439999998
 31
0.0
  0
LINE
  5
2B1
  8
BASIS
  6
DASHDOT
 62
     6
 10
-399.2959159999999
 20
0.0
 30
0.0
 11
399.9370540000001
 21
0.0
 31
0.0
  0
LINE
  5
2B2
  8
DETAIL
  6
CONTINUOUS
 62
     5
 10
355.0000000000001
 20
325.0
 30
0.0
 11
355.0000000000001
 21
-325.0
 31
0.0
  0
LINE
  5
2B3
  8
DETAIL
  6
CONTINUOUS
 62
     5
 10
-354.9999999999997
 20
325.0
 30
0.0
 11
-354.9999999999997
 21
-325.0
 31
0.0
  0
LINE
  5
2B4
  8
DETAIL
  6
CONTINUOUS
 62
     5
 10
-324.9999999999998
 20
355.0
 30
0.0
 11
325.0000000000001
 21
355.0
 31
0.0
  0
LINE
  5
2B5
  8
DETAIL
  6
CONTINUOUS
 62
     5
 10
-324.9999999999998
 20
-355.0
 30
0.0
 11
325.0000000000001
 21
-355.0
 31
0.0
  0
LINE
  5
2B6
  8
NOTE
  6
CONTINUOUS
 62
     4
 10
-324.9999999999998
 20
305.0
 30
0.0
 11
-324.9999999999998
 21
345.0
 31
0.0
  0
LINE
  5
2B7
  8
NOTE
  6
CONTINUOUS
 62
     4
 10
-344.9999999999998
 20
325.0
 30
0.0
 11
-304.9999999999999
 21
325.0
 31
0.0
  0
LINE
  5
2B8
  8
NOTE
  6
CONTINUOUS
 62
     4
 10
277.0000000000001
 20
-308.0
 30
0.0
 11
277.0000000000001
 21
-268.0
 31
0.0
  0
LINE
  5
2B9
  8
NOTE
  6
CONTINUOUS
 62
     4
 10
257.0000000000001
 20
-288.0
 30
0.0
 11
297.0000000000001
 21
-288.0
 31
0.0
  0
TEXT
  5
2BA
  8
NOTE
  6
CONTINUOUS
 62
     4
 10
-720.7617119999998
 20
489.088367
 30
0.0
 40
64.0
  1
4-φ14
 41
0.9
  0
LINE
  5
2BB
  8
NOTE
  6
CONTINUOUS
 62
     4
 10
-749.0653209999998
 20
463.9888179999998
 30
0.0
 11
-431.9558459999997
 21
463.9888179999998
 31
0.0
  0
LINE
  5
2BC
  8
NOTE
  6
CONTINUOUS
 62
     4
 10
-324.9999999999998
 20
325.0
 30
0.0
 11
-431.9558459999997
 21
463.9888179999998
 31
0.0
  0
LINE
  5
2BD
  8
NOTE
  6
CONTINUOUS
 62
     4
 10
-356.9591449999998
 20
349.0543769999998
 30
0.0
 11
-324.9999999999998
 21
325.0
 31
0.0
  0
LINE
  5
2BE
  8
NOTE
  6
CONTINUOUS
 62
     4
 10
-324.9999999999998
 20
325.0
 30
0.0
 11
-340.6502419999997
 21
361.811274
 31
0.0
  0
LINE
  5
2BF
  8
NOTE
  6
CONTINUOUS
 62
     4
 10
277.0000000000001
 20
-288.0
 30
0.0
 11
397.9103630000001
 21
-498.8713979999999
 31
0.0
  0
LINE
  5
2C0
  8
NOTE
  6
CONTINUOUS
 62
     4
 10
397.9103630000001
 20
-498.8713979999999
 30
0.0
 11
519.1890969999998
 21
-498.8713979999999
 31
0.0
  0
TEXT
  5
2C1
  8
NOTE
  6
CONTINUOUS
 62
     4
 10
419.2511210000001
 20
-468.1258139999999
 30
0.0
 40
64.0
  1
EL
 41
0.9
  0
LINE
  5
2C2
  8
NOTE
  6
CONTINUOUS
 62
     4
 10
304.6092400000001
 20
-316.9435629999999
 30
0.0
 11
277.0000000000001
 21
-288.0
 31
0.0
  0
LINE
  5
2C3
  8
NOTE
  6
CONTINUOUS
 62
     4
 10
277.0000000000001
 20
-288.0
 30
0.0
 11
286.4385210000002
 21
-326.8704809999999
 31
0.0
  0
POINT
  5
2C4
  8
ARRANGE
  6
CONTINUOUS
 62
     1
 10
0.0
 20
0.0
 30
0.0
  0
CIRCLE
  5
2C5
  8
ARRANGE
  6
CONTINUOUS
 62
     1
 10
0.0
 20
0.0
 30
0.0
 40
40.0
  0
LINE
  5
2C6
  8
SIZE
  6
CONTINUOUS
 62
    30
 10
325.0000000000001
 20
365.0
 30
0.0
 11
325.0000000000001
 21
496.0316879999999
 31
0.0
  0
LINE
  5
2C7
  8
SIZE
  6
CONTINUOUS
 62
    30
 10
-324.9999999999998
 20
365.0
 30
0.0
 11
-324.9999999999998
 21
496.0316879999999
 31
0.0
  0
LINE
  5
2C8
  8
SIZE
  6
CONTINUOUS
 62
    30
 10
313.0000000000001
 20
476.0316879999999
 30
0.0
 11
-312.9999999999999
 21
476.0316879999999
 31
0.0
  0
CIRCLE
  5
2C9
  8
SIZE
  6
CONTINUOUS
 62
    30
 10
325.0000000000001
 20
476.0316879999999
 30
0.0
 40
6.0
  0
LINE
  5
2CA
  8
SIZE
  6
CONTINUOUS
 62
    30
 10
325.0000000000001
 20
476.0316879999999
 30
0.0
 11
313.0000000000001
 21
476.0316879999999
 31
0.0
  0
CIRCLE
  5
2CB
  8
SIZE
  6
CONTINUOUS
 62
    30
 10
-324.9999999999998
 20
476.0316879999999
 30
0.0
 40
6.0
  0
LINE
  5
2CC
  8
SIZE
  6
CONTINUOUS
 62
    30
 10
-324.9999999999998
 20
476.0316879999999
 30
0.0
 11
-312.9999999999999
 21
476.0316879999999
 31
0.0
  0
TEXT
  5
2CD
  8
SIZE
  6
CONTINUOUS
 62
    30
 10
-83.65714285714286
 20
501.0316879999999
 30
0.0
 40
64.0
  1
650
 41
0.9
 72
     1
 11
0.0
 21
501.0316879999999
 31
0.0
  0
POINT
  5
2CE
  8
DEFPOINTS
  6
CONTINUOUS
 62
    30
 10
325.0000000000001
 20
345.0
 30
0.0
  0
POINT
  5
2CF
  8
DEFPOINTS
  6
CONTINUOUS
 62
    30
 10
-324.9999999999998
 20
345.0
 30
0.0
  0
POINT
  5
2D0
  8
DEFPOINTS
  6
CONTINUOUS
 62
    30
 10
-324.9999999999998
 20
476.0316879999999
 30
0.0
  0
LINE
  5
2D1
  8
SIZE
  6
CONTINUOUS
 62
    30
 10
355.0000000000001
 20
345.0
 30
0.0
 11
355.0000000000001
 21
622.5476539999999
 31
0.0
  0
LINE
  5
2D2
  8
SIZE
  6
CONTINUOUS
 62
    30
 10
-354.9999999999997
 20
345.0
 30
0.0
 11
-354.9999999999997
 21
622.5476539999999
 31
0.0
  0
LINE
  5
2D3
  8
SIZE
  6
CONTINUOUS
 62
    30
 10
343.0
 20
602.5476539999999
 30
0.0
 11
-342.9999999999998
 21
602.5476539999999
 31
0.0
  0
CIRCLE
  5
2D4
  8
SIZE
  6
CONTINUOUS
 62
    30
 10
355.0000000000001
 20
602.5476539999999
 30
0.0
 40
6.0
  0
LINE
  5
2D5
  8
SIZE
  6
CONTINUOUS
 62
    30
 10
355.0000000000001
 20
602.5476539999999
 30
0.0
 11
343.0
 21
602.5476539999999
 31
0.0
  0
CIRCLE
  5
2D6
  8
SIZE
  6
CONTINUOUS
 62
    30
 10
-354.9999999999997
 20
602.5476539999999
 30
0.0
 40
6.0
  0
LINE
  5
2D7
  8
SIZE
  6
CONTINUOUS
 62
    30
 10
-354.9999999999997
 20
602.5476539999999
 30
0.0
 11
-342.9999999999998
 21
602.5476539999999
 31
0.0
  0
TEXT
  5
2D8
  8
SIZE
  6
CONTINUOUS
 62
    30
 10
-82.28571428571429
 20
627.5476539999999
 30
0.0
 40
64.0
  1
710
 41
0.9
 72
     1
 11
0.0
 21
627.5476539999999
 31
0.0
  0
POINT
  5
2D9
  8
DEFPOINTS
  6
CONTINUOUS
 62
    30
 10
355.0000000000001
 20
325.0
 30
0.0
  0
POINT
  5
2DA
  8
DEFPOINTS
  6
CONTINUOUS
 62
    30
 10
-354.9999999999997
 20
325.0
 30
0.0
  0
POINT
  5
2DB
  8
DEFPOINTS
  6
CONTINUOUS
 62
    30
 10
-354.9999999999997
 20
602.5476539999999
 30
0.0
  0
LINE
  5
2DC
  8
SIZE
  6
CONTINUOUS
 62
    30
 10
365.0000000000001
 20
325.0
 30
0.0
 11
584.1368089999999
 21
325.0
 31
0.0
  0
LINE
  5
2DD
  8
SIZE
  6
CONTINUOUS
 62
    30
 10
365.0000000000001
 20
-325.0
 30
0.0
 11
584.1368089999999
 21
-325.0
 31
0.0
  0
LINE
  5
2DE
  8
SIZE
  6
CONTINUOUS
 62
    30
 10
564.1368089999999
 20
313.0
 30
0.0
 11
564.1368089999999
 21
-313.0
 31
0.0
  0
CIRCLE
  5
2DF
  8
SIZE
  6
CONTINUOUS
 62
    30
 10
564.1368089999999
 20
325.0
 30
0.0
 40
6.0
  0
LINE
  5
2E0
  8
SIZE
  6
CONTINUOUS
 62
    30
 10
564.1368089999999
 20
325.0
 30
0.0
 11
564.1368089999999
 21
313.0
 31
0.0
  0
CIRCLE
  5
2E1
  8
SIZE
  6
CONTINUOUS
 62
    30
 10
564.1368089999999
 20
-325.0
 30
0.0
 40
6.0
  0
LINE
  5
2E2
  8
SIZE
  6
CONTINUOUS
 62
    30
 10
564.1368089999999
 20
-325.0
 30
0.0
 11
564.1368089999999
 21
-313.0
 31
0.0
  0
TEXT
  5
2E3
  8
SIZE
  6
CONTINUOUS
 62
    30
 10
539.1368089999999
 20
-83.65714285714286
 30
0.0
 40
64.0
  1
650
 50
90.0
 41
0.9
 72
     1
 11
539.1368089999999
 21
0.0
 31
0.0
  0
POINT
  5
2E4
  8
DEFPOINTS
  6
CONTINUOUS
 62
    30
 10
345.0000000000001
 20
325.0
 30
0.0
  0
POINT
  5
2E5
  8
DEFPOINTS
  6
CONTINUOUS
 62
    30
 10
345.0000000000001
 20
-325.0
 30
0.0
  0
POINT
  5
2E6
  8
DEFPOINTS
  6
CONTINUOUS
 62
    30
 10
564.1368089999999
 20
-325.0
 30
0.0
  0
LINE
  5
2E7
  8
SIZE
  6
CONTINUOUS
 62
    30
 10
345.0000000000001
 20
355.0
 30
0.0
 11
725.6240440000001
 21
355.0
 31
0.0
  0
LINE
  5
2E8
  8
SIZE
  6
CONTINUOUS
 62
    30
 10
345.0000000000001
 20
-355.0
 30
0.0
 11
725.6240440000001
 21
-355.0
 31
0.0
  0
LINE
  5
2E9
  8
SIZE
  6
CONTINUOUS
 62
    30
 10
705.6240440000001
 20
343.0
 30
0.0
 11
705.6240440000001
 21
-343.0
 31
0.0
  0
CIRCLE
  5
2EA
  8
SIZE
  6
CONTINUOUS
 62
    30
 10
705.6240440000001
 20
355.0
 30
0.0
 40
6.0
  0
LINE
  5
2EB
  8
SIZE
  6
CONTINUOUS
 62
    30
 10
705.6240440000001
 20
355.0
 30
0.0
 11
705.6240440000001
 21
343.0
 31
0.0
  0
CIRCLE
  5
2EC
  8
SIZE
  6
CONTINUOUS
 62
    30
 10
705.6240440000001
 20
-355.0
 30
0.0
 40
6.0
  0
LINE
  5
2ED
  8
SIZE
  6
CONTINUOUS
 62
    30
 10
705.6240440000001
 20
-355.0
 30
0.0
 11
705.6240440000001
 21
-343.0
 31
0.0
  0
TEXT
  5
2EE
  8
SIZE
  6
CONTINUOUS
 62
    30
 10
680.6240440000001
 20
-82.28571428571429
 30
0.0
 40
64.0
  1
710
 50
90.0
 41
0.9
 72
     1
 11
680.6240440000001
 21
0.0
 31
0.0
  0
POINT
  5
2EF
  8
DEFPOINTS
  6
CONTINUOUS
 62
    30
 10
325.0000000000001
 20
355.0
 30
0.0
  0
POINT
  5
2F0
  8
DEFPOINTS
  6
CONTINUOUS
 62
    30
 10
325.0000000000001
 20
-355.0
 30
0.0
  0
POINT
  5
2F1
  8
DEFPOINTS
  6
CONTINUOUS
 62
    30
 10
705.6240440000001
 20
-355.0
 30
0.0
  0
CIRCLE
  5
2F2
  8
DETAIL
  6
CONTINUOUS
 62
     5
 10
-324.9999999999998
 20
325.0
 30
0.0
 40
7.0
  0
CIRCLE
  5
2F3
  8
FIX
  6
CONTINUOUS
 62
    11
 39
50.0
 10
-324.9999999999998
 20
325.0
 30
0.0
 40
7.0
  0
LINE
  5
2F4
  8
SIZE
  6
CONTINUOUS
 62
    30
 10
305.0000000000001
 20
-20.0
 30
0.0
 11
305.0000000000001
 21
-545.368206
 31
0.0
  0
LINE
  5
2F5
  8
SIZE
  6
CONTINUOUS
 62
    30
 10
-304.9999999999999
 20
-20.0
 30
0.0
 11
-304.9999999999999
 21
-545.368206
 31
0.0
  0
LINE
  5
2F6
  8
SIZE
  6
CONTINUOUS
 62
    30
 10
293.0
 20
-525.368206
 30
0.0
 11
-292.9999999999999
 21
-525.368206
 31
0.0
  0
CIRCLE
  5
2F7
  8
SIZE
  6
CONTINUOUS
 62
    30
 10
305.0000000000001
 20
-525.368206
 30
0.0
 40
6.0
  0
LINE
  5
2F8
  8
SIZE
  6
CONTINUOUS
 62
    30
 10
305.0000000000001
 20
-525.368206
 30
0.0
 11
293.0
 21
-525.368206
 31
0.0
  0
CIRCLE
  5
2F9
  8
SIZE
  6
CONTINUOUS
 62
    30
 10
-304.9999999999999
 20
-525.368206
 30
0.0
 40
6.0
  0
LINE
  5
2FA
  8
SIZE
  6
CONTINUOUS
 62
    30
 10
-304.9999999999999
 20
-525.368206
 30
0.0
 11
-292.9999999999999
 21
-525.368206
 31
0.0
  0
TEXT
  5
2FB
  8
SIZE
  6
CONTINUOUS
 62
    30
 10
-106.9714285714286
 20
-500.368206
 30
0.0
 40
64.0
  1
φ610
 41
0.9
 72
     1
 11
0.0
 21
-500.368206
 31
0.0
  0
POINT
  5
2FC
  8
DEFPOINTS
  6
CONTINUOUS
 62
    30
 10
305.0000000000001
 20
0.0
 30
0.0
  0
POINT
  5
2FD
  8
DEFPOINTS
  6
CONTINUOUS
 62
    30
 10
-304.9999999999999
 20
0.0
 30
0.0
  0
POINT
  5
2FE
  8
DEFPOINTS
  6
CONTINUOUS
 62
    30
 10
-304.9999999999999
 20
-525.368206
 30
0.0
  0
LINE
  5
2FF
  8
SIZE
  6
CONTINUOUS
 62
    30
 10
352.5000000000001
 20
-20.0
 30
0.0
 11
352.5000000000001
 21
-664.997872
 31
0.0
  0
LINE
  5
300
  8
SIZE
  6
CONTINUOUS
 62
    30
 10
-352.4999999999997
 20
-20.0
 30
0.0
 11
-352.4999999999997
 21
-664.997872
 31
0.0
  0
LINE
  5
301
  8
SIZE
  6
CONTINUOUS
 62
    30
 10
340.5000000000001
 20
-644.997872
 30
0.0
 11
-340.4999999999998
 21
-644.997872
 31
0.0
  0
CIRCLE
  5
302
  8
SIZE
  6
CONTINUOUS
 62
    30
 10
352.5000000000001
 20
-644.997872
 30
0.0
 40
6.0
  0
LINE
  5
303
  8
SIZE
  6
CONTINUOUS
 62
    30
 10
352.5000000000001
 20
-644.997872
 30
0.0
 11
340.5000000000001
 21
-644.997872
 31
0.0
  0
CIRCLE
  5
304
  8
SIZE
  6
CONTINUOUS
 62
    30
 10
-352.4999999999997
 20
-644.997872
 30
0.0
 40
6.0
  0
LINE
  5
305
  8
SIZE
  6
CONTINUOUS
 62
    30
 10
-352.4999999999997
 20
-644.997872
 30
0.0
 11
-340.4999999999998
 21
-644.997872
 31
0.0
  0
TEXT
  5
306
  8
SIZE
  6
CONTINUOUS
 62
    30
 10
-106.9714285714286
 20
-619.997872
 30
0.0
 40
64.0
  1
φ705
 41
0.9
 72
     1
 11
0.0
 21
-619.997872
 31
0.0
  0
POINT
  5
307
  8
DEFPOINTS
  6
CONTINUOUS
 62
    30
 10
352.5000000000001
 20
0.0
 30
0.0
  0
POINT
  5
308
  8
DEFPOINTS
  6
CONTINUOUS
 62
    30
 10
-352.4999999999997
 20
0.0
 30
0.0
  0
POINT
  5
309
  8
DEFPOINTS
  6
CONTINUOUS
 62
    30
 10
-352.4999999999997
 20
-644.997872
 30
0.0
  0
ARC
  5
30A
  8
DETAIL
  6
CONTINUOUS
 62
     5
 10
-324.9999999999998
 20
325.0
 30
0.0
 40
30.0
 50
90.0
 51
180.0
  0
ARC
  5
30B
  8
DETAIL
  6
CONTINUOUS
 62
     5
 10
-324.9999999999998
 20
-325.0
 30
0.0
 40
30.0
 50
180.0
 51
270.0
  0
ARC
  5
30C
  8
DETAIL
  6
CONTINUOUS
 62
     5
 10
325.0000000000001
 20
-325.0
 30
0.0
 40
30.0
 50
270.0
 51
0.0
  0
ARC
  5
30D
  8
DETAIL
  6
CONTINUOUS
 62
     5
 10
325.0000000000001
 20
325.0
 30
0.0
 40
30.0
 50
0.0
 51
90.0
  0
CIRCLE
  5
30E
  8
FIX
  6
CONTINUOUS
 62
    11
 39
50.0
 10
325.0000000000001
 20
325.0
 30
0.0
 40
7.0
  0
CIRCLE
  5
30F
  8
DETAIL
  6
CONTINUOUS
 62
     5
 10
325.0000000000001
 20
325.0
 30
0.0
 40
7.0
  0
LINE
  5
310
  8
NOTE
  6
CONTINUOUS
 62
     4
 10
325.0000000000001
 20
305.0
 30
0.0
 11
325.0000000000001
 21
345.0
 31
0.0
  0
LINE
  5
311
  8
NOTE
  6
CONTINUOUS
 62
     4
 10
345.0000000000001
 20
325.0
 30
0.0
 11
305.0000000000001
 21
325.0
 31
0.0
  0
CIRCLE
  5
312
  8
FIX
  6
CONTINUOUS
 62
    11
 39
50.0
 10
-324.9999999999998
 20
-325.0
 30
0.0
 40
7.0
  0
CIRCLE
  5
313
  8
DETAIL
  6
CONTINUOUS
 62
     5
 10
-324.9999999999998
 20
-325.0
 30
0.0
 40
7.0
  0
LINE
  5
314
  8
NOTE
  6
CONTINUOUS
 62
     4
 10
-324.9999999999998
 20
-305.0
 30
0.0
 11
-324.9999999999998
 21
-345.0
 31
0.0
  0
LINE
  5
315
  8
NOTE
  6
CONTINUOUS
 62
     4
 10
-344.9999999999998
 20
-325.0
 30
0.0
 11
-304.9999999999999
 21
-325.0
 31
0.0
  0
CIRCLE
  5
316
  8
FIX
  6
CONTINUOUS
 62
    11
 39
50.0
 10
325.0000000000001
 20
-325.0
 30
0.0
 40
7.0
  0
CIRCLE
  5
317
  8
DETAIL
  6
CONTINUOUS
 62
     5
 10
325.0000000000001
 20
-325.0
 30
0.0
 40
7.0
  0
LINE
  5
318
  8
NOTE
  6
CONTINUOUS
 62
     4
 10
325.0000000000001
 20
-305.0
 30
0.0
 11
325.0000000000001
 21
-345.0
 31
0.0
  0
LINE
  5
319
  8
NOTE
  6
CONTINUOUS
 62
     4
 10
345.0000000000001
 20
-325.0
 30
0.0
 11
305.0000000000001
 21
-325.0
 31
0.0
  0
ARC
  5
31A
  8
DETAIL
  6
CONTINUOUS
 62
     5
 10
0.0
 20
0.0
 30
0.0
 40
352.4999999999998
 50
135.1956779999999
 51
313.0235879999998
  0
ARC
  5
31B
  8
DETAIL
  6
CONTINUOUS
 62
     5
 10
0.0
 20
0.0
 30
0.0
 40
305.0
 50
134.965255
 51
312.7316700000001
  0
ARC
  5
31C
  8
OUTLINE
  6
CONTINUOUS
 62
     3
 10
-324.9999999999998
 20
325.0
 30
0.0
 40
30.0
 50
90.0
 51
180.0
  0
LINE
  5
31D
  8
OUTLINE
  6
CONTINUOUS
 62
     3
 10
-354.9999999999997
 20
325.0
 30
0.0
 11
-354.9999999999997
 21
-325.0
 31
0.0
  0
LINE
  5
31E
  8
OUTLINE
  6
CONTINUOUS
 62
     3
 10
-324.9999999999998
 20
355.0
 30
0.0
 11
325.0000000000001
 21
355.0
 31
0.0
  0
ARC
  5
31F
  8
OUTLINE
  6
CONTINUOUS
 62
     3
 10
325.0000000000001
 20
325.0
 30
0.0
 40
30.0
 50
0.0
 51
90.0
  0
LINE
  5
320
  8
OUTLINE
  6
CONTINUOUS
 62
     3
 10
355.0000000000001
 20
325.0
 30
0.0
 11
355.0000000000001
 21
-325.0
 31
0.0
  0
ARC
  5
321
  8
OUTLINE
  6
CONTINUOUS
 62
     3
 10
325.0000000000001
 20
-325.0
 30
0.0
 40
30.0
 50
270.0
 51
0.0
  0
LINE
  5
322
  8
OUTLINE
  6
CONTINUOUS
 62
     3
 10
-324.9999999999998
 20
-355.0
 30
0.0
 11
325.0000000000001
 21
-355.0
 31
0.0
  0
ARC
  5
323
  8
OUTLINE
  6
CONTINUOUS
 62
     3
 10
-324.9999999999998
 20
-325.0
 30
0.0
 40
30.0
 50
180.0
 51
270.0
  0
CIRCLE
  5
324
  8
DETAIL
  6
CONTINUOUS
 62
     5
 10
0.0
 20
0.0
 30
0.0
 40
65.5
  0
LINE
  5
325
  8
DETAIL
  6
CONTINUOUS
 62
     5
 10
95.00000000000011
 20
77.528706
 30
0.0
 11
95.00000000000011
 21
-77.528706
 31
0.0
  0
LINE
  5
326
  8
DETAIL
  6
CONTINUOUS
 62
     5
 10
-94.99999999999991
 20
77.528705
 30
0.0
 11
-94.99999999999991
 21
-77.528705
 31
0.0
  0
ARC
  5
327
  8
DETAIL
  6
CONTINUOUS
 62
     5
 10
-39.70479899999992
 20
-18.22133799999999
 30
0.0
 40
96.216702
 50
160.8575699999998
 51
219.5355849999998
  0
LINE
  5
328
  8
DETAIL
  6
CONTINUOUS
 62
     5
 10
-96.59117999999991
 20
-103.6109929999999
 30
0.0
 11
-285.6083009999999
 21
-282.2095429999998
 31
0.0
  0
LINE
  5
329
  8
DETAIL
  6
CONTINUOUS
 62
     5
 10
-91.5006789999999
 20
-105.821076
 30
0.0
 11
-282.0087159999999
 21
-285.809082
 31
0.0
  0
ARC
  5
32A
  8
DETAIL
  6
CONTINUOUS
 62
     5
 10
-43.13933899999992
 20
-33.67406599999998
 30
0.0
 40
235.416623
 50
192.1484479999998
 51
244.281845
  0
ARC
  5
32B
  8
DETAIL
  6
CONTINUOUS
 62
     5
 10
-43.13933899999992
 20
-33.67406599999998
 30
0.0
 40
229.166624
 50
192.1497589999999
 51
244.5241349999997
  0
LINE
  5
32C
  8
DETAIL
  6
CONTINUOUS
 62
     5
 10
-218.1169049999999
 20
-292.1081419999999
 30
0.0
 11
-251.2976249999999
 21
-258.9273779999999
 31
0.0
  0
LINE
  5
32D
  8
DETAIL
  6
CONTINUOUS
 62
     5
 10
-254.1123169999999
 20
-313.705686
 30
0.0
 11
-313.5046399999999
 21
-254.3132419999998
 31
0.0
  0
LINE
  5
32E
  8
DETAIL
  6
CONTINUOUS
 62
     5
 10
-257.7200039999999
 20
-298.3380999999998
 30
0.0
 11
-246.9134769999999
 21
-304.5677449999999
 31
0.0
  0
LINE
  5
32F
  8
DETAIL
  6
CONTINUOUS
 62
     5
 10
-246.9134769999999
 20
-279.6491539999998
 30
0.0
 11
-257.7200039999999
 21
-285.8787999999999
 31
0.0
  0
LINE
  5
330
  8
DETAIL
  6
CONTINUOUS
 62
     5
 10
-257.7200029999998
 20
-285.878805
 30
0.0
 11
-257.7200029999998
 21
-298.3380939999999
 31
0.0
  0
LINE
  5
331
  8
DETAIL
  6
CONTINUOUS
 62
     5
 10
-254.1123249999999
 20
-313.705471
 30
0.0
 11
-239.7142139999999
 21
-313.705471
 31
0.0
  0
LINE
  5
332
  8
DETAIL
  6
CONTINUOUS
 62
     5
 10
-218.1168859999999
 20
-292.1082809999999
 30
0.0
 11
-239.7142339999999
 21
-313.705559
 31
0.0
  0
LINE
  5
333
  8
DETAIL
  6
CONTINUOUS
 62
     5
 10
-236.1069429999999
 20
-285.8787999999999
 30
0.0
 11
-246.9134699999999
 21
-279.6491539999998
 31
0.0
  0
LINE
  5
334
  8
DETAIL
  6
CONTINUOUS
 62
     5
 10
-236.1069439999999
 20
-298.3380939999999
 30
0.0
 11
-236.1069439999999
 21
-285.878805
 31
0.0
  0
LINE
  5
335
  8
DETAIL
  6
CONTINUOUS
 62
     5
 10
-246.9134699999999
 20
-304.5677449999999
 30
0.0
 11
-236.1069429999999
 21
-298.3380999999998
 31
0.0
  0
LINE
  5
336
  8
DETAIL
  6
CONTINUOUS
 62
     5
 10
-291.9075069999999
 20
-218.317752
 30
0.0
 11
-256.6970639999999
 21
-253.5281359999999
 31
0.0
  0
LINE
  5
337
  8
DETAIL
  6
CONTINUOUS
 62
     5
 10
-281.1011069999998
 20
-253.3437569999999
 30
0.0
 11
-281.1011069999998
 21
-240.8844669999998
 31
0.0
  0
LINE
  5
338
  8
DETAIL
  6
CONTINUOUS
 62
     5
 10
-291.9075009999999
 20
-218.317673
 30
0.0
 11
-313.5046669999999
 21
-239.9148859999999
 31
0.0
  0
LINE
  5
339
  8
DETAIL
  6
CONTINUOUS
 62
     5
 10
-302.7141659999999
 20
-240.8844669999998
 30
0.0
 11
-302.7141659999999
 21
-253.3437569999999
 31
0.0
  0
LINE
  5
33A
  8
DETAIL
  6
CONTINUOUS
 62
     5
 10
-291.9076399999999
 20
-234.6548169999998
 30
0.0
 11
-302.7141669999999
 21
-240.8844619999999
 31
0.0
  0
LINE
  5
33B
  8
DETAIL
  6
CONTINUOUS
 62
     5
 10
-313.5046579999998
 20
-254.31308
 30
0.0
 11
-313.5046579999998
 21
-239.9149109999999
 31
0.0
  0
LINE
  5
33C
  8
DETAIL
  6
CONTINUOUS
 62
     5
 10
-302.7141669999999
 20
-253.3437619999999
 30
0.0
 11
-291.9076399999999
 21
-259.5734069999999
 31
0.0
  0
LINE
  5
33D
  8
DETAIL
  6
CONTINUOUS
 62
     5
 10
-281.1011059999999
 20
-240.8844619999999
 30
0.0
 11
-291.9076329999999
 21
-234.6548169999998
 31
0.0
  0
LINE
  5
33E
  8
DETAIL
  6
CONTINUOUS
 62
     5
 10
-291.9076329999999
 20
-259.5734069999999
 30
0.0
 11
-281.1011059999999
 21
-253.3437619999999
 31
0.0
  0
ARC
  5
33F
  8
DETAIL
  6
CONTINUOUS
 62
     5
 10
-270.4361199999999
 20
-82.586486
 30
0.0
 40
2.916666999999998
 50
101.7518069999999
 51
192.4721279999999
  0
ARC
  5
340
  8
DETAIL
  6
CONTINUOUS
 62
     5
 10
-270.0281449999999
 20
-82.501575
 30
0.0
 40
2.916666999999998
 50
12.474333
 51
101.7518069999999
  0
LINE
  5
341
  8
DETAIL
  6
CONTINUOUS
 62
     5
 10
-271.0301669999999
 20
-79.73094300000002
 30
0.0
 11
-270.6221849999999
 21
-79.64606900000003
 31
0.0
  0
LINE
  5
342
  8
DETAIL
  6
CONTINUOUS
 62
     5
 10
268.880848
 20
-364.0628549999997
 30
0.0
 11
268.880848
 21
-400.1895529999999
 31
0.0
  0
LINE
  5
343
  8
DETAIL
  6
CONTINUOUS
 62
     5
 10
278.2134740000001
 20
-364.0628549999997
 30
0.0
 11
278.2134740000001
 21
-400.1895529999999
 31
0.0
  0
LINE
  5
344
  8
DETAIL
  6
CONTINUOUS
 62
     5
 10
278.2134740000001
 20
-400.1895529999999
 30
0.0
 11
268.880848
 21
-400.1895529999999
 31
0.0
  0
LINE
  5
345
  8
DETAIL
  6
CONTINUOUS
 62
     5
 10
282.3845630000001
 20
-435.7627049999999
 30
0.0
 11
281.4829110000001
 21
-430.6492419999998
 31
0.0
  0
LINE
  5
346
  8
DETAIL
  6
CONTINUOUS
 62
     5
 10
272.2745120000001
 20
-400.1895529999999
 30
0.0
 11
272.2745120000001
 21
-431.343526
 31
0.0
  0
LINE
  5
347
  8
DETAIL
  6
CONTINUOUS
 62
     5
 10
274.81977
 20
-400.1895529999999
 30
0.0
 11
274.81977
 21
-431.343526
 31
0.0
  0
LINE
  5
348
  8
DETAIL
  6
CONTINUOUS
 62
     5
 10
273.547141
 20
-436.5358739999999
 30
0.0
 11
273.547141
 21
-431.343526
 31
0.0
  0
LINE
  5
349
  8
DETAIL
  6
CONTINUOUS
 62
     5
 10
274.81977
 20
-431.343526
 30
0.0
 11
272.2745120000001
 21
-431.343526
 31
0.0
  0
LINE
  5
34A
  8
DETAIL
  6
CONTINUOUS
 62
     5
 10
272.2745420000001
 20
-400.189572
 30
0.0
 11
266.864709
 21
-430.8702049999999
 31
0.0
  0
LINE
  5
34B
  8
DETAIL
  6
CONTINUOUS
 62
     5
 10
269.6899829999999
 20
-400.1895529999999
 30
0.0
 11
264.3580740000002
 21
-430.4282559999998
 31
0.0
  0
LINE
  5
34C
  8
DETAIL
  6
CONTINUOUS
 62
     5
 10
264.7097340000001
 20
-435.7627039999999
 30
0.0
 11
265.611385
 21
-430.649241
 31
0.0
  0
LINE
  5
34D
  8
DETAIL
  6
CONTINUOUS
 62
     5
 10
264.3581040000001
 20
-430.4282599999999
 30
0.0
 11
266.8646570000001
 21
-430.870228
 31
0.0
  0
LINE
  5
34E
  8
DETAIL
  6
CONTINUOUS
 62
     5
 10
274.819741
 20
-400.1895449999998
 30
0.0
 11
280.2295810000001
 21
-430.870216
 31
0.0
  0
LINE
  5
34F
  8
DETAIL
  6
CONTINUOUS
 62
     5
 10
277.404265
 20
-400.1895529999999
 30
0.0
 11
282.7361700000001
 21
-430.428236
 31
0.0
  0
LINE
  5
350
  8
DETAIL
  6
CONTINUOUS
 62
     5
 10
282.736193
 20
-430.4282740000001
 30
0.0
 11
280.2296030000001
 21
-430.870248
 31
0.0
  0
LINE
  5
351
  8
DETAIL
  6
CONTINUOUS
 62
     5
 10
32.7673613681967
 20
-65.66289840052956
 30
0.0
 11
69.74058300000002
 21
-129.7029049999999
 31
0.0
  0
LINE
  5
352
  8
DETAIL
  6
CONTINUOUS
 62
     5
 10
40.48227268499858
 20
-61.20871365995107
 30
0.0
 11
77.56740099999996
 21
-125.442032
 31
0.0
  0
ARC
  5
353
  8
DETAIL
  6
CONTINUOUS
 62
     5
 10
0.000001999999995
 20
172.0164499999999
 30
0.0
 40
267.01645
 50
249.1585389999999
 51
280.1968489999998
  0
LINE
  5
354
  8
DETAIL
  6
CONTINUOUS
 62
     5
 10
-89.90949999999992
 20
-79.40762599999998
 30
0.0
 11
-89.90949999999992
 21
-102.1632149999999
 31
0.0
  0
LINE
  5
355
  8
DETAIL
  6
CONTINUOUS
 62
     5
 10
-94.99999999999991
 20
-77.528705
 30
0.0
 11
-94.99999999999991
 21
-99.95313199999998
 31
0.0
  0
ARC
  5
356
  8
DETAIL
  6
CONTINUOUS
 62
     5
 10
-94.90949999999991
 20
-102.1632149999999
 30
0.0
 40
5.0
 50
312.9816529999998
 51
0.0
  0
ARC
  5
357
  8
DETAIL
  6
CONTINUOUS
 62
     5
 10
-99.99999999999991
 20
-99.95313199999998
 30
0.0
 40
5.0
 50
312.981643
 51
0.0
  0
LINE
  5
358
  8
DETAIL
  6
CONTINUOUS
 62
     5
 10
-97.66419999999991
 20
-89.341453
 30
0.0
 11
-94.99999999999991
 21
-89.47693600000002
 31
0.0
  0
ARC
  5
359
  8
DETAIL
  6
CONTINUOUS
 62
     5
 10
-96.64844999999991
 20
-69.36726399999996
 30
0.0
 40
20.0
 50
210.3364039999999
 51
267.0888399999999
  0
LINE
  5
35A
  8
DETAIL
  6
CONTINUOUS
 62
     5
 10
-89.90949999999992
 20
-89.73580400000004
 30
0.0
 11
-71.32606199999992
 21
-90.680829
 31
0.0
  0
ARC
  5
35B
  8
DETAIL
  6
CONTINUOUS
 62
     5
 10
55.58583300000009
 20
-17.09019
 30
0.0
 40
235.416623
 50
308.939317
 51
326.0441189999998
  0
ARC
  5
35C
  8
DETAIL
  6
CONTINUOUS
 62
     5
 10
55.58583300000009
 20
-17.09019
 30
0.0
 40
229.166624
 50
308.7758079999999
 51
325.9652730000001
  0
LINE
  5
35D
  8
DETAIL
  6
CONTINUOUS
 62
     5
 10
123.3045090000001
 20
-126.895302
 30
0.0
 11
281.3462640000001
 21
-285.4475979999999
 31
0.0
  0
LINE
  5
35E
  8
DETAIL
  6
CONTINUOUS
 62
     5
 10
117.4906350000001
 20
-113.8816339999999
 30
0.0
 11
283.7459120000001
 21
-280.648139
 31
0.0
  0
LINE
  5
35F
  8
DETAIL
  6
CONTINUOUS
 62
     5
 10
270.2555800000001
 20
-287.5551899999999
 30
0.0
 11
128.101915
 21
-144.890373
 31
0.0
  0
LINE
  5
360
  8
DETAIL
  6
CONTINUOUS
 62
     5
 10
252.2499670000001
 20
-312.1442329999998
 30
0.0
 11
268.880848
 21
-295.5133189999999
 31
0.0
  0
LINE
  5
361
  8
DETAIL
  6
CONTINUOUS
 62
     5
 10
284.9458170000001
 20
-280.648101
 30
0.0
 11
265.1483629999999
 21
-260.8506849999999
 31
0.0
  0
LINE
  5
362
  8
DETAIL
  6
CONTINUOUS
 62
     5
 10
245.051128
 20
-278.0877019999999
 30
0.0
 11
255.857655
 21
-284.3173469999999
 31
0.0
  0
LINE
  5
363
  8
DETAIL
  6
CONTINUOUS
 62
     5
 10
255.857655
 20
-296.776647
 30
0.0
 11
245.051128
 21
-303.0062919999999
 31
0.0
  0
LINE
  5
364
  8
DETAIL
  6
CONTINUOUS
 62
     5
 10
252.249976
 20
-312.1440179999999
 30
0.0
 11
237.8518650000001
 21
-312.1440179999999
 31
0.0
  0
LINE
  5
365
  8
DETAIL
  6
CONTINUOUS
 62
     5
 10
269.047683
 20
-288.747182
 30
0.0
 11
253.1497310000001
 21
-272.8492299999999
 31
0.0
  0
LINE
  5
366
  8
DETAIL
  6
CONTINUOUS
 62
     5
 10
245.0511200000001
 20
-303.0062919999999
 30
0.0
 11
234.244593
 21
-296.776647
 31
0.0
  0
LINE
  5
367
  8
DETAIL
  6
CONTINUOUS
 62
     5
 10
234.244595
 20
-296.7766419999999
 30
0.0
 11
234.244595
 21
-284.317352
 31
0.0
  0
LINE
  5
368
  8
DETAIL
  6
CONTINUOUS
 62
     5
 10
234.244593
 20
-284.3173469999999
 30
0.0
 11
245.0511200000001
 21
-278.0877019999999
 31
0.0
  0
LINE
  5
369
  8
DETAIL
  6
CONTINUOUS
 62
     5
 10
216.2545560000002
 20
-290.5466889999999
 30
0.0
 11
244.7518740000001
 21
-262.049332
 31
0.0
  0
LINE
  5
36A
  8
DETAIL
  6
CONTINUOUS
 62
     5
 10
216.2545370000001
 20
-290.546828
 30
0.0
 11
237.8518840000002
 21
-312.1441059999999
 31
0.0
  0
LINE
  5
36B
  8
DETAIL
  6
CONTINUOUS
 62
     5
 10
255.8576540000001
 20
-284.317352
 30
0.0
 11
255.8576540000001
 21
-296.7766419999999
 31
0.0
  0
ARC
  5
36C
  8
DETAIL
  6
CONTINUOUS
 62
     5
 10
273.5471800000001
 20
-284.2477339999999
 30
0.0
 40
4.666305999999999
 50
315.0000190000001
 51
44.9998920000001
  0
ARC
  5
36D
  8
DETAIL
  6
CONTINUOUS
 62
     5
 10
273.547258
 20
-284.2477339999999
 30
0.0
 40
4.666305999999999
 50
224.9999819999998
 51
315.0000190000001
  0
ARC
  5
36E
  8
DETAIL
  6
CONTINUOUS
 62
     5
 10
282.5460749999999
 20
-281.8480009999999
 30
0.0
 40
1.696838999999999
 50
315.000019
 51
44.99989200000053
  0
ARC
  5
36F
  8
DETAIL
  6
CONTINUOUS
 62
     5
 10
282.5460749999999
 20
-283.0478479999998
 30
0.0
 40
3.393676999999998
 50
314.9995819999999
 51
44.99989199999992
  0
ARC
  5
370
  8
DETAIL
  6
CONTINUOUS
 62
     5
 10
273.5471800000001
 20
-284.2477339999999
 30
0.0
 40
5.514724
 50
315.000019
 51
12.79680700000011
  0
LINE
  5
371
  8
DETAIL
  6
CONTINUOUS
 62
     5
 10
278.0466240000001
 20
-288.7472609999999
 30
0.0
 11
283.745965
 21
-283.0478799999998
 31
0.0
  0
LINE
  5
372
  8
DETAIL
  6
CONTINUOUS
 62
     5
 10
281.6460790000001
 20
-288.7472119999998
 30
0.0
 11
284.9457760000001
 21
-285.4475529999999
 31
0.0
  0
ARC
  5
373
  8
DETAIL
  6
CONTINUOUS
 62
     5
 10
273.5471800000001
 20
-284.247773
 30
0.0
 40
6.363142999999999
 50
224.9999819999998
 51
315.0000189999998
  0
ARC
  5
374
  8
DETAIL
  6
CONTINUOUS
 62
     5
 10
275.346874
 20
-282.4480019999999
 30
0.0
 40
8.908400999999998
 50
224.9999819999997
 51
315.0000190000001
  0
ARC
  5
375
  8
DETAIL
  6
CONTINUOUS
 62
     5
 10
273.547258
 20
-284.2477339999999
 30
0.0
 40
5.514724
 50
192.79555
 51
315.000019
  0
LINE
  5
376
  8
DETAIL
  6
CONTINUOUS
 62
     5
 10
278.2134740000001
 20
-290.882587
 30
0.0
 11
278.2134740000001
 21
-346.980299
 31
0.0
  0
LINE
  5
377
  8
DETAIL
  6
CONTINUOUS
 62
     5
 10
268.880848
 20
-288.580336
 30
0.0
 11
268.880848
 21
-346.980299
 31
0.0
  0
ARC
  5
378
  8
DETAIL
  6
CONTINUOUS
 62
     5
 10
271.2139980000001
 20
-344.968565
 30
0.0
 40
3.080691999999999
 50
220.7692110000004
 51
319.2307889999996
  0
ARC
  5
379
  8
DETAIL
  6
CONTINUOUS
 62
     5
 10
275.8802979999999
 20
-344.968565
 30
0.0
 40
3.080691999999999
 50
220.7692110000004
 51
319.2307889999996
  0
ARC
  5
37A
  8
DETAIL
  6
CONTINUOUS
 62
     5
 10
271.2139980000001
 20
-348.9920329999998
 30
0.0
 40
3.080691999999999
 50
40.76921100000041
 51
139.2307889999996
  0
ARC
  5
37B
  8
DETAIL
  6
CONTINUOUS
 62
     5
 10
275.8802979999999
 20
-362.0511209999999
 30
0.0
 40
3.080691999999999
 50
220.7692110000004
 51
319.2307889999996
  0
ARC
  5
37C
  8
DETAIL
  6
CONTINUOUS
 62
     5
 10
275.8802979999999
 20
-366.074589
 30
0.0
 40
3.080691999999999
 50
40.76921100000041
 51
139.2307889999996
  0
ARC
  5
37D
  8
DETAIL
  6
CONTINUOUS
 62
     5
 10
271.2139980000001
 20
-366.074589
 30
0.0
 40
3.080691999999999
 50
40.76921100000041
 51
139.2307889999996
  0
LINE
  5
37E
  8
DETAIL
  6
CONTINUOUS
 62
     5
 10
290.045291
 20
-233.093364
 30
0.0
 11
300.8518180000002
 21
-239.3230089999999
 31
0.0
  0
LINE
  5
37F
  8
DETAIL
  6
CONTINUOUS
 62
     5
 10
300.8518170000001
 20
-239.323014
 30
0.0
 11
300.8518170000001
 21
-251.782304
 31
0.0
  0
LINE
  5
380
  8
DETAIL
  6
CONTINUOUS
 62
     5
 10
279.2387570000001
 20
-251.782304
 30
0.0
 11
279.2387570000001
 21
-239.323014
 31
0.0
  0
LINE
  5
381
  8
DETAIL
  6
CONTINUOUS
 62
     5
 10
279.2387560000002
 20
-239.3230089999999
 30
0.0
 11
290.0452830000002
 21
-233.093364
 31
0.0
  0
LINE
  5
382
  8
DETAIL
  6
CONTINUOUS
 62
     5
 10
290.045158
 20
-216.7562989999999
 30
0.0
 11
254.9505920000001
 21
-251.850806
 31
0.0
  0
LINE
  5
383
  8
DETAIL
  6
CONTINUOUS
 62
     5
 10
290.0451520000001
 20
-216.7562199999999
 30
0.0
 11
311.6423170000002
 21
-238.3534329999999
 31
0.0
  0
LINE
  5
384
  8
DETAIL
  6
CONTINUOUS
 62
     5
 10
300.8518180000002
 20
-251.7823089999999
 30
0.0
 11
290.045291
 21
-258.0119549999998
 31
0.0
  0
LINE
  5
385
  8
DETAIL
  6
CONTINUOUS
 62
     5
 10
311.642308
 20
-252.751627
 30
0.0
 11
311.642308
 21
-238.353458
 31
0.0
  0
LINE
  5
386
  8
DETAIL
  6
CONTINUOUS
 62
     5
 10
290.0452830000002
 20
-258.0119549999998
 30
0.0
 11
279.2387560000002
 21
-251.7823089999999
 31
0.0
  0
ARC
  5
387
  8
DETAIL
  6
CONTINUOUS
 62
     5
 10
71.87533800000011
 20
-46.01374699999996
 30
0.0
 40
50.634547
 50
299.2541459999998
 51
353.0737399999999
  0
ARC
  5
388
  8
DETAIL
  6
CONTINUOUS
 62
     5
 10
112.6962270000001
 20
-136.6837219999998
 30
0.0
 40
5.090513999999998
 50
45.00000099999979
 51
95.71067600000013
  0
ARC
  5
389
  8
DETAIL
  6
CONTINUOUS
 62
     5
 10
113.787057
 20
-136.5747049999999
 30
0.0
 40
13.574709
 50
45.00009000000009
 51
95.71067599999999
  0
LINE
  5
38A
  8
DETAIL
  6
CONTINUOUS
 62
     5
 10
117.4906350000001
 20
-113.8816339999999
 30
0.0
 11
96.26194599999991
 21
-89.98476600000004
 31
0.0
  0
LINE
  5
38B
  8
DETAIL
  6
CONTINUOUS
 62
     5
 10
123.3045090000001
 20
-126.895302
 30
0.0
 11
91.22401500000001
 21
-91.90433
 31
0.0
  0
LINE
  5
38C
  8
DETAIL
  6
CONTINUOUS
 62
     5
 10
95.00000000000011
 20
-86.66408000000003
 30
0.0
 11
95.00000000000011
 21
-77.55588999999998
 31
0.0
  0
ARC
  5
38D
  8
DETAIL
  6
CONTINUOUS
 62
     5
 10
100.0000000000001
 20
-86.66408000000003
 30
0.0
 40
5.0
 50
180.0
 51
221.6161609999999
  0
ARC
  5
38E
  8
DETAIL
  6
CONTINUOUS
 62
     5
 10
81.95998099999997
 20
-122.869373
 30
0.0
 40
5.090513999999998
 50
210.0001219999999
 51
275.7106400000001
  0
ARC
  5
38F
  8
DETAIL
  6
CONTINUOUS
 62
     5
 10
81.4966490000001
 20
-122.91559
 30
0.0
 40
13.574709
 50
209.9998109999999
 51
275.7106399999999
  0
LINE
  5
390
  8
DETAIL
  6
CONTINUOUS
 62
     5
 10
89.9095000000001
 20
-79.407628
 30
0.0
 11
89.9095000000001
 21
-88.525396
 31
0.0
  0
ARC
  5
391
  8
DETAIL
  6
CONTINUOUS
 62
     5
 10
94.9095000000001
 20
-88.525396
 30
0.0
 40
5.0
 50
180.0
 51
222.5152839999997
  0
LINE
  5
392
  8
DETAIL
  6
CONTINUOUS
 62
     5
 10
82.46650399999999
 20
-127.9345819999999
 30
0.0
 11
112.4363090000001
 21
-123.067407
 31
0.0
  0
LINE
  5
393
  8
DETAIL
  6
CONTINUOUS
 62
     5
 10
112.189701
 20
-131.618537
 30
0.0
 11
82.847373
 21
-136.4229899999999
 31
0.0
  0
ARC
  5
394
  8
DETAIL
  6
CONTINUOUS
 62
     5
 10
0.000001999999995
 20
172.0164499999999
 30
0.0
 40
267.01645
 50
282.216174
 51
290.84146
  0
LINE
  5
395
  8
DETAIL
  6
CONTINUOUS
 62
     5
 10
128.701874
 20
-132.292016
 30
0.0
 11
120.9028280000001
 21
-140.0910609999999
 31
0.0
  0
LINE
  5
396
  8
DETAIL
  6
CONTINUOUS
 62
     5
 10
122.1027310000001
 20
-138.8911999999999
 30
0.0
 11
116.295725
 21
-133.084234
 31
0.0
  0
LINE
  5
397
  8
DETAIL
  6
CONTINUOUS
 62
     5
 10
120.9028280000001
 20
-140.0910609999999
 30
0.0
 11
126.902023
 21
-146.090255
 31
0.0
  0
LINE
  5
398
  8
DETAIL
  6
CONTINUOUS
 62
     5
 10
134.7010680000001
 20
-138.2912099999998
 30
0.0
 11
126.902023
 21
-146.090255
 31
0.0
  0
ARC
  5
399
  8
DETAIL
  6
CONTINUOUS
 62
     5
 10
102.3651990000001
 20
-71.85433
 30
0.0
 40
37.773122
 50
68.32945699999996
 51
101.2438579999999
  0
ARC
  5
39A
  8
DETAIL
  6
CONTINUOUS
 62
     5
 10
113.8995460000001
 20
-46.45514900000001
 30
0.0
 40
10.0
 50
325.4954910000001
 51
76.03024699999989
  0
ARC
  5
39B
  8
DETAIL
  6
CONTINUOUS
 62
     5
 10
55.58583300000009
 20
-17.09019
 30
0.0
 40
235.416623
 50
329.5554979999999
 51
358.2142569999997
  0
ARC
  5
39C
  8
DETAIL
  6
CONTINUOUS
 62
     5
 10
55.58583300000009
 20
-17.09019
 30
0.0
 40
229.166624
 50
329.572476
 51
358.2129450000002
  0
LINE
  5
39D
  8
DETAIL
  6
CONTINUOUS
 62
     5
 10
258.5432990000001
 20
-136.376626
 30
0.0
 11
250.8563690000002
 21
-148.5831729999999
 31
0.0
  0
LINE
  5
39E
  8
DETAIL
  6
CONTINUOUS
 62
     5
 10
253.1894470000001
 20
-133.15118
 30
0.0
 11
245.4958680000001
 21
-145.3536679999999
 31
0.0
  0
ARC
  5
39F
  8
DETAIL
  6
CONTINUOUS
 62
     5
 10
287.55626
 20
-24.32736199999999
 30
0.0
 40
2.916666999999998
 50
88.93485099999958
 51
178.212964
  0
LINE
  5
3A0
  8
DETAIL
  6
CONTINUOUS
 62
     5
 10
232.4413140000002
 20
-4.328801999999996
 30
0.0
 11
232.0246300000001
 21
-4.321032999999999
 31
0.0
  0
ARC
  5
3A1
  8
DETAIL
  6
CONTINUOUS
 62
     5
 10
287.972883
 20
-24.33513900000003
 30
0.0
 40
2.916666999999998
 50
358.21442
 51
88.93485099999958
  0
LINE
  5
3A2
  8
DETAIL
  6
CONTINUOUS
 62
     5
 10
-91.5006789999999
 20
105.821076
 30
0.0
 11
-279.0335889999999
 21
282.681999
 31
0.0
  0
LINE
  5
3A3
  8
DETAIL
  6
CONTINUOUS
 62
     5
 10
-96.59117999999991
 20
103.6109929999999
 30
0.0
 11
-282.6331729999999
 21
279.08246
 31
0.0
  0
LINE
  5
3A4
  8
DETAIL
  6
CONTINUOUS
 62
     5
 10
-215.1417769999999
 20
288.9810589999999
 30
0.0
 11
-248.3224969999999
 21
255.800295
 31
0.0
  0
LINE
  5
3A5
  8
DETAIL
  6
CONTINUOUS
 62
     5
 10
-233.1318159999999
 20
295.211012
 30
0.0
 11
-233.1318159999999
 21
282.7517219999999
 31
0.0
  0
LINE
  5
3A6
  8
DETAIL
  6
CONTINUOUS
 62
     5
 10
-254.7448749999999
 20
282.7517219999999
 30
0.0
 11
-254.7448749999999
 21
295.211012
 31
0.0
  0
LINE
  5
3A7
  8
DETAIL
  6
CONTINUOUS
 62
     5
 10
-251.1371889999999
 20
310.5786029999998
 30
0.0
 11
-310.5295129999999
 21
251.1861589999998
 31
0.0
  0
LINE
  5
3A8
  8
DETAIL
  6
CONTINUOUS
 62
     5
 10
-288.9323799999999
 20
215.190669
 30
0.0
 11
-253.7219359999999
 21
250.4010529999999
 31
0.0
  0
LINE
  5
3A9
  8
DETAIL
  6
CONTINUOUS
 62
     5
 10
-278.1259789999999
 20
250.216674
 30
0.0
 11
-278.1259789999999
 21
237.757385
 31
0.0
  0
LINE
  5
3AA
  8
DETAIL
  6
CONTINUOUS
 62
     5
 10
-288.9325119999999
 20
231.5277339999999
 30
0.0
 11
-299.7390389999999
 21
237.757379
 31
0.0
  0
LINE
  5
3AB
  8
DETAIL
  6
CONTINUOUS
 62
     5
 10
-299.7390389999999
 20
250.2166789999999
 30
0.0
 11
-288.9325119999999
 21
256.446325
 31
0.0
  0
LINE
  5
3AC
  8
DETAIL
  6
CONTINUOUS
 62
     5
 10
-299.7390379999999
 20
237.757385
 30
0.0
 11
-299.7390379999999
 21
250.216674
 31
0.0
  0
LINE
  5
3AD
  8
DETAIL
  6
CONTINUOUS
 62
     5
 10
-310.5295299999999
 20
251.185998
 30
0.0
 11
-310.5295299999999
 21
236.7878279999999
 31
0.0
  0
LINE
  5
3AE
  8
DETAIL
  6
CONTINUOUS
 62
     5
 10
-288.9323729999999
 20
215.19059
 30
0.0
 11
-310.5295389999999
 21
236.7878029999999
 31
0.0
  0
LINE
  5
3AF
  8
DETAIL
  6
CONTINUOUS
 62
     5
 10
-288.9325049999999
 20
256.446325
 30
0.0
 11
-278.1259779999999
 21
250.2166789999999
 31
0.0
  0
LINE
  5
3B0
  8
DETAIL
  6
CONTINUOUS
 62
     5
 10
-278.1259779999999
 20
237.757379
 30
0.0
 11
-288.9325049999999
 21
231.5277339999999
 31
0.0
  0
LINE
  5
3B1
  8
DETAIL
  6
CONTINUOUS
 62
     5
 10
-233.1318149999999
 20
282.7517169999999
 30
0.0
 11
-243.9383419999999
 21
276.5220719999999
 31
0.0
  0
LINE
  5
3B2
  8
DETAIL
  6
CONTINUOUS
 62
     5
 10
-243.9383489999999
 20
276.5220719999999
 30
0.0
 11
-254.7448759999999
 21
282.7517169999999
 31
0.0
  0
LINE
  5
3B3
  8
DETAIL
  6
CONTINUOUS
 62
     5
 10
-251.1371979999999
 20
310.5783879999999
 30
0.0
 11
-236.7390859999999
 21
310.5783879999999
 31
0.0
  0
LINE
  5
3B4
  8
DETAIL
  6
CONTINUOUS
 62
     5
 10
-243.9383419999999
 20
301.4406619999999
 30
0.0
 11
-233.1318149999999
 21
295.2110169999999
 31
0.0
  0
LINE
  5
3B5
  8
DETAIL
  6
CONTINUOUS
 62
     5
 10
-215.1417579999999
 20
288.981198
 30
0.0
 11
-236.7391059999999
 21
310.5784759999999
 31
0.0
  0
LINE
  5
3B6
  8
DETAIL
  6
CONTINUOUS
 62
     5
 10
-254.7448759999999
 20
295.2110169999999
 30
0.0
 11
-243.9383489999999
 21
301.4406619999999
 31
0.0
  0
ARC
  5
3B7
  8
DETAIL
  6
CONTINUOUS
 62
     5
 10
0.000001999999995
 20
-172.0164499999999
 30
0.0
 40
267.01645
 50
69.15853999999999
 51
110.841461
  0
ARC
  5
3B8
  8
DETAIL
  6
CONTINUOUS
 62
     5
 10
-10.9283309999999
 20
54.06334300000003
 30
0.0
 40
229.166624
 50
72.14976599999997
 51
115.7056639999999
  0
ARC
  5
3B9
  8
DETAIL
  6
CONTINUOUS
 62
     5
 10
-10.9283309999999
 20
54.06334300000003
 30
0.0
 40
235.416623
 50
72.14845500000001
 51
115.706975
  0
LINE
  5
3BA
  8
DETAIL
  6
CONTINUOUS
 62
     5
 10
-94.99999999999991
 20
77.528705
 30
0.0
 11
-94.99999999999991
 21
99.95313199999998
 31
0.0
  0
LINE
  5
3BB
  8
DETAIL
  6
CONTINUOUS
 62
     5
 10
-89.90949999999992
 20
79.40762599999998
 30
0.0
 11
-89.90949999999992
 21
102.1632149999999
 31
0.0
  0
LINE
  5
3BC
  8
DETAIL
  6
CONTINUOUS
 62
     5
 10
-118.630483
 20
22.23144400000001
 30
0.0
 11
-94.99999999999991
 21
22.23144400000001
 31
0.0
  0
ARC
  5
3BD
  8
DETAIL
  6
CONTINUOUS
 62
     5
 10
-118.630483
 20
9.731445000000006
 30
0.0
 40
12.499999
 50
90.0
 51
163.269278
  0
ARC
  5
3BE
  8
DETAIL
  6
CONTINUOUS
 62
     5
 10
-99.99999999999991
 20
99.95313199999998
 30
0.0
 40
5.0
 50
0.0
 51
47.01835699999997
  0
ARC
  5
3BF
  8
DETAIL
  6
CONTINUOUS
 62
     5
 10
-94.90949999999991
 20
102.1632149999999
 30
0.0
 40
5.0
 50
0.0
 51
47.01834699999993
  0
ARC
  5
3C0
  8
DETAIL
  6
CONTINUOUS
 62
     5
 10
-111.5944369999999
 20
263.178138
 30
0.0
 40
2.916666999999998
 50
206.4275869999998
 51
295.7056999999998
  0
ARC
  5
3C1
  8
DETAIL
  6
CONTINUOUS
 62
     5
 10
-111.7798869999999
 20
263.5512799999998
 30
0.0
 40
2.916666999999998
 50
115.7071630000001
 51
206.4275869999998
  0
LINE
  5
3C2
  8
DETAIL
  6
CONTINUOUS
 62
     5
 10
-114.3917409999999
 20
262.2531739999999
 30
0.0
 11
-114.2062939999999
 21
261.880037
 31
0.0
  0
LINE
  5
3C3
  8
DETAIL
  6
CONTINUOUS
 62
     5
 10
96.59118000000007
 20
103.6109929999999
 30
0.0
 11
284.1242070000001
 21
280.47514
 31
0.0
  0
LINE
  5
3C4
  8
DETAIL
  6
CONTINUOUS
 62
     5
 10
91.5006790000001
 20
105.821076
 30
0.0
 11
280.5246230000001
 21
284.074679
 31
0.0
  0
LINE
  5
3C5
  8
DETAIL
  6
CONTINUOUS
 62
     5
 10
95.00000000000011
 20
77.528705
 30
0.0
 11
95.00000000000011
 21
99.95313199999998
 31
0.0
  0
LINE
  5
3C6
  8
DETAIL
  6
CONTINUOUS
 62
     5
 10
89.9095000000001
 20
79.40762599999998
 30
0.0
 11
89.9095000000001
 21
102.1632149999999
 31
0.0
  0
ARC
  5
3C7
  8
DETAIL
  6
CONTINUOUS
 62
     5
 10
100.0000000000001
 20
99.95313199999998
 30
0.0
 40
5.0
 50
132.9816430000002
 51
180.0
  0
ARC
  5
3C8
  8
DETAIL
  6
CONTINUOUS
 62
     5
 10
94.9095000000001
 20
102.1632149999999
 30
0.0
 40
5.0
 50
132.9816529999998
 51
180.0
  0
ARC
  5
3C9
  8
DETAIL
  6
CONTINUOUS
 62
     5
 10
60.21218600000009
 20
274.974357
 30
0.0
 40
2.916666999999998
 50
252.1502940000002
 51
341.427806
  0
ARC
  5
3CA
  8
DETAIL
  6
CONTINUOUS
 62
     5
 10
60.34487700000011
 20
275.3693479999999
 30
0.0
 40
2.916666999999998
 50
341.427806
 51
72.14807200000016
  0
LINE
  5
3CB
  8
DETAIL
  6
CONTINUOUS
 62
     5
 10
63.1096290000001
 20
274.4403939999999
 30
0.0
 11
62.97693900000002
 21
274.045407
 31
0.0
  0
LINE
  5
3CC
  8
DETAIL
  6
CONTINUOUS
 62
     5
 10
256.2359100000001
 20
284.144402
 30
0.0
 11
256.2359100000001
 21
296.6036919999999
 31
0.0
  0
LINE
  5
3CD
  8
DETAIL
  6
CONTINUOUS
 62
     5
 10
234.6228499999999
 20
296.6036919999999
 30
0.0
 11
234.6228499999999
 21
284.144402
 31
0.0
  0
LINE
  5
3CE
  8
DETAIL
  6
CONTINUOUS
 62
     5
 10
252.6282229999999
 20
311.971283
 30
0.0
 11
312.0205470000001
 21
252.5788389999999
 31
0.0
  0
LINE
  5
3CF
  8
DETAIL
  6
CONTINUOUS
 62
     5
 10
216.6328120000001
 20
290.3737389999998
 30
0.0
 11
249.813531
 21
257.1929749999998
 31
0.0
  0
LINE
  5
3D0
  8
DETAIL
  6
CONTINUOUS
 62
     5
 10
245.4293840000001
 20
277.9147509999999
 30
0.0
 11
256.2359110000002
 21
284.144397
 31
0.0
  0
LINE
  5
3D1
  8
DETAIL
  6
CONTINUOUS
 62
     5
 10
234.6228490000001
 20
284.144397
 30
0.0
 11
245.429376
 21
277.9147509999999
 31
0.0
  0
LINE
  5
3D2
  8
DETAIL
  6
CONTINUOUS
 62
     5
 10
312.0205640000003
 20
252.5786769999999
 30
0.0
 11
312.0205640000003
 21
238.1805079999999
 31
0.0
  0
LINE
  5
3D3
  8
DETAIL
  6
CONTINUOUS
 62
     5
 10
290.4234140000001
 20
216.583349
 30
0.0
 11
255.2129700000002
 21
251.793733
 31
0.0
  0
LINE
  5
3D4
  8
DETAIL
  6
CONTINUOUS
 62
     5
 10
279.6170120000001
 20
239.150059
 30
0.0
 11
290.423539
 21
232.9204139999999
 31
0.0
  0
LINE
  5
3D5
  8
DETAIL
  6
CONTINUOUS
 62
     5
 10
279.6170130000001
 20
251.6093539999999
 30
0.0
 11
279.6170130000001
 21
239.1500639999999
 31
0.0
  0
LINE
  5
3D6
  8
DETAIL
  6
CONTINUOUS
 62
     5
 10
290.423539
 20
257.8390039999998
 30
0.0
 11
279.6170120000001
 21
251.609359
 31
0.0
  0
LINE
  5
3D7
  8
DETAIL
  6
CONTINUOUS
 62
     5
 10
301.2300720000001
 20
239.1500639999999
 30
0.0
 11
301.2300720000001
 21
251.6093539999999
 31
0.0
  0
LINE
  5
3D8
  8
DETAIL
  6
CONTINUOUS
 62
     5
 10
301.2300739999999
 20
251.609359
 30
0.0
 11
290.4235470000001
 21
257.8390039999998
 31
0.0
  0
LINE
  5
3D9
  8
DETAIL
  6
CONTINUOUS
 62
     5
 10
290.4235470000001
 20
232.9204139999999
 30
0.0
 11
301.2300739999999
 21
239.150059
 31
0.0
  0
LINE
  5
3DA
  8
DETAIL
  6
CONTINUOUS
 62
     5
 10
290.4234080000001
 20
216.58327
 30
0.0
 11
312.0205730000001
 21
238.180483
 31
0.0
  0
LINE
  5
3DB
  8
DETAIL
  6
CONTINUOUS
 62
     5
 10
252.6282320000001
 20
311.971068
 30
0.0
 11
238.2301210000001
 21
311.971068
 31
0.0
  0
LINE
  5
3DC
  8
DETAIL
  6
CONTINUOUS
 62
     5
 10
256.2359110000002
 20
296.603697
 30
0.0
 11
245.4293840000001
 21
302.833342
 31
0.0
  0
LINE
  5
3DD
  8
DETAIL
  6
CONTINUOUS
 62
     5
 10
245.429376
 20
302.833342
 30
0.0
 11
234.6228490000001
 21
296.603697
 31
0.0
  0
LINE
  5
3DE
  8
DETAIL
  6
CONTINUOUS
 62
     5
 10
216.6327930000001
 20
290.3738779999999
 30
0.0
 11
238.23014
 21
311.971156
 31
0.0
  0
LINE
  5
3DF
  8
SIZE
  6
CONTINUOUS
 62
    30
 10
-19.99999999999991
 20
65.5
 30
0.0
 11
-466.7280799999997
 21
65.5
 31
0.0
  0
LINE
  5
3E0
  8
SIZE
  6
CONTINUOUS
 62
    30
 10
-19.99999999999991
 20
-65.5
 30
0.0
 11
-466.7280799999997
 21
-65.5
 31
0.0
  0
LINE
  5
3E1
  8
SIZE
  6
CONTINUOUS
 62
    30
 10
-446.7280799999997
 20
53.5
 30
0.0
 11
-446.7280799999997
 21
-53.5
 31
0.0
  0
CIRCLE
  5
3E2
  8
SIZE
  6
CONTINUOUS
 62
    30
 10
-446.7280799999997
 20
65.5
 30
0.0
 40
6.0
  0
LINE
  5
3E3
  8
SIZE
  6
CONTINUOUS
 62
    30
 10
-446.7280799999997
 20
65.5
 30
0.0
 11
-446.7280799999997
 21
53.5
 31
0.0
  0
CIRCLE
  5
3E4
  8
SIZE
  6
CONTINUOUS
 62
    30
 10
-446.7280799999997
 20
-65.5
 30
0.0
 40
6.0
  0
LINE
  5
3E5
  8
SIZE
  6
CONTINUOUS
 62
    30
 10
-446.7280799999997
 20
-65.5
 30
0.0
 11
-446.7280799999997
 21
-53.5
 31
0.0
  0
TEXT
  5
3E6
  8
SIZE
  6
CONTINUOUS
 62
    30
 10
-471.7280799999997
 20
-98.74285714285715
 30
0.0
 40
64.0
  1
φ131
 50
90.0
 41
0.9
 72
     1
 11
-471.7280799999997
 21
0.0
 31
0.0
  0
POINT
  5
3E7
  8
DEFPOINTS
  6
CONTINUOUS
 62
    30
 10
0.0
 20
65.5
 30
0.0
  0
POINT
  5
3E8
  8
DEFPOINTS
  6
CONTINUOUS
 62
    30
 10
0.0
 20
-65.5
 30
0.0
  0
POINT
  5
3E9
  8
DEFPOINTS
  6
CONTINUOUS
 62
    30
 10
-446.7280799999997
 20
-65.5
 30
0.0
  0
ARC
  5
3EA
  8
DETAIL
  6
CONTINUOUS
 62
     5
 10
-171.4061549999999
 20
55.57318700000002
 30
0.0
 40
148.73264
 50
14.80101000000002
 51
98.77035899999998
  0
ARC
  5
3EB
  8
DETAIL
  6
CONTINUOUS
 62
     5
 10
-198.0822339999999
 20
211.9467819999999
 30
0.0
 40
9.9
 50
133.0633629999998
 51
161.021238
  0
ARC
  5
3EC
  8
DETAIL
  6
CONTINUOUS
 62
     5
 10
0.0
 20
0.0
 30
0.0
 40
300.0
 50
70.61608299999999
 51
133.0633629999999
  0
ARC
  5
3ED
  8
DETAIL
  6
CONTINUOUS
 62
     5
 10
0.0
 20
0.0
 30
0.0
 40
300.0
 50
326.9142309999999
 51
16.69681399999998
  0
ARC
  5
3EE
  8
DETAIL
  6
CONTINUOUS
 62
     5
 10
0.0
 20
0.0
 30
0.0
 40
300.0
 50
311.6012319999999
 51
312.6955609999999
  0
ARC
  5
3EF
  8
DETAIL
  6
CONTINUOUS
 62
     5
 10
216.2857700000001
 20
-3.674026000000025
 30
0.0
 40
223.9435049999999
 50
203.995426
 51
263.980519
  0
ARC
  5
3F0
  8
DETAIL
  6
CONTINUOUS
 62
     5
 10
193.6719680000001
 20
-218.1285379999999
 30
0.0
 40
8.3
 50
263.9805190000001
 51
311.6012319999998
  0
ARC
  5
3F1
  8
DETAIL
  6
CONTINUOUS
 62
     5
 10
-72.53722399999992
 20
-345.9340509999998
 30
0.0
 40
386.55383
 50
93.33135400000002
 51
124.993966
  0
ARC
  5
3F2
  8
DETAIL
  6
CONTINUOUS
 62
     5
 10
-289.4620739999999
 20
-36.06380399999999
 30
0.0
 40
8.3
 50
124.993966
 51
187.101832
  0
ARC
  5
3F3
  8
DETAIL
  6
CONTINUOUS
 62
     5
 10
0.0
 20
0.0
 30
0.0
 40
300.0
 50
187.101832
 51
252.240468
  0
ARC
  5
3F4
  8
DETAIL
  6
CONTINUOUS
 62
     5
 10
-143.4132369999999
 20
-242.9264149999999
 30
0.0
 40
2.916666999999998
 50
323.5732199999997
 51
54.29354099999988
  0
LINE
  5
3F5
  8
DETAIL
  6
CONTINUOUS
 62
     5
 10
-141.0664289999999
 20
-244.6583239999999
 30
0.0
 11
-141.3138739999999
 21
-244.9936219999999
 31
0.0
  0
ARC
  5
3F6
  8
DETAIL
  6
CONTINUOUS
 62
     5
 10
-143.6606509999999
 20
-243.261735
 30
0.0
 40
2.916666999999998
 50
234.2957460000002
 51
323.57322
  0
ARC
  5
3F7
  8
DETAIL
  6
CONTINUOUS
 62
     5
 10
159.580914
 20
-197.201411
 30
0.0
 40
253.47222
 50
154.0104289999999
 51
198.019352
  0
ARC
  5
3F8
  8
DETAIL
  6
CONTINUOUS
 62
     5
 10
-89.06663999999992
 20
-278.0847599999999
 30
0.0
 40
8.0
 50
252.240468
 51
18.01935199999986
  0
ARC
  5
3F9
  8
DETAIL
  6
CONTINUOUS
 62
     5
 10
126.5429910000001
 20
120.0665459999999
 30
0.0
 40
149.3598509999999
 50
257.8080259999999
 51
346.7103879999999
  0
ARC
  5
3FA
  8
DETAIL
  6
CONTINUOUS
 62
     5
 10
279.6888340000001
 20
83.89371800000004
 30
0.0
 40
8.0
 50
16.69681399999991
 51
166.7103879999999
  0
LINE
  5
3FB
  8
DETAIL
  6
CONTINUOUS
 62
     5
 10
251.3562980000001
 20
-163.7681639999998
 30
0.0
 11
243.1938130000001
 21
-175.6609499999999
 31
0.0
  0
ARC
  5
3FC
  8
DETAIL
  6
CONTINUOUS
 62
     5
 10
-317.7922849999999
 20
203.915426
 30
0.0
 40
426.289734
 50
347.616608
 51
10.37763499999997
  0
ARC
  5
3FD
  8
DETAIL
  6
CONTINUOUS
 62
     5
 10
98.57321600000012
 20
280.164811
 30
0.0
 40
3.0
 50
10.37763499999983
 51
70.6160829999998
  0
LINE
  5
3FE
  8
DETAIL
  6
CONTINUOUS
 62
     5
 10
-20.36926099999991
 20
94.22193500000004
 30
0.0
 11
-22.0612439999999
 21
98.16686099999998
 31
0.0
  0
ARC
  5
3FF
  8
DETAIL
  6
CONTINUOUS
 62
     5
 10
7.99447100000009
 20
-21.01114699999998
 30
0.0
 40
147.5967639999998
 50
61.74684200000001
 51
95.24986400000002
  0
LINE
  5
400
  8
DETAIL
  6
CONTINUOUS
 62
     5
 10
79.993582
 20
82.73600199999998
 30
0.0
 11
82.95300900000001
 21
98.328257
 31
0.0
  0
ARC
  5
401
  8
DETAIL
  6
CONTINUOUS
 62
     5
 10
-3.680537999999899
 20
106.0503659999999
 30
0.0
 40
20.0
 50
95.24986399999997
 51
203.214548
  0
ARC
  5
402
  8
DETAIL
  6
CONTINUOUS
 62
     5
 10
73.1284060000001
 20
100.1929779999999
 30
0.0
 40
10.0
 50
349.253033
 51
61.74684200000002
  0
ARC
  5
403
  8
DETAIL
  6
CONTINUOUS
 62
     5
 10
244.3989560000001
 20
20944.57
 30
0.0
 40
21274.74
 50
270.091067
 51
270.0920489999999
  0
LINE
  5
404
  8
DETAIL
  6
CONTINUOUS
 62
     5
 10
284.345925
 20
-280.0482099999999
 30
0.0
 11
311.6422910000001
 21
-252.7517889999999
 31
0.0
  0
LINE
  5
405
  8
SIZE
  6
CONTINUOUS
 62
    30
 10
-756.5146209999999
 20
-211.6398989999999
 30
0.0
 11
-300.4637609999999
 21
-84.05669699999999
 31
0.0
  0
LINE
  5
406
  8
SIZE
  6
CONTINUOUS
 62
    30
 10
300.4637609999999
 20
84.05669699999999
 30
0.0
 11
312.0200599999999
 21
87.289647
 31
0.0
  0
TEXT
  5
407
  8
SIZE
  6
CONTINUOUS
 62
    30
 10
-745.7779400260595
 20
-182.6763175379959
 30
0.0
 40
64.0
  1
φ600
 50
15.629281
 41
0.9
 72
     1
 11
-642.7617789999998
 21
-153.8569299999999
 31
0.0
  0
LINE
  5
408
  8
SIZE
  6
CONTINUOUS
 62
    30
 10
288.907463
 20
80.82374700000003
 30
0.0
 11
-288.9074629999999
 21
-80.82374700000003
 31
0.0
  0
CIRCLE
  5
409
  8
SIZE
  6
CONTINUOUS
 62
    30
 10
288.907463
 20
80.82374700000003
 30
0.0
 40
6.0
  0
LINE
  5
40A
  8
SIZE
  6
CONTINUOUS
 62
    30
 10
288.907463
 20
80.82374700000003
 30
0.0
 11
300.4637609999999
 21
84.05669699999999
 31
0.0
  0
CIRCLE
  5
40B
  8
SIZE
  6
CONTINUOUS
 62
    30
 10
-288.9074629999999
 20
-80.82374700000003
 30
0.0
 40
6.0
  0
LINE
  5
40C
  8
SIZE
  6
CONTINUOUS
 62
    30
 10
-288.9074629999999
 20
-80.82374700000003
 30
0.0
 11
-300.4637609999999
 21
-84.05669699999999
 31
0.0
  0
POINT
  5
40D
  8
DEFPOINTS
  6
CONTINUOUS
 62
    30
 10
-288.9074629999999
 20
-80.82374700000003
 30
0.0
  0
POINT
  5
40E
  8
DEFPOINTS
  6
CONTINUOUS
 62
    30
 10
288.907463
 20
80.82374700000003
 30
0.0
  0
ARC
  5
40F
  8
DETAIL
  6
CONTINUOUS
 62
     5
 10
-198.0822339999999
 20
211.9467819999999
 30
0.0
 40
9.9
 50
204.60085
 51
248.7488129999999
  0
ARC
  5
410
  8
DETAIL
  6
CONTINUOUS
 62
     5
 10
0.0
 20
0.0
 30
0.0
 40
305.0
 50
45.990974
 51
134.0078499999999
  0
ARC
  5
411
  8
DETAIL
  6
CONTINUOUS
 62
     5
 10
0.0
 20
0.0
 30
0.0
 40
352.4999999999998
 50
45.63088400000001
 51
134.367805
  0
ARC
  5
412
  8
DETAIL
  6
CONTINUOUS
 62
     5
 10
0.0
 20
0.0
 30
0.0
 40
352.4999999999998
 50
315.3676680000001
 51
44.803001
  0
ARC
  5
413
  8
DETAIL
  6
CONTINUOUS
 62
     5
 10
0.0
 20
0.0
 30
0.0
 40
305.0
 50
315.438628
 51
45.03356300000001
  0
ARC
  5
414
  8
DETAIL
  6
CONTINUOUS
 62
     5
 10
0.0
 20
0.0
 30
0.0
 40
300.0
 50
315.447404
 51
324.1591
  0
ARC
  5
415
  8
DETAIL
  6
CONTINUOUS
 62
     5
 10
-189.9999999999999
 20
328.154001
 30
0.0
 40
11.03999999999998
 50
210.000013
 51
329.9999889999999
  0
ARC
  5
416
  8
DETAIL
  6
CONTINUOUS
 62
     5
 10
-259.6493249999999
 20
309.641102
 30
0.0
 40
26.4
 50
91.03691400000005
 51
171.5204210000001
  0
ARC
  5
417
  8
DETAIL
  6
CONTINUOUS
 62
     5
 10
-215.9190629999999
 20
322.166569
 30
0.0
 40
14.4
 50
29.99998399999996
 51
90.900693
  0
LINE
  5
418
  8
DETAIL
  6
CONTINUOUS
 62
     5
 10
-199.5609729999999
 20
322.633963
 30
0.0
 11
-203.4480929999999
 21
329.3666949999998
 31
0.0
  0
ARC
  5
419
  8
DETAIL
  6
CONTINUOUS
 62
     5
 10
76.69097600000009
 20
-25884.52999999999
 30
0.0
 40
26222.73
 50
90.63985099999998
 51
90.73597600000002
  0
ARC
  5
41A
  8
DETAIL
  6
CONTINUOUS
 62
     5
 10
-65.1999999999999
 20
-9243.046
 30
0.0
 40
9580.8
 50
90.21477299999998
 51
90.589946
  0
ARC
  5
41B
  8
DETAIL
  6
CONTINUOUS
 62
     5
 10
-163.6883009999999
 20
322.8469889999999
 30
0.0
 40
14.4
 50
90.58792500000008
 51
149.999806
  0
LINE
  5
41C
  8
DETAIL
  6
CONTINUOUS
 62
     5
 10
-180.4390959999999
 20
322.633979
 30
0.0
 11
-176.1591149999999
 21
330.047055
 31
0.0
  0
ARC
  5
41D
  8
DETAIL
  6
CONTINUOUS
 62
     5
 10
-318.3999999999999
 20
318.3999999999999
 30
0.0
 40
33.0
 50
278.479599
 51
351.5204939999999
  0
ARC
  5
41E
  8
DETAIL
  6
CONTINUOUS
 62
     5
 10
25889.52999999999
 20
-76.71787399999998
 30
0.0
 40
26227.73
 50
179.2641330000004
 51
179.3602109999998
  0
ARC
  5
41F
  8
DETAIL
  6
CONTINUOUS
 62
     5
 10
9243.046
 20
65.19999999999999
 30
0.0
 40
9580.8
 50
179.4101090000004
 51
179.7852259999985
  0
LINE
  5
420
  8
DETAIL
  6
CONTINUOUS
 62
     5
 10
-322.6339309999997
 20
199.560924
 30
0.0
 11
-329.3666159999999
 21
203.4480339999999
 31
0.0
  0
ARC
  5
421
  8
DETAIL
  6
CONTINUOUS
 62
     5
 10
-328.1539609999997
 20
190.0
 30
0.0
 40
11.03999999999998
 50
300.000104
 51
59.99991600000011
  0
LINE
  5
422
  8
DETAIL
  6
CONTINUOUS
 62
     5
 10
-322.6339229999998
 20
180.439052
 30
0.0
 11
-330.0468809999998
 21
176.159219
 31
0.0
  0
ARC
  5
423
  8
DETAIL
  6
CONTINUOUS
 62
     5
 10
-322.1665869999997
 20
215.9188569999999
 30
0.0
 40
14.4
 50
179.0952639999996
 51
239.999952
  0
ARC
  5
424
  8
DETAIL
  6
CONTINUOUS
 62
     5
 10
-322.8470069999997
 20
163.688652
 30
0.0
 40
14.4
 50
120.0000309999999
 51
179.408033
  0
ARC
  5
425
  8
DETAIL
  6
CONTINUOUS
 62
     5
 10
-309.6411019999999
 20
259.6493249999999
 30
0.0
 40
26.4
 50
98.47963499999993
 51
178.9600809999997
  0
LINE
  5
426
  8
DETAIL
  6
CONTINUOUS
 62
     5
 10
199.5609730000001
 20
322.633963
 30
0.0
 11
203.4480930000001
 21
329.3666949999998
 31
0.0
  0
LINE
  5
427
  8
DETAIL
  6
CONTINUOUS
 62
     5
 10
180.439096
 20
322.633979
 30
0.0
 11
176.1591150000001
 21
330.047055
 31
0.0
  0
ARC
  5
428
  8
DETAIL
  6
CONTINUOUS
 62
     5
 10
259.6493250000002
 20
309.641102
 30
0.0
 40
26.4
 50
8.479578999999953
 51
88.96308599999995
  0
ARC
  5
429
  8
DETAIL
  6
CONTINUOUS
 62
     5
 10
322.8470069999998
 20
163.688652
 30
0.0
 40
14.4
 50
0.591967000000044
 51
59.99996899999987
  0
ARC
  5
42A
  8
DETAIL
  6
CONTINUOUS
 62
     5
 10
-9243.045999999998
 20
65.19999999999999
 30
0.0
 40
9580.8
 50
0.2147740000014944
 51
0.5898909999995665
  0
ARC
  5
42B
  8
DETAIL
  6
CONTINUOUS
 62
     5
 10
-25889.52999999998
 20
-76.71787399999998
 30
0.0
 40
26227.73
 50
0.6397890000002113
 51
0.7358669999996104
  0
ARC
  5
42C
  8
DETAIL
  6
CONTINUOUS
 62
     5
 10
328.1539610000001
 20
190.0
 30
0.0
 40
11.03999999999998
 50
120.0000840000001
 51
239.999896
  0
LINE
  5
42D
  8
DETAIL
  6
CONTINUOUS
 62
     5
 10
322.633931
 20
199.560924
 30
0.0
 11
329.3666160000001
 21
203.4480339999999
 31
0.0
  0
LINE
  5
42E
  8
DETAIL
  6
CONTINUOUS
 62
     5
 10
322.6339230000001
 20
180.439052
 30
0.0
 11
330.0468810000001
 21
176.159219
 31
0.0
  0
ARC
  5
42F
  8
DETAIL
  6
CONTINUOUS
 62
     5
 10
322.166587
 20
215.9188569999999
 30
0.0
 40
14.4
 50
300.0000479999998
 51
0.9047360000000303
  0
ARC
  5
430
  8
DETAIL
  6
CONTINUOUS
 62
     5
 10
318.4000000000001
 20
318.3999999999999
 30
0.0
 40
33.0
 50
188.4795059999999
 51
261.5204009999998
  0
ARC
  5
431
  8
DETAIL
  6
CONTINUOUS
 62
     5
 10
309.6411019999999
 20
259.6493249999999
 30
0.0
 40
26.4
 50
1.039919000000253
 51
81.52036499999996
  0
ARC
  5
432
  8
DETAIL
  6
CONTINUOUS
 62
     5
 10
190.0000000000001
 20
328.154001
 30
0.0
 40
11.03999999999998
 50
210.0000109999999
 51
329.999987
  0
ARC
  5
433
  8
DETAIL
  6
CONTINUOUS
 62
     5
 10
-76.690976
 20
-25884.52999999999
 30
0.0
 40
26222.73
 50
89.26402399999996
 51
89.36014899999998
  0
ARC
  5
434
  8
DETAIL
  6
CONTINUOUS
 62
     5
 10
65.2000000000001
 20
-9243.046
 30
0.0
 40
9580.8
 50
89.41005399999999
 51
89.78522699999999
  0
ARC
  5
435
  8
DETAIL
  6
CONTINUOUS
 62
     5
 10
163.688301
 20
322.8469889999999
 30
0.0
 40
14.4
 50
30.00019400000003
 51
89.41207500000003
  0
ARC
  5
436
  8
DETAIL
  6
CONTINUOUS
 62
     5
 10
215.9190630000001
 20
322.166569
 30
0.0
 40
14.4
 50
89.09930700000001
 51
150.0000159999998
  0
LINE
  5
437
  8
DETAIL
  6
CONTINUOUS
 62
     5
 10
-199.5609729999999
 20
-322.633963
 30
0.0
 11
-203.4480929999999
 21
-329.3666949999998
 31
0.0
  0
LINE
  5
438
  8
DETAIL
  6
CONTINUOUS
 62
     5
 10
-180.4390959999999
 20
-322.6339789999999
 30
0.0
 11
-176.1591149999999
 21
-330.047055
 31
0.0
  0
ARC
  5
439
  8
DETAIL
  6
CONTINUOUS
 62
     5
 10
-259.6493249999999
 20
-309.641102
 30
0.0
 40
26.4
 50
188.4795789999998
 51
268.963086
  0
ARC
  5
43A
  8
DETAIL
  6
CONTINUOUS
 62
     5
 10
-322.8470069999997
 20
-163.688652
 30
0.0
 40
14.4
 50
180.591967
 51
239.9999690000001
  0
ARC
  5
43B
  8
DETAIL
  6
CONTINUOUS
 62
     5
 10
9243.046
 20
-65.19999999999999
 30
0.0
 40
9580.8
 50
180.2147740000015
 51
180.5898909999996
  0
ARC
  5
43C
  8
DETAIL
  6
CONTINUOUS
 62
     5
 10
25889.52999999999
 20
76.71787399999998
 30
0.0
 40
26227.73
 50
180.6397890000002
 51
180.7358669999996
  0
ARC
  5
43D
  8
DETAIL
  6
CONTINUOUS
 62
     5
 10
-328.1539609999997
 20
-190.0
 30
0.0
 40
11.03999999999998
 50
300.0000839999998
 51
59.99989600000006
  0
LINE
  5
43E
  8
DETAIL
  6
CONTINUOUS
 62
     5
 10
-322.6339309999997
 20
-199.560924
 30
0.0
 11
-329.3666159999999
 21
-203.4480339999999
 31
0.0
  0
LINE
  5
43F
  8
DETAIL
  6
CONTINUOUS
 62
     5
 10
-322.6339229999998
 20
-180.4390519999999
 30
0.0
 11
-330.0468809999998
 21
-176.159219
 31
0.0
  0
ARC
  5
440
  8
DETAIL
  6
CONTINUOUS
 62
     5
 10
-322.1665869999997
 20
-215.9188569999999
 30
0.0
 40
14.4
 50
120.000048
 51
180.904736
  0
ARC
  5
441
  8
DETAIL
  6
CONTINUOUS
 62
     5
 10
-318.3999999999999
 20
-318.3999999999999
 30
0.0
 40
33.0
 50
8.479505999999951
 51
81.52040099999999
  0
ARC
  5
442
  8
DETAIL
  6
CONTINUOUS
 62
     5
 10
-309.6411019999999
 20
-259.6493249999999
 30
0.0
 40
26.4
 50
181.0399190000002
 51
261.5203649999998
  0
ARC
  5
443
  8
DETAIL
  6
CONTINUOUS
 62
     5
 10
-189.9999999999999
 20
-328.154001
 30
0.0
 40
11.03999999999998
 50
30.00001100000009
 51
149.999987
  0
ARC
  5
444
  8
DETAIL
  6
CONTINUOUS
 62
     5
 10
76.69097600000009
 20
25884.52999999999
 30
0.0
 40
26222.73
 50
269.2640240000001
 51
269.3601489999999
  0
ARC
  5
445
  8
DETAIL
  6
CONTINUOUS
 62
     5
 10
-65.1999999999999
 20
9243.046
 30
0.0
 40
9580.8
 50
269.4100539999999
 51
269.785227
  0
ARC
  5
446
  8
DETAIL
  6
CONTINUOUS
 62
     5
 10
-163.6883009999999
 20
-322.8469889999999
 30
0.0
 40
14.4
 50
210.0001939999998
 51
269.4120749999999
  0
ARC
  5
447
  8
DETAIL
  6
CONTINUOUS
 62
     5
 10
-215.9190629999999
 20
-322.166569
 30
0.0
 40
14.4
 50
269.099307
 51
330.000016
  0
ARC
  5
448
  8
DETAIL
  6
CONTINUOUS
 62
     5
 10
259.6493250000002
 20
-309.641102
 30
0.0
 40
26.4
 50
271.036914
 51
351.520421
  0
LINE
  5
449
  8
DETAIL
  6
CONTINUOUS
 62
     5
 10
180.439096
 20
-322.6339789999999
 30
0.0
 11
176.1591150000001
 21
-330.047055
 31
0.0
  0
LINE
  5
44A
  8
DETAIL
  6
CONTINUOUS
 62
     5
 10
199.5609730000001
 20
-322.633963
 30
0.0
 11
203.4480930000001
 21
-329.3666949999998
 31
0.0
  0
ARC
  5
44B
  8
DETAIL
  6
CONTINUOUS
 62
     5
 10
190.0000000000001
 20
-328.154001
 30
0.0
 40
11.03999999999998
 50
30.00001299999998
 51
149.9999889999999
  0
ARC
  5
44C
  8
DETAIL
  6
CONTINUOUS
 62
     5
 10
322.8470069999998
 20
-163.688652
 30
0.0
 40
14.4
 50
300.0000309999997
 51
359.408033
  0
ARC
  5
44D
  8
DETAIL
  6
CONTINUOUS
 62
     5
 10
-9243.045999999998
 20
-65.19999999999999
 30
0.0
 40
9580.8
 50
359.4101089999992
 51
359.7852259999985
  0
ARC
  5
44E
  8
DETAIL
  6
CONTINUOUS
 62
     5
 10
-25889.52999999998
 20
76.71787399999998
 30
0.0
 40
26227.73
 50
359.2641330000004
 51
359.3602109999998
  0
ARC
  5
44F
  8
DETAIL
  6
CONTINUOUS
 62
     5
 10
322.166587
 20
-215.9188569999999
 30
0.0
 40
14.4
 50
359.0952639999996
 51
59.99995200000019
  0
LINE
  5
450
  8
DETAIL
  6
CONTINUOUS
 62
     5
 10
322.6339230000001
 20
-180.4390519999999
 30
0.0
 11
330.0468810000001
 21
-176.159219
 31
0.0
  0
LINE
  5
451
  8
DETAIL
  6
CONTINUOUS
 62
     5
 10
322.633931
 20
-199.560924
 30
0.0
 11
329.3666160000001
 21
-203.4480339999999
 31
0.0
  0
ARC
  5
452
  8
DETAIL
  6
CONTINUOUS
 62
     5
 10
328.1539610000001
 20
-190.0
 30
0.0
 40
11.03999999999998
 50
120.000104
 51
239.9999159999999
  0
ARC
  5
453
  8
DETAIL
  6
CONTINUOUS
 62
     5
 10
318.4000000000001
 20
-318.3999999999999
 30
0.0
 40
33.0
 50
98.479599
 51
171.5204939999999
  0
ARC
  5
454
  8
DETAIL
  6
CONTINUOUS
 62
     5
 10
309.6411019999999
 20
-259.6493249999999
 30
0.0
 40
26.4
 50
278.4796349999998
 51
358.9600809999998
  0
ARC
  5
455
  8
DETAIL
  6
CONTINUOUS
 62
     5
 10
-76.690976
 20
25884.52999999999
 30
0.0
 40
26222.73
 50
270.6398509999999
 51
270.7359760000001
  0
ARC
  5
456
  8
DETAIL
  6
CONTINUOUS
 62
     5
 10
65.2000000000001
 20
9243.046
 30
0.0
 40
9580.8
 50
270.214773
 51
270.5899459999998
  0
ARC
  5
457
  8
DETAIL
  6
CONTINUOUS
 62
     5
 10
163.688301
 20
-322.8469889999999
 30
0.0
 40
14.4
 50
270.587925
 51
329.999806
  0
ARC
  5
458
  8
DETAIL
  6
CONTINUOUS
 62
     5
 10
215.9190630000001
 20
-322.166569
 30
0.0
 40
14.4
 50
209.9999839999999
 51
270.900693
  0
TEXT
  5
459
  8
ETC
  6
CONTINUOUS
 62
    61
 10
730.3321525942094
 20
535.9409515029372
 30
0.0
 40
50.0
  1
EG-60ETB-PR
 41
0.9
  0
TEXT
  5
45A
  8
ETC
  6
CONTINUOUS
 62
    61
 10
726.7898785943473
 20
616.3913491172962
 30
0.0
 40
50.0
  1
EG-60ETB
 41
0.9
  0
TEXT
  5
45B
  8
ETC
  6
CONTINUOUS
 62
    61
 10
616.6449777321332
 20
812.9773247047262
 30
0.0
 40
64.0
  1
EG-60ETB_2
 41
0.9
  0
TEXT
  5
45C
  8
ETC
  6
CONTINUOUS
 62
    61
 10
613.4370517321333
 20
712.9770437047262
 30
0.0
 40
64.0
  1
産業扇
 41
0.9
  0
TEXT
  5
45D
  8
ETC
  6
CONTINUOUS
 62
    61
 10
613.4370517321333
 20
712.9770437047262
 30
0.0
 40
64.0
  1
産業扇
 41
0.9
  0
ARC
  5
54E
  8
DETAIL
  6
CONTINUOUS
 62
     5
 39
50.0
 10
0.0000230000001977
 20
-0.0000229999999988
 30
0.0
 40
67.99999
 50
353.9275070000001
 51
359.9999829886806
  0
ARC
  5
54F
  8
DETAIL
  6
CONTINUOUS
 62
     5
 39
50.0
 10
0.0000000000000853
 20
-0.0039600000000064
 30
0.0
 40
40.0
 50
331.1276799999969
 51
28.87239399999726
  0
ARC
  5
550
  8
DETAIL
  6
CONTINUOUS
 62
     5
 39
50.0
 10
0.0000000000000853
 20
-0.0039600000000064
 30
0.0
 40
57.500001
 50
328.7741609999972
 51
31.22585900000156
  0
ARC
  5
551
  8
DETAIL
  6
CONTINUOUS
 62
     5
 39
50.0
 10
0.0000000000000853
 20
0.0
 30
0.0
 40
40.0
 50
151.1276620000012
 51
208.8723760000037
  0
ARC
  5
552
  8
DETAIL
  6
CONTINUOUS
 62
     5
 39
50.0
 10
0.0000230000001977
 20
-0.0000229999999988
 30
0.0
 40
67.99999
 50
180.0000189952644
 51
186.0724389999986
  0
ARC
  5
553
  8
DETAIL
  6
CONTINUOUS
 62
     5
 39
50.0
 10
0.0000000000000853
 20
0.0
 30
0.0
 40
57.500001
 50
148.7741419999963
 51
211.2258400000019
  0
LINE
  5
554
  8
DETAIL
  6
CONTINUOUS
 62
     5
 39
50.0
 10
51.8202540000002
 20
-44.09648800000002
 30
0.0
 11
45.81308000000018
 21
-50.25101800000001
 31
0.0
  0
ARC
  5
555
  8
DETAIL
  6
CONTINUOUS
 62
     5
 39
50.0
 10
74.03065800000019
 20
-21.17703500000001
 30
0.0
 40
8.0
 50
344.0364289999982
 51
79.99978500000083
  0
ARC
  5
556
  8
DETAIL
  6
CONTINUOUS
 62
     5
 39
50.0
 10
0.0000230000001977
 20
-0.0000229999999988
 30
0.0
 40
85.000005
 50
328.9635490000003
 51
344.0364289999981
  0
LINE
  5
557
  8
DETAIL
  6
CONTINUOUS
 62
     5
 39
50.0
 10
75.41987300000011
 20
-13.29857900000001
 30
0.0
 11
71.7221400000002
 21
-12.646554
 31
0.0
  0
ARC
  5
558
  8
DETAIL
  6
CONTINUOUS
 62
     5
 39
50.0
 10
72.59037600000016
 20
-7.722519000000005
 30
0.0
 40
4.999998999999998
 50
173.9274340000003
 51
259.9999480000025
  0
LINE
  5
559
  8
DETAIL
  6
CONTINUOUS
 62
     5
 39
50.0
 10
53.0096190000001
 20
-41.10084299999999
 30
0.0
 11
51.41327300000017
 21
-39.896299
 31
0.0
  0
ARC
  5
55A
  8
DETAIL
  6
CONTINUOUS
 62
     5
 39
50.0
 10
44.58242500000011
 20
-51.62149199999999
 30
0.0
 40
0.999901
 50
131.1829629999978
 51
209.9999030000021
  0
ARC
  5
55B
  8
DETAIL
  6
CONTINUOUS
 62
     5
 39
50.0
 10
55.15441000000021
 20
-47.822531
 30
0.0
 40
4.999998999999998
 50
52.99991799999717
 51
131.8229689999984
  0
LINE
  5
55C
  8
DETAIL
  6
CONTINUOUS
 62
     5
 39
50.0
 10
58.16350000000017
 20
-43.82937100000001
 30
0.0
 11
61.1621330000001
 21
-46.089012
 31
0.0
  0
ARC
  5
55D
  8
DETAIL
  6
CONTINUOUS
 62
     5
 39
50.0
 10
0.0000230000001977
 20
-0.0000229999999988
 30
0.0
 40
67.99999
 50
309.992098999996
 51
312.3549470000023
  0
ARC
  5
55E
  8
DETAIL
  6
CONTINUOUS
 62
     5
 39
50.0
 10
27.2166630000001
 20
-44.89437399999999
 30
0.0
 40
5.0
 50
301.2257679999967
 51
45.00000100000276
  0
LINE
  5
55F
  8
DETAIL
  6
CONTINUOUS
 62
     5
 39
50.0
 10
30.75223100000008
 20
-41.358889
 30
0.0
 11
25.2642060000002
 21
-35.87090999999998
 31
0.0
  0
ARC
  5
560
  8
DETAIL
  6
CONTINUOUS
 62
     5
 39
50.0
 10
21.72868900000009
 20
-39.40642300000002
 30
0.0
 40
5.0
 50
45.00007299999957
 51
118.872284000004
  0
ARC
  5
561
  8
DETAIL
  6
CONTINUOUS
 62
     5
 39
50.0
 10
39.40639499999997
 20
-21.73267700000002
 30
0.0
 40
5.0
 50
151.1277709999986
 51
224.9998730000025
  0
ARC
  5
562
  8
DETAIL
  6
CONTINUOUS
 62
     5
 39
50.0
 10
44.8943450000001
 20
-27.220674
 30
0.0
 40
5.0
 50
224.9999820000019
 51
328.7740519999992
  0
LINE
  5
563
  8
DETAIL
  6
CONTINUOUS
 62
     5
 39
50.0
 10
41.35878300000007
 20
-30.756168
 30
0.0
 11
35.87082500000008
 21
-25.26818700000001
 31
0.0
  0
ARC
  5
564
  8
DETAIL
  6
CONTINUOUS
 62
     5
 39
50.0
 10
65.97666700000008
 20
-39.69993899999997
 30
0.0
 40
8.0
 50
232.9998790000002
 51
328.9635490000003
  0
LINE
  5
565
  8
DETAIL
  6
CONTINUOUS
 62
     5
 39
50.0
 10
9.089602000000099
 20
-66.45801600000001
 30
0.0
 11
8.84463000000008
 21
-64.47328900000002
 31
0.0
  0
ARC
  5
566
  8
DETAIL
  6
CONTINUOUS
 62
     5
 39
50.0
 10
43.11103400000007
 20
-55.07239300000001
 30
0.0
 40
1.999802999999999
 50
299.9999400000034
 51
29.99992199999757
  0
ARC
  5
567
  8
DETAIL
  6
CONTINUOUS
 62
     5
 39
50.0
 10
26.1386280000001
 20
-64.871406
 30
0.0
 40
1.999802999999999
 50
209.9999030000024
 51
299.9999400000028
  0
ARC
  5
568
  8
DETAIL
  6
CONTINUOUS
 62
     5
 39
50.0
 10
22.41435100000018
 20
-64.42021
 30
0.0
 40
0.999901
 50
29.99993899999843
 51
108.8172620000007
  0
LINE
  5
569
  8
DETAIL
  6
CONTINUOUS
 62
     5
 39
50.0
 10
27.1385250000001
 20
-66.603278
 30
0.0
 11
44.11095200000011
 21
-56.80424199999999
 31
0.0
  0
LINE
  5
56A
  8
DETAIL
  6
CONTINUOUS
 62
     5
 39
50.0
 10
23.28036400000008
 20
-63.92023499999999
 30
0.0
 11
24.4067890000002
 21
-65.87130200000001
 31
0.0
  0
LINE
  5
56B
  8
DETAIL
  6
CONTINUOUS
 62
     5
 39
50.0
 10
30.99561800000009
 20
-66.68581
 30
0.0
 11
42.25395900000007
 21
-60.185835
 31
0.0
  0
LINE
  5
56C
  8
DETAIL
  6
CONTINUOUS
 62
     5
 39
50.0
 10
41.25394000000011
 20
-58.45377500000001
 30
0.0
 11
42.2539750000002
 21
-60.1858
 31
0.0
  0
LINE
  5
56D
  8
DETAIL
  6
CONTINUOUS
 62
     5
 39
50.0
 10
29.99566700000008
 20
-64.95376500000003
 30
0.0
 11
30.99567400000009
 21
-66.68580499999999
 31
0.0
  0
ARC
  5
56E
  8
DETAIL
  6
CONTINUOUS
 62
     5
 39
50.0
 10
0.0000230000001977
 20
-0.0000229999999988
 30
0.0
 40
71.99999800000002
 50
282.2496990000014
 51
294.8205090000023
  0
ARC
  5
56F
  8
DETAIL
  6
CONTINUOUS
 62
     5
 39
50.0
 10
0.0000230000001977
 20
-0.0000229999999988
 30
0.0
 40
85.000005
 50
282.2496990000014
 51
296.6277250000002
  0
ARC
  5
570
  8
DETAIL
  6
CONTINUOUS
 62
     5
 39
50.0
 10
16.65552500000018
 20
-76.71274299999999
 30
0.0
 40
6.499998999999998
 50
187.5000040000002
 51
282.2496990000014
  0
ARC
  5
571
  8
DETAIL
  6
CONTINUOUS
 62
     5
 39
50.0
 10
16.65552500000018
 20
-76.71274299999999
 30
0.0
 40
6.499998999999998
 50
102.2495710000027
 51
187.5000040000002
  0
LINE
  5
572
  8
DETAIL
  6
CONTINUOUS
 62
     5
 39
50.0
 10
43.7164640000002
 20
-52.12144000000001
 30
0.0
 11
44.84288800000019
 21
-54.072507
 31
0.0
  0
ARC
  5
573
  8
DETAIL
  6
CONTINUOUS
 62
     5
 39
50.0
 10
1.128206000000176
 20
-1.953898000000009
 30
0.0
 40
64.993554
 50
277.0360790000001
 51
322.9637459999985
  0
ARC
  5
574
  8
DETAIL
  6
CONTINUOUS
 62
     5
 39
50.0
 10
-27.2166849999999
 20
-44.89437399999999
 30
0.0
 40
5.0
 50
135.0
 51
238.7740700000001
  0
LINE
  5
575
  8
DETAIL
  6
CONTINUOUS
 62
     5
 39
50.0
 10
-30.7521779999999
 20
-41.358798
 30
0.0
 11
-25.26425199999991
 21
-35.87084900000002
 31
0.0
  0
ARC
  5
576
  8
DETAIL
  6
CONTINUOUS
 62
     5
 39
50.0
 10
-21.72871199999992
 20
-39.40642300000002
 30
0.0
 40
5.0
 50
61.12778900000112
 51
134.9998910000029
  0
ARC
  5
577
  8
DETAIL
  6
CONTINUOUS
 62
     5
 39
50.0
 10
-44.8943679999999
 20
-27.21669099999999
 30
0.0
 40
5.0
 50
211.2257859999984
 51
315.0000190000017
  0
LINE
  5
578
  8
DETAIL
  6
CONTINUOUS
 62
     5
 39
50.0
 10
-41.3588239999998
 20
-30.75219800000002
 30
0.0
 11
-35.87090399999983
 21
-25.26420999999999
 31
0.0
  0
ARC
  5
579
  8
DETAIL
  6
CONTINUOUS
 62
     5
 39
50.0
 10
-39.40641699999981
 20
-21.72874100000001
 30
0.0
 40
5.0
 50
315.0000739999977
 51
28.87228500000144
  0
ARC
  5
57A
  8
DETAIL
  6
CONTINUOUS
 62
     5
 39
50.0
 10
-74.03061099999982
 20
-21.17703800000001
 30
0.0
 40
8.0
 50
100.0000100000014
 51
195.9635720000012
  0
ARC
  5
57B
  8
DETAIL
  6
CONTINUOUS
 62
     5
 39
50.0
 10
-65.97662599999981
 20
-39.69992999999999
 30
0.0
 40
8.0
 50
211.0364429999987
 51
307.0001510000006
  0
LINE
  5
57C
  8
DETAIL
  6
CONTINUOUS
 62
     5
 39
50.0
 10
-75.41979799999982
 20
-13.29857600000002
 30
0.0
 11
-71.72207799999993
 21
-12.646567
 31
0.0
  0
ARC
  5
57D
  8
DETAIL
  6
CONTINUOUS
 62
     5
 39
50.0
 10
0.0000230000001977
 20
-0.0000229999999988
 30
0.0
 40
85.000005
 50
195.9635720000012
 51
211.0364429999987
  0
ARC
  5
57E
  8
DETAIL
  6
CONTINUOUS
 62
     5
 39
50.0
 10
-72.59032999999991
 20
-7.722519000000005
 30
0.0
 40
4.999998999999998
 50
280.0000530000008
 51
6.072566999999397
  0
LINE
  5
57F
  8
DETAIL
  6
CONTINUOUS
 62
     5
 39
50.0
 10
-58.16345599999991
 20
-43.82935700000001
 30
0.0
 11
-61.16208899999992
 21
-46.08900099999999
 31
0.0
  0
ARC
  5
580
  8
DETAIL
  6
CONTINUOUS
 62
     5
 39
50.0
 10
-55.1543639999999
 20
-47.822531
 30
0.0
 40
4.999998999999998
 50
40.92738500000286
 51
127.0000460000007
  0
LINE
  5
581
  8
DETAIL
  6
CONTINUOUS
 62
     5
 39
50.0
 10
-30.3248109999999
 20
-65.37128200000001
 30
0.0
 11
-24.78153999999992
 21
-67.66738400000003
 31
0.0
  0
ARC
  5
582
  8
DETAIL
  6
CONTINUOUS
 62
     5
 39
50.0
 10
0.0000230000001977
 20
-0.0000229999999988
 30
0.0
 40
85.000005
 50
243.249700999998
 51
257.750302000002
  0
ARC
  5
583
  8
DETAIL
  6
CONTINUOUS
 62
     5
 39
50.0
 10
0.0000230000001977
 20
-0.0000229999999988
 30
0.0
 40
71.99999800000002
 50
243.249700999998
 51
257.750302000002
  0
ARC
  5
584
  8
DETAIL
  6
CONTINUOUS
 62
     5
 39
50.0
 10
-16.6554789999999
 20
-76.71274299999999
 30
0.0
 40
6.499998999999998
 50
257.750302000002
 51
352.4999979999996
  0
ARC
  5
585
  8
DETAIL
  6
CONTINUOUS
 62
     5
 39
50.0
 10
-16.6554789999999
 20
-76.71274299999999
 30
0.0
 40
6.499998999999998
 50
352.4999979999996
 51
77.75037599999902
  0
ARC
  5
586
  8
DETAIL
  6
CONTINUOUS
 62
     5
 39
50.0
 10
-35.33303699999982
 20
-70.098677
 30
0.0
 40
6.499998999999998
 50
148.5000060000024
 51
243.2495919999965
  0
ARC
  5
587
  8
DETAIL
  6
CONTINUOUS
 62
     5
 39
50.0
 10
-35.33303699999982
 20
-70.098677
 30
0.0
 40
6.499998999999998
 50
63.2496829999997
 51
148.5000060000024
  0
ARC
  5
588
  8
DETAIL
  6
CONTINUOUS
 62
     5
 39
50.0
 10
0.0000230000001977
 20
-0.0000229999999988
 30
0.0
 40
67.99999
 50
220.9274409999991
 51
270.0
  0
CIRCLE
  5
589
  8
DETAIL
  6
CONTINUOUS
 62
     5
 39
50.0
 10
0.0000230000001977
 20
-77.000013
 30
0.0
 40
6.0
  0
ARC
  5
58A
  8
DETAIL
  6
CONTINUOUS
 62
     5
 39
50.0
 10
0.0000230000001977
 20
-0.0000229999999988
 30
0.0
 40
67.99999
 50
270.0
 51
290.0075809999987
  0
ARC
  5
58B
  8
DETAIL
  6
CONTINUOUS
 62
     5
 39
50.0
 10
0.0000000000000853
 20
0.0
 30
0.0
 40
40.0
 50
241.1276440000015
 51
298.8723580000013
  0
ARC
  5
58C
  8
DETAIL
  6
CONTINUOUS
 62
     5
 39
50.0
 10
0.0000000000000853
 20
0.0
 30
0.0
 40
57.500001
 50
238.7741239999987
 51
301.2258220000031
  0
ARC
  5
58F
  8
DETAIL
  6
CONTINUOUS
 62
     5
 39
50.0
 10
0.0000230000001977
 20
-0.0000229999999988
 30
0.0
 40
71.99999800000002
 50
63.24968299999971
 51
77.75028400000294
  0
ARC
  5
590
  8
DETAIL
  6
CONTINUOUS
 62
     5
 39
50.0
 10
0.0000230000001977
 20
-0.0000229999999988
 30
0.0
 40
85.000005
 50
63.24968299999973
 51
77.75028400000294
  0
ARC
  5
591
  8
DETAIL
  6
CONTINUOUS
 62
     5
 39
50.0
 10
35.3330830000001
 20
70.09863100000001
 30
0.0
 40
6.499998999999998
 50
328.5000249999978
 51
63.24961099999928
  0
ARC
  5
592
  8
DETAIL
  6
CONTINUOUS
 62
     5
 39
50.0
 10
16.65552500000018
 20
76.71269699999993
 30
0.0
 40
6.499998999999998
 50
77.75028400000289
 51
172.4999789999985
  0
ARC
  5
593
  8
DETAIL
  6
CONTINUOUS
 62
     5
 39
50.0
 10
55.15441000000021
 20
47.82247799999999
 30
0.0
 40
4.999998999999998
 50
220.9273859999974
 51
307.0000640000005
  0
ARC
  5
594
  8
DETAIL
  6
CONTINUOUS
 62
     5
 39
50.0
 10
16.65552500000018
 20
76.71269699999993
 30
0.0
 40
6.499998999999998
 50
172.4999789999985
 51
257.7504119999967
  0
ARC
  5
595
  8
DETAIL
  6
CONTINUOUS
 62
     5
 39
50.0
 10
35.3330830000001
 20
70.09863100000001
 30
0.0
 40
6.499998999999998
 50
243.2497009999981
 51
328.5000249999978
  0
LINE
  5
596
  8
DETAIL
  6
CONTINUOUS
 62
     5
 39
50.0
 10
58.16349400000007
 20
43.829339
 30
0.0
 11
61.16212500000012
 21
46.08897899999999
 31
0.0
  0
ARC
  5
597
  8
DETAIL
  6
CONTINUOUS
 62
     5
 39
50.0
 10
21.73262600000018
 20
39.40639399999998
 30
0.0
 40
5.0
 50
241.1277530000017
 51
314.9998550000022
  0
ARC
  5
598
  8
DETAIL
  6
CONTINUOUS
 62
     5
 39
50.0
 10
27.22062200000008
 20
44.89434499999998
 30
0.0
 40
5.0
 50
314.9999640000037
 51
58.77403399999859
  0
LINE
  5
599
  8
DETAIL
  6
CONTINUOUS
 62
     5
 39
50.0
 10
30.75610100000009
 20
41.35880399999996
 30
0.0
 11
25.26817200000008
 21
35.87092100000001
 31
0.0
  0
ARC
  5
59A
  8
DETAIL
  6
CONTINUOUS
 62
     5
 39
50.0
 10
44.8943450000001
 20
27.21270299999997
 30
0.0
 40
5.0
 50
31.22582200000097
 51
134.9999999999998
  0
ARC
  5
59B
  8
DETAIL
  6
CONTINUOUS
 62
     5
 39
50.0
 10
65.9766590000001
 20
39.699905
 30
0.0
 40
8.0
 50
31.03646199999543
 51
127.0001209999998
  0
ARC
  5
59C
  8
DETAIL
  6
CONTINUOUS
 62
     5
 39
50.0
 10
74.03065600000008
 20
21.176998
 30
0.0
 40
8.0
 50
280.0000309999985
 51
15.96357700000021
  0
LINE
  5
59D
  8
DETAIL
  6
CONTINUOUS
 62
     5
 39
50.0
 10
75.41984500000007
 20
13.29853700000001
 30
0.0
 11
71.7221360000002
 21
12.64652899999998
 31
0.0
  0
ARC
  5
59E
  8
DETAIL
  6
CONTINUOUS
 62
     5
 39
50.0
 10
72.59037600000016
 20
7.722495999999978
 30
0.0
 40
4.999998999999998
 50
100.0000349999998
 51
186.072549
  0
ARC
  5
59F
  8
DETAIL
  6
CONTINUOUS
 62
     5
 39
50.0
 10
0.0000230000001977
 20
-0.0000229999999988
 30
0.0
 40
67.99999
 50
0.0
 51
6.072455000001471
  0
ARC
  5
5A0
  8
DETAIL
  6
CONTINUOUS
 62
     5
 39
50.0
 10
39.40637200000009
 20
21.72472899999999
 30
0.0
 40
5.0
 50
135.000054999997
 51
208.8722660000022
  0
ARC
  5
5A1
  8
DETAIL
  6
CONTINUOUS
 62
     5
 39
50.0
 10
0.0000230000001977
 20
-0.0000229999999988
 30
0.0
 40
85.000005
 50
15.96357700000014
 51
31.03646199999546
  0
LINE
  5
5A2
  8
DETAIL
  6
CONTINUOUS
 62
     5
 39
50.0
 10
41.35878700000018
 20
30.74823499999999
 30
0.0
 11
35.87081100000009
 21
25.26026999999999
 31
0.0
  0
ARC
  5
5A3
  8
DETAIL
  6
CONTINUOUS
 62
     5
 39
50.0
 10
0.0000230000001977
 20
-0.0000229999999988
 30
0.0
 40
67.99999
 50
90.00003699999982
 51
139.072542000004
  0
ARC
  5
5A4
  8
DETAIL
  6
CONTINUOUS
 62
     5
 39
50.0
 10
0.0000230000001977
 20
-0.0000229999999988
 30
0.0
 40
71.99999800000002
 50
102.2497350000008
 51
116.7503359999982
  0
ARC
  5
5A5
  8
DETAIL
  6
CONTINUOUS
 62
     5
 39
50.0
 10
0.0000230000001977
 20
-0.0000229999999988
 30
0.0
 40
85.000005
 50
102.2497350000008
 51
116.7503359999982
  0
ARC
  5
5A6
  8
DETAIL
  6
CONTINUOUS
 62
     5
 39
50.0
 10
-35.33303699999982
 20
70.09863100000001
 30
0.0
 40
6.499998999999998
 50
116.7503910000025
 51
211.4999769999971
  0
ARC
  5
5A7
  8
DETAIL
  6
CONTINUOUS
 62
     5
 39
50.0
 10
-16.6554789999999
 20
76.71269699999993
 30
0.0
 40
6.499998999999998
 50
7.500021999999959
 51
102.2497350000007
  0
ARC
  5
5A8
  8
DETAIL
  6
CONTINUOUS
 62
     5
 39
50.0
 10
-16.6554789999999
 20
76.71269699999993
 30
0.0
 40
6.499998999999998
 50
282.2495900000028
 51
7.499968000000665
  0
ARC
  5
5A9
  8
DETAIL
  6
CONTINUOUS
 62
     5
 39
50.0
 10
-35.33303699999982
 20
70.09863100000001
 30
0.0
 40
6.499998999999998
 50
211.4999769999971
 51
296.7502999999987
  0
ARC
  5
5AA
  8
DETAIL
  6
CONTINUOUS
 62
     5
 39
50.0
 10
-44.8943679999999
 20
27.21666299999998
 30
0.0
 40
5.0
 50
45.00000100000276
 51
148.774087999999
  0
ARC
  5
5AB
  8
DETAIL
  6
CONTINUOUS
 62
     5
 39
50.0
 10
-21.72477499999982
 20
39.40637099999998
 30
0.0
 40
5.0
 50
225.0000369999987
 51
298.8722479999985
  0
ARC
  5
5AC
  8
DETAIL
  6
CONTINUOUS
 62
     5
 39
50.0
 10
-27.21272599999992
 20
44.89434499999998
 30
0.0
 40
5.0
 50
121.2258039999974
 51
224.9999820000019
  0
LINE
  5
5AD
  8
DETAIL
  6
CONTINUOUS
 62
     5
 39
50.0
 10
-30.74826799999991
 20
41.35875399999997
 30
0.0
 11
-25.26031099999992
 21
35.87076999999999
 31
0.0
  0
ARC
  5
5AE
  8
DETAIL
  6
CONTINUOUS
 62
     5
 39
50.0
 10
-65.9766249999999
 20
39.69988499999999
 30
0.0
 40
8.0
 50
52.99986100000014
 51
148.9635559999985
  0
LINE
  5
5AF
  8
DETAIL
  6
CONTINUOUS
 62
     5
 39
50.0
 10
-58.16346799999991
 20
43.82932299999999
 30
0.0
 11
-61.16208899999992
 21
46.08895799999999
 31
0.0
  0
ARC
  5
5B0
  8
DETAIL
  6
CONTINUOUS
 62
     5
 39
50.0
 10
-55.1543639999999
 20
47.82247799999999
 30
0.0
 40
4.999998999999998
 50
232.9999369999993
 51
319.0725600000022
  0
ARC
  5
5B1
  8
DETAIL
  6
CONTINUOUS
 62
     5
 39
50.0
 10
-39.40641699999981
 20
21.72866599999997
 30
0.0
 40
5.0
 50
331.1277900000014
 51
44.99989200000343
  0
ARC
  5
5B2
  8
DETAIL
  6
CONTINUOUS
 62
     5
 39
50.0
 10
-74.03061299999982
 20
21.176986
 30
0.0
 40
8.0
 50
164.0364319999999
 51
259.9999690000013
  0
LINE
  5
5B3
  8
DETAIL
  6
CONTINUOUS
 62
     5
 39
50.0
 10
-75.41980299999992
 20
13.29852399999998
 30
0.0
 11
-71.72208899999981
 21
12.64651499999999
 31
0.0
  0
ARC
  5
5B4
  8
DETAIL
  6
CONTINUOUS
 62
     5
 39
50.0
 10
-72.59032999999991
 20
7.722495999999978
 30
0.0
 40
4.999998999999998
 50
353.927397999999
 51
79.99996700000072
  0
ARC
  5
5B5
  8
DETAIL
  6
CONTINUOUS
 62
     5
 39
50.0
 10
0.0000230000001977
 20
-0.0000229999999988
 30
0.0
 40
67.99999
 50
173.9275430000004
 51
180.0000189952644
  0
ARC
  5
5B6
  8
DETAIL
  6
CONTINUOUS
 62
     5
 39
50.0
 10
0.0000230000001977
 20
-0.0000229999999988
 30
0.0
 40
85.000005
 50
148.9635559999985
 51
164.0364319999999
  0
LINE
  5
5B7
  8
DETAIL
  6
CONTINUOUS
 62
     5
 39
50.0
 10
-41.35882999999981
 20
30.752182
 30
0.0
 11
-35.87090399999983
 21
25.26420099999998
 31
0.0
  0
CIRCLE
  5
5B8
  8
DETAIL
  6
CONTINUOUS
 62
     5
 39
50.0
 10
0.0000230000001977
 20
76.99996699999997
 30
0.0
 40
6.0
  0
ARC
  5
5B9
  8
DETAIL
  6
CONTINUOUS
 62
     5
 39
50.0
 10
0.0000230000001977
 20
-0.0000229999999988
 30
0.0
 40
67.99999
 50
40.92744999999886
 51
89.99998200000078
  0
ARC
  5
5BA
  8
DETAIL
  6
CONTINUOUS
 62
     5
 39
50.0
 10
0.0039600000000917
 20
0.0
 30
0.0
 40
40.0
 50
61.12768000000144
 51
118.8723940000002
  0
ARC
  5
5BB
  8
DETAIL
  6
CONTINUOUS
 62
     5
 39
50.0
 10
0.0039600000000917
 20
0.0
 30
0.0
 40
57.500001
 50
58.77415999999573
 51
121.2258580000006
  0
ENDSEC
  0
EOF
