  0
SECTION
  2
HEADER
  9
$ACADVER
  1
AC1009
  9
$INSBASE
 10
0.0
 20
0.0
 30
0.0
  9
$EXTMIN
 10
-739.46292500000015
 20
-723.56964699999969
 30
0.0
  9
$EXTMAX
 10
1531.2190320663001
 20
589.36019014442752
 30
0.0
  9
$LIMMIN
 10
-2970.0
 20
-2100.0
  9
$LIMMAX
 10
2970.0
 20
2100.0
  9
$ORTHOMODE
 70
     0
  9
$REGENMODE
 70
     0
  9
$FILLMODE
 70
     1
  9
$QTEXTMODE
 70
     0
  9
$MIRRTEXT
 70
     0
  9
$DRAGMODE
 70
     2
  9
$LTSCALE
 40
20.0
  9
$OSMODE
 70
   167
  9
$ATTMODE
 70
     1
  9
$TEXTSIZE
 40
64.0
  9
$TRACEWID
 40
0.05
  9
$TEXTSTYLE
  7
STANDARD
  9
$CLAYER
  8
0
  9
$CELTYPE
  6
CONTINUOUS
  9
$CECOLOR
 62
     8
  9
$DIMSCALE
 40
1.0
  9
$DIMASZ
 40
2.0
  9
$DIMEXO
 40
20.0
  9
$DIMDLI
 40
200.0
  9
$DIMRND
 40
0.0
  9
$DIMDLE
 40
0.0
  9
$DIMEXE
 40
30.0
  9
$DIMTP
 40
0.0
  9
$DIMTM
 40
0.0
  9
$DIMTXT
 40
64.0
  9
$DIMCEN
 40
0.09
  9
$DIMTSZ
 40
0.0
  9
$DIMTOL
 70
     0
  9
$DIMLIM
 70
     0
  9
$DIMTIH
 70
     0
  9
$DIMTOH
 70
     0
  9
$DIMSE1
 70
     0
  9
$DIMSE2
 70
     0
  9
$DIMTAD
 70
     1
  9
$DIMZIN
 70
     8
  9
$DIMBLK
  1

  9
$DIMASO
 70
     1
  9
$DIMSHO
 70
     0
  9
$DIMPOST
  1

  9
$DIMAPOST
  1

  9
$DIMALT
 70
     0
  9
$DIMALTD
 70
     2
  9
$DIMALTF
 40
25.399999999999999
  9
$DIMLFAC
 40
1.0
  9
$DIMTOFL
 70
     1
  9
$DIMTVP
 40
0.0
  9
$DIMTIX
 70
     1
  9
$DIMSOXD
 70
     0
  9
$DIMSAH
 70
     0
  9
$DIMBLK1
  1

  9
$DIMBLK2
  1

  9
$DIMSTYLE
  2
STANDARD
  9
$DIMCLRD
 70
     0
  9
$DIMCLRE
 70
     0
  9
$DIMCLRT
 70
     0
  9
$DIMTFAC
 40
1.0
  9
$DIMGAP
 40
0.09
  9
$LUNITS
 70
     2
  9
$LUPREC
 70
     4
  9
$SKETCHINC
 40
0.1
  9
$FILLETRAD
 40
240.0
  9
$AUNITS
 70
     1
  9
$AUPREC
 70
     3
  9
$MENU
  1
ACAD
  9
$ELEVATION
 40
0.0
  9
$PELEVATION
 40
0.0
  9
$THICKNESS
 40
0.0
  9
$LIMCHECK
 70
     1
  9
$BLIPMODE
 70
     0
  9
$CHAMFERA
 40
0.0
  9
$CHAMFERB
 40
0.0
  9
$SKPOLY
 70
     0
  9
$TDCREATE
 40
2451485.3907060181
  9
$TDUPDATE
 40
2454965.3930157628
  9
$TDINDWG
 40
0.0522104745
  9
$TDUSRTIMER
 40
0.0522102894
  9
$USRTIMER
 70
     1
  9
$ANGBASE
 50
0.0
  9
$ANGDIR
 70
     0
  9
$PDMODE
 70
     3
  9
$PDSIZE
 40
-2.0
  9
$PLINEWID
 40
0.0
  9
$COORDS
 70
     2
  9
$SPLFRAME
 70
     0
  9
$SPLINETYPE
 70
     6
  9
$SPLINESEGS
 70
     8
  9
$ATTDIA
 70
     0
  9
$ATTREQ
 70
     1
  9
$HANDLING
 70
 22529
  9
$HANDSEED
  5
3AF
  9
$SURFTAB1
 70
     6
  9
$SURFTAB2
 70
     6
  9
$SURFTYPE
 70
     6
  9
$SURFU
 70
     6
  9
$SURFV
 70
     6
  9
$UCSNAME
  2

  9
$UCSORG
 10
0.0
 20
0.0
 30
0.0
  9
$UCSXDIR
 10
1.0
 20
0.0
 30
0.0
  9
$UCSYDIR
 10
0.0
 20
1.0
 30
0.0
  9
$PUCSNAME
  2

  9
$PUCSORG
 10
0.0
 20
0.0
 30
0.0
  9
$PUCSXDIR
 10
1.0
 20
0.0
 30
0.0
  9
$PUCSYDIR
 10
0.0
 20
1.0
 30
0.0
  9
$USERI1
 70
     0
  9
$USERI2
 70
     0
  9
$USERI3
 70
     0
  9
$USERI4
 70
     0
  9
$USERI5
 70
     0
  9
$USERR1
 40
20.0
  9
$USERR2
 40
0.0
  9
$USERR3
 40
0.0
  9
$USERR4
 40
0.0
  9
$USERR5
 40
0.0
  9
$WORLDVIEW
 70
     1
  9
$SHADEDGE
 70
     3
  9
$SHADEDIF
 70
    70
  9
$TILEMODE
 70
     1
  9
$MAXACTVP
 70
    64
  9
$PLIMCHECK
 70
     0
  9
$PEXTMIN
 10
1.0000000000000000E+020
 20
1.0000000000000000E+020
 30
1.0000000000000000E+020
  9
$PEXTMAX
 10
-1.0000000000000000E+020
 20
-1.0000000000000000E+020
 30
-1.0000000000000000E+020
  9
$PLIMMIN
 10
0.0
 20
0.0
  9
$PLIMMAX
 10
12.0
 20
9.0
  9
$UNITMODE
 70
     0
  9
$VISRETAIN
 70
     1
  9
$PLINEGEN
 70
     0
  9
$PSLTSCALE
 70
     1
  0
ENDSEC
  0
SECTION
  2
TABLES
  0
TABLE
  2
VPORT
 70
     7
  0
VPORT
  2
*ACTIVE
 70
     0
 10
0.0
 20
0.0
 11
1.0
 21
1.0
 12
334.244249372166
 22
-100.2849008974178
 13
0.0
 23
0.0
 14
400.0
 24
400.0
 15
400.0
 25
400.0
 16
0.0
 26
0.0
 36
1.0
 17
0.0
 27
0.0
 37
0.0
 40
1781.556304746322
 41
1.493654822335025
 42
50.0
 43
0.0
 44
0.0
 50
0.0
 51
0.0
 71
     0
 72
  1000
 73
     1
 74
     0
 75
     0
 76
     0
 77
     0
 78
     0
  0
ENDTAB
  0
TABLE
  2
LTYPE
 70
     7
  0
LTYPE
  2
CONTINUOUS
 70
     0
  3
実線
 72
    65
 73
     0
 40
0.0
  0
LTYPE
  2
DASHDOT
 70
     0
  3
____ _ ____ _ ____ _ ____ _ ____ _ ____ _ ____
 72
    65
 73
     4
 40
5.5
 49
4.0
 49
-0.6
 49
0.3
 49
-0.6
  0
LTYPE
  2
DASHED
 70
     0
  3
_ _ _ _ _ _ _ _ _ _ _ _ _ _ _ _ _ _ _ _ _ _ _
 72
    65
 73
     2
 40
2.0
 49
1.1999999999999991
 49
-0.8
  0
LTYPE
  2
DOT
 70
     0
  3
...............................................
 72
    65
 73
     2
 40
0.8
 49
0.5
 49
-0.3
  0
LTYPE
  2
DASHDOT1
 70
     0
  3
____ _ ____ _ ____ _ ____ _ ____ _ ____ _ ____
 72
    65
 73
     4
 40
2.0
 49
1.5
 49
-0.2
 49
0.1
 49
-0.2
  0
LTYPE
  2
DIVIDE
 70
     0
  3
_____ _ _ _____ _ _ _____ _ _ _____ _ _ ____
 72
    65
 73
     6
 40
6.4000000000000004
 49
4.0
 49
-0.6
 49
0.3
 49
-0.6
 49
0.3
 49
-0.6
  0
LTYPE
  2
DIVIDE1
 70
     0
  3
_____ _ _ _____ _ _ _____ _ _ _____ _ _ ____
 72
    65
 73
     6
 40
3.2000000000000002
 49
2.0
 49
-0.3
 49
0.15
 49
-0.3
 49
0.15
 49
-0.3
  0
ENDTAB
  0
TABLE
  2
LAYER
 70
    12
  0
LAYER
  2
0
 70
     0
 62
     7
  6
CONTINUOUS
  0
LAYER
  2
OUTLINE
 70
     0
 62
     3
  6
CONTINUOUS
  0
LAYER
  2
DETAIL
 70
     0
 62
     5
  6
CONTINUOUS
  0
LAYER
  2
BASIS
 70
     0
 62
     6
  6
DASHDOT
  0
LAYER
  2
NOTE
 70
     0
 62
     4
  6
CONTINUOUS
  0
LAYER
  2
DEFPOINTS
 70
     0
 62
     7
  6
CONTINUOUS
  0
LAYER
  2
SIZE
 70
     0
 62
    30
  6
CONTINUOUS
  0
LAYER
  2
ARRANGE
 70
     0
 62
     1
  6
CONTINUOUS
  0
LAYER
  2
FIX
 70
     0
 62
    11
  6
CONTINUOUS
  0
LAYER
  2
ETC
 70
     0
 62
    61
  6
CONTINUOUS
  0
LAYER
  2
SERVICESPACE
 70
     0
 62
     2
  6
DASHDOT
  0
LAYER
  2
SYMBOLLINE
 70
     0
 62
    15
  6
CONTINUOUS
  0
ENDTAB
  0
TABLE
  2
STYLE
 70
     1
  0
STYLE
  2
STANDARD
 70
     0
 40
0.0
 41
0.9
 50
0.0
 71
     0
 42
64.0
  3
SIMPLEX
  4
BIGFONT
  0
ENDTAB
  0
TABLE
  2
VIEW
 70
     1
  0
VIEW
  2
ALL
 70
     0
 40
4508.0208510000002
 10
0.0
 20
41.309903999999989
 41
6252.631578999999
 11
0.0
 21
0.0
 31
1.0
 12
0.0
 22
0.0
 32
0.0
 42
50.0
 43
0.0
 44
0.0
 50
0.0
 71
     0
  0
ENDTAB
  0
TABLE
  2
UCS
 70
     0
  0
ENDTAB
  0
TABLE
  2
APPID
 70
     1
  0
APPID
  2
ACAD
 70
     0
  0
ENDTAB
  0
TABLE
  2
DIMSTYLE
 70
     1
  0
DIMSTYLE
  2
STANDARD
 70
     0
  3

  4

  5

  6

  7

 40
1.0
 41
0.18
 42
0.0625
 43
0.38
 44
0.18
 45
0.0
 46
0.0
 47
0.0
 48
0.0
140
0.18
141
0.09
142
0.0
143
25.399999999999999
144
1.0
145
0.0
146
1.0
147
0.09
 71
     0
 72
     0
 73
     1
 74
     1
 75
     0
 76
     0
 77
     0
 78
     0
170
     0
171
     2
172
     0
173
     0
174
     0
175
     0
176
     0
177
     0
178
     0
  0
ENDTAB
  0
ENDSEC
  0
SECTION
  2
BLOCKS
  0
BLOCK
  8
0
  2
$MODEL_SPACE
 70
     0
 10
0.0
 20
0.0
 30
0.0
  3
$MODEL_SPACE
  1

  0
ENDBLK
  5
1E0
  8
0
  0
BLOCK
 67
     1
  8
0
  2
$PAPER_SPACE
 70
     0
 10
0.0
 20
0.0
 30
0.0
  3
$PAPER_SPACE
  1

  0
ENDBLK
  5
1DC
 67
     1
  8
0
  0
BLOCK
  8
0
  2
DOT1
 70
     0
 10
0.0
 20
0.0
 30
0.0
  3
DOT1
  1

  0
CIRCLE
  5
200
  8
SIZE
  6
CONTINUOUS
 62
     7
 10
0.0
 20
0.0
 30
0.0
 40
3.0
  0
ENDBLK
  5
201
  8
0
  0
BLOCK
  8
0
  2
_ORIGIN
 70
     0
 10
0.0
 20
0.0
 30
0.0
  3
_ORIGIN
  1

  0
CIRCLE
  5
204
  8
0
  6
CONTINUOUS
 62
     7
 10
0.0
 20
0.0
 30
0.0
 40
0.5
  0
LINE
  5
205
  8
0
  6
CONTINUOUS
 62
     7
 10
0.0
 20
0.0
 30
0.0
 11
-1.0
 21
0.0
 31
0.0
  0
ENDBLK
  5
206
  8
0
  0
ENDSEC
  0
SECTION
  2
ENTITIES
  0
LINE
  5
207
  8
DETAIL
  6
CONTINUOUS
 62
     5
 10
355.0
 20
0.0
 30
0.0
 11
-355.0
 21
0.0
 31
0.0
  0
LINE
  5
208
  8
BASIS
  6
DASHDOT
 62
     6
 10
0.0
 20
60.312736999999991
 30
0.0
 11
0.0
 21
-388.829992
 31
0.0
  0
LINE
  5
209
  8
DETAIL
  6
CONTINUOUS
 62
     5
 10
295.0
 20
-20.0
 30
0.0
 11
295.0
 21
-198.26440600000001
 31
0.0
  0
LINE
  5
20A
  8
DETAIL
  6
CONTINUOUS
 62
     5
 10
348.0
 20
-10.0
 30
0.0
 11
335.49999999999989
 21
-10.0
 31
0.0
  0
LINE
  5
20B
  8
DETAIL
  6
CONTINUOUS
 62
     5
 10
355.0
 20
-3.0
 30
0.0
 11
355.0
 21
0.0
 31
0.0
  0
LINE
  5
20C
  8
DETAIL
  6
CONTINUOUS
 62
     5
 10
-355.0
 20
-3.0
 30
0.0
 11
-355.0
 21
0.0
 31
0.0
  0
LINE
  5
20D
  8
DETAIL
  6
CONTINUOUS
 62
     5
 10
335.49999999999989
 20
-10.0
 30
0.0
 11
-335.49999999999989
 21
-10.0
 31
0.0
  0
LINE
  5
20E
  8
DETAIL
  6
CONTINUOUS
 62
     5
 10
-335.49999999999989
 20
-10.0
 30
0.0
 11
-348.0
 21
-10.0
 31
0.0
  0
LINE
  5
20F
  8
DETAIL
  6
CONTINUOUS
 62
     5
 10
315.0
 20
-20.0
 30
0.0
 11
255.0
 21
-20.0
 31
0.0
  0
LINE
  5
210
  8
DETAIL
  6
CONTINUOUS
 62
     5
 10
130.0
 20
-277.76605399999983
 30
0.0
 11
-130.0
 21
-277.76605399999983
 31
0.0
  0
LINE
  5
211
  8
DETAIL
  6
CONTINUOUS
 62
     5
 10
90.0
 20
-230.26440599999989
 30
0.0
 11
14.852179999999979
 21
-230.26440599999989
 31
0.0
  0
LINE
  5
212
  8
DETAIL
  6
CONTINUOUS
 62
     5
 10
130.0
 20
-277.76605399999983
 30
0.0
 11
130.0
 21
-230.26440599999989
 31
0.0
  0
LINE
  5
213
  8
DETAIL
  6
CONTINUOUS
 62
     5
 10
-130.0
 20
-277.76605399999983
 30
0.0
 11
-130.0
 21
-230.26440599999989
 31
0.0
  0
LINE
  5
214
  8
DETAIL
  6
CONTINUOUS
 62
     5
 10
-82.0
 20
-137.6013419999999
 30
0.0
 11
-82.0
 21
-225.763856
 31
0.0
  0
LINE
  5
215
  8
DETAIL
  6
CONTINUOUS
 62
     5
 10
82.0
 20
-137.6013419999999
 30
0.0
 11
82.0
 21
-225.763856
 31
0.0
  0
LINE
  5
216
  8
DETAIL
  6
CONTINUOUS
 62
     5
 10
72.0
 20
-327.0
 30
0.0
 11
-72.0
 21
-327.0
 31
0.0
  0
LINE
  5
217
  8
DETAIL
  6
CONTINUOUS
 62
     5
 10
315.0
 20
-20.0
 30
0.0
 11
315.0
 21
-10.0
 31
0.0
  0
LINE
  5
218
  8
DETAIL
  6
CONTINUOUS
 62
     5
 10
90.0
 20
-230.26440599999989
 30
0.0
 11
225.0
 21
-230.26440599999989
 31
0.0
  0
LINE
  5
219
  8
DETAIL
  6
CONTINUOUS
 62
     5
 10
225.0
 20
-268.26440600000001
 30
0.0
 11
130.0
 21
-268.26440600000001
 31
0.0
  0
LINE
  5
21A
  8
DETAIL
  6
CONTINUOUS
 62
     5
 10
255.0
 20
-20.0
 30
0.0
 11
255.0
 21
-10.0
 31
0.0
  0
ARC
  5
21B
  8
DETAIL
  6
CONTINUOUS
 62
     5
 10
225.0
 20
-198.26440600000001
 30
0.0
 40
70.0
 50
270.0
 51
0.0
  0
CIRCLE
  5
21C
  8
FIX
  6
CONTINUOUS
 62
    11
 10
-325.0
 20
0.0
 30
0.0
 40
7.5
  0
ARC
  5
21D
  8
DETAIL
  6
CONTINUOUS
 62
     5
 10
-348.0
 20
-3.0
 30
0.0
 40
7.0
 50
180.0
 51
270.0
  0
ARC
  5
21E
  8
DETAIL
  6
CONTINUOUS
 62
     5
 10
348.0
 20
-3.0
 30
0.0
 40
7.0
 50
270.0
 51
0.0
  0
LINE
  5
21F
  8
DETAIL
  6
CONTINUOUS
 62
     5
 10
275.0
 20
-93.0
 30
0.0
 11
-275.0
 21
-93.0
 31
0.0
  0
LINE
  5
220
  8
DETAIL
  6
CONTINUOUS
 62
     5
 10
-295.0
 20
-93.0
 30
0.0
 11
-352.49999999999977
 21
-93.0
 31
0.0
  0
LINE
  5
221
  8
DETAIL
  6
CONTINUOUS
 62
     5
 10
295.0
 20
-93.0
 30
0.0
 11
352.49999999999977
 21
-93.0
 31
0.0
  0
POINT
  5
222
  8
ARRANGE
  6
CONTINUOUS
 62
     1
 10
0.0
 20
0.0
 30
0.0
  0
CIRCLE
  5
223
  8
ARRANGE
  6
CONTINUOUS
 62
     1
 10
0.0
 20
0.0
 30
0.0
 40
40.0
  0
TEXT
  5
224
  8
NOTE
  6
CONTINUOUS
 62
     4
 10
442.77670599999988
 20
113.0531389999999
 30
0.0
 40
64.0
  1
4-15×15
 41
0.9
  0
LINE
  5
225
  8
NOTE
  6
CONTINUOUS
 62
     4
 10
847.40031599999998
 20
87.953590000000005
 30
0.0
 11
419.97747999999979
 21
87.953590000000005
 31
0.0
  0
LINE
  5
226
  8
DETAIL
  6
CONTINUOUS
 62
     5
 10
1.0787129017007251
 20
-127.6013419999998
 30
0.0
 11
-72.0
 21
-127.6013419999999
 31
0.0
  0
ARC
  5
227
  8
DETAIL
  6
CONTINUOUS
 62
     5
 10
-72.0
 20
-137.6013419999999
 30
0.0
 40
10.0
 50
90.0
 51
180.0
  0
ARC
  5
228
  8
DETAIL
  6
CONTINUOUS
 62
     5
 10
72.0
 20
-137.6013419999999
 30
0.0
 40
10.0
 50
0.0
 51
90.0
  0
LINE
  5
229
  8
DETAIL
  6
CONTINUOUS
 62
     5
 10
-20.0
 20
-112.6013419999999
 30
0.0
 11
-20.0
 21
-127.6013419999999
 31
0.0
  0
LINE
  5
22B
  8
DETAIL
  6
CONTINUOUS
 62
     5
 10
15.30625167252432
 20
-112.6013419999999
 30
0.0
 11
-20.0
 21
-112.6013419999999
 31
0.0
  0
LINE
  5
22C
  8
DETAIL
  6
CONTINUOUS
 62
     5
 10
-8.0
 20
-93.0
 30
0.0
 11
-8.0
 21
-112.6013419999999
 31
0.0
  0
LINE
  5
22D
  8
DETAIL
  6
CONTINUOUS
 62
     5
 10
8.0
 20
-93.0
 30
0.0
 11
8.0
 21
-112.6013419999999
 31
0.0
  0
LINE
  5
22E
  8
DETAIL
  6
CONTINUOUS
 62
     5
 10
82.0
 20
-277.76605399999983
 30
0.0
 11
82.0
 21
-317.0
 31
0.0
  0
LINE
  5
22F
  8
DETAIL
  6
CONTINUOUS
 62
     5
 10
-82.0
 20
-277.76605399999983
 30
0.0
 11
-82.0
 21
-317.0
 31
0.0
  0
ARC
  5
230
  8
DETAIL
  6
CONTINUOUS
 62
     5
 10
-72.0
 20
-317.0
 30
0.0
 40
10.0
 50
180.0
 51
270.0
  0
ARC
  5
231
  8
DETAIL
  6
CONTINUOUS
 62
     5
 10
72.0
 20
-317.0
 30
0.0
 40
10.0
 50
270.0
 51
0.0
  0
LINE
  5
232
  8
DETAIL
  6
CONTINUOUS
 62
     5
 10
275.0
 20
-20.0
 30
0.0
 11
275.0
 21
-180.26440600000001
 31
0.0
  0
ARC
  5
233
  8
DETAIL
  6
CONTINUOUS
 62
     5
 10
225.0
 20
-180.26440600000001
 30
0.0
 40
50.0
 50
270.0
 51
0.0
  0
CIRCLE
  5
235
  8
FIX
  6
CONTINUOUS
 62
    11
 10
325.0
 20
0.0
 30
0.0
 40
7.5
  0
LINE
  5
236
  8
DETAIL
  6
CONTINUOUS
 62
     5
 10
130.0
 20
-225.763856
 30
0.0
 11
-130.0
 21
-225.763856
 31
0.0
  0
LINE
  5
237
  8
DETAIL
  6
CONTINUOUS
 62
     5
 10
130.0
 20
-230.26440599999989
 30
0.0
 11
130.0
 21
-225.763856
 31
0.0
  0
LINE
  5
238
  8
DETAIL
  6
CONTINUOUS
 62
     5
 10
-130.0
 20
-230.26440599999989
 30
0.0
 11
-130.0
 21
-225.763856
 31
0.0
  0
LINE
  5
239
  8
DETAIL
  6
CONTINUOUS
 62
     5
 10
130.0
 20
-268.26440600000001
 30
0.0
 11
14.852179999999979
 21
-268.26440600000001
 31
0.0
  0
LINE
  5
23A
  8
DETAIL
  6
CONTINUOUS
 62
     5
 10
14.852179999999979
 20
-268.26440600000001
 30
0.0
 11
14.852179999999979
 21
-230.26440599999989
 31
0.0
  0
LINE
  5
23B
  8
DETAIL
  6
CONTINUOUS
 62
     5
 10
-14.852179999999979
 20
-230.26440599999989
 30
0.0
 11
-90.0
 21
-230.26440599999989
 31
0.0
  0
LINE
  5
23C
  8
DETAIL
  6
CONTINUOUS
 62
     5
 10
-14.852179999999979
 20
-268.26440600000001
 30
0.0
 11
-14.852179999999979
 21
-230.26440599999989
 31
0.0
  0
LINE
  5
23D
  8
DETAIL
  6
CONTINUOUS
 62
     5
 10
-130.0
 20
-268.26440600000001
 30
0.0
 11
-14.852179999999979
 21
-268.26440600000001
 31
0.0
  0
LINE
  5
23E
  8
NOTE
  6
CONTINUOUS
 62
     4
 10
325.0
 20
0.0
 30
0.0
 11
419.97747999999979
 21
87.953590000000005
 31
0.0
  0
ARC
  5
23F
  8
DETAIL
  6
CONTINUOUS
 62
     5
 10
360.88203399999992
 20
-48.922888
 30
0.0
 40
44.86703
 50
178.58988500000001
 51
259.23277100000001
  0
ARC
  5
240
  8
DETAIL
  6
CONTINUOUS
 62
     5
 10
-360.88203399999992
 20
-48.922888
 30
0.0
 40
44.86703
 50
280.76722899999982
 51
1.410115
  0
LINE
  5
241
  8
DETAIL
  6
CONTINUOUS
 62
     5
 10
-255.0
 20
-20.0
 30
0.0
 11
-255.0
 21
-10.0
 31
0.0
  0
LINE
  5
242
  8
DETAIL
  6
CONTINUOUS
 62
     5
 10
-315.0
 20
-20.0
 30
0.0
 11
-315.0
 21
-10.0
 31
0.0
  0
LINE
  5
243
  8
DETAIL
  6
CONTINUOUS
 62
     5
 10
-315.0
 20
-20.0
 30
0.0
 11
-255.0
 21
-20.0
 31
0.0
  0
LINE
  5
245
  8
DETAIL
  6
CONTINUOUS
 62
     5
 10
-90.0
 20
-230.26440599999989
 30
0.0
 11
-225.0
 21
-230.26440599999989
 31
0.0
  0
LINE
  5
246
  8
DETAIL
  6
CONTINUOUS
 62
     5
 10
-225.0
 20
-268.26440600000001
 30
0.0
 11
-130.0
 21
-268.26440600000001
 31
0.0
  0
ARC
  5
247
  8
DETAIL
  6
CONTINUOUS
 62
     5
 10
-225.0
 20
-198.26440600000001
 30
0.0
 40
70.0
 50
180.0
 51
270.0
  0
ARC
  5
248
  8
DETAIL
  6
CONTINUOUS
 62
     5
 10
-225.0
 20
-180.26440600000001
 30
0.0
 40
50.0
 50
180.0
 51
270.0
  0
LINE
  5
249
  8
DETAIL
  6
CONTINUOUS
 62
     5
 10
-295.0
 20
-20.0
 30
0.0
 11
-295.0
 21
-198.26440600000001
 31
0.0
  0
LINE
  5
24A
  8
DETAIL
  6
CONTINUOUS
 62
     5
 10
-275.0
 20
-20.0
 30
0.0
 11
-275.0
 21
-180.26440600000001
 31
0.0
  0
LINE
  5
24B
  8
DETAIL
  6
CONTINUOUS
 62
     5
 10
-315.0
 20
-20.0
 30
0.0
 11
-316.028592
 21
-47.818770000000001
 31
0.0
  0
LINE
  5
24C
  8
DETAIL
  6
CONTINUOUS
 62
     5
 10
315.0
 20
-20.0
 30
0.0
 11
316.028592
 21
-47.818770000000001
 31
0.0
  0
LINE
  5
24D
  8
SIZE
  6
CONTINUOUS
 62
    30
 10
-427.42211199999991
 20
0.0
 30
0.0
 11
-427.42211199999991
 21
132.923709
 31
0.0
  0
LINE
  5
24E
  8
SIZE
  6
CONTINUOUS
 62
    30
 10
-549.59055899999976
 20
2.0
 30
0.0
 11
-549.59055899999976
 21
132.923709
 31
0.0
  0
LINE
  5
24F
  8
OUTLINE
  6
CONTINUOUS
 62
     3
 10
315.0
 20
-20.0
 30
0.0
 11
316.028592
 21
-47.818770000000001
 31
0.0
  0
LINE
  5
250
  8
OUTLINE
  6
CONTINUOUS
 62
     3
 10
-315.0
 20
-20.0
 30
0.0
 11
-316.028592
 21
-47.818770000000001
 31
0.0
  0
LINE
  5
251
  8
OUTLINE
  6
CONTINUOUS
 62
     3
 10
-275.0
 20
-20.0
 30
0.0
 11
-275.0
 21
-180.26440600000001
 31
0.0
  0
LINE
  5
252
  8
OUTLINE
  6
CONTINUOUS
 62
     3
 10
-295.0
 20
-20.0
 30
0.0
 11
-295.0
 21
-198.26440600000001
 31
0.0
  0
ARC
  5
253
  8
OUTLINE
  6
CONTINUOUS
 62
     3
 10
-225.0
 20
-180.26440600000001
 30
0.0
 40
50.0
 50
180.0
 51
270.0
  0
ARC
  5
254
  8
OUTLINE
  6
CONTINUOUS
 62
     3
 10
-225.0
 20
-198.26440600000001
 30
0.0
 40
70.0
 50
180.0
 51
270.0
  0
LINE
  5
255
  8
OUTLINE
  6
CONTINUOUS
 62
     3
 10
-225.0
 20
-268.26440600000001
 30
0.0
 11
-130.0
 21
-268.26440600000001
 31
0.0
  0
LINE
  5
256
  8
OUTLINE
  6
CONTINUOUS
 62
     3
 10
-130.0
 20
-230.26440599999989
 30
0.0
 11
-225.0
 21
-230.26440599999989
 31
0.0
  0
LINE
  5
257
  8
OUTLINE
  6
CONTINUOUS
 62
     3
 10
-315.0
 20
-20.0
 30
0.0
 11
-255.0
 21
-20.0
 31
0.0
  0
LINE
  5
258
  8
OUTLINE
  6
CONTINUOUS
 62
     3
 10
-315.0
 20
-20.0
 30
0.0
 11
-315.0
 21
-10.0
 31
0.0
  0
LINE
  5
259
  8
OUTLINE
  6
CONTINUOUS
 62
     3
 10
-255.0
 20
-20.0
 30
0.0
 11
-255.0
 21
-10.0
 31
0.0
  0
ARC
  5
25A
  8
OUTLINE
  6
CONTINUOUS
 62
     3
 10
-360.88203399999992
 20
-48.922888
 30
0.0
 40
44.86703
 50
280.76722899999982
 51
1.410115
  0
ARC
  5
25B
  8
OUTLINE
  6
CONTINUOUS
 62
     3
 10
360.88203399999992
 20
-48.922888
 30
0.0
 40
44.86703
 50
178.58988500000001
 51
259.23277100000001
  0
LINE
  5
25C
  8
OUTLINE
  6
CONTINUOUS
 62
     3
 10
-130.0
 20
-230.26440599999989
 30
0.0
 11
-130.0
 21
-225.763856
 31
0.0
  0
LINE
  5
25D
  8
OUTLINE
  6
CONTINUOUS
 62
     3
 10
130.0
 20
-230.26440599999989
 30
0.0
 11
130.0
 21
-225.763856
 31
0.0
  0
LINE
  5
25E
  8
OUTLINE
  6
CONTINUOUS
 62
     3
 10
130.0
 20
-225.763856
 30
0.0
 11
-130.0
 21
-225.763856
 31
0.0
  0
ARC
  5
25F
  8
OUTLINE
  6
CONTINUOUS
 62
     3
 10
225.0
 20
-180.26440600000001
 30
0.0
 40
50.0
 50
270.0
 51
0.0
  0
LINE
  5
260
  8
OUTLINE
  6
CONTINUOUS
 62
     3
 10
275.0
 20
-20.0
 30
0.0
 11
275.0
 21
-180.26440600000001
 31
0.0
  0
ARC
  5
261
  8
OUTLINE
  6
CONTINUOUS
 62
     3
 10
72.0
 20
-317.0
 30
0.0
 40
10.0
 50
270.0
 51
0.0
  0
ARC
  5
262
  8
OUTLINE
  6
CONTINUOUS
 62
     3
 10
-72.0
 20
-317.0
 30
0.0
 40
10.0
 50
180.0
 51
270.0
  0
LINE
  5
263
  8
OUTLINE
  6
CONTINUOUS
 62
     3
 10
-82.0
 20
-277.76605399999983
 30
0.0
 11
-82.0
 21
-317.0
 31
0.0
  0
LINE
  5
264
  8
OUTLINE
  6
CONTINUOUS
 62
     3
 10
82.0
 20
-277.76605399999983
 30
0.0
 11
82.0
 21
-317.0
 31
0.0
  0
LINE
  5
265
  8
OUTLINE
  6
CONTINUOUS
 62
     3
 10
295.0
 20
-93.0
 30
0.0
 11
352.49999999999977
 21
-93.0
 31
0.0
  0
LINE
  5
266
  8
OUTLINE
  6
CONTINUOUS
 62
     3
 10
-295.0
 20
-93.0
 30
0.0
 11
-352.49999999999977
 21
-93.0
 31
0.0
  0
LINE
  5
267
  8
OUTLINE
  6
CONTINUOUS
 62
     3
 10
275.0
 20
-93.0
 30
0.0
 11
-275.0
 21
-93.0
 31
0.0
  0
ARC
  5
268
  8
OUTLINE
  6
CONTINUOUS
 62
     3
 10
348.0
 20
-3.0
 30
0.0
 40
7.0
 50
270.0
 51
0.0
  0
ARC
  5
269
  8
OUTLINE
  6
CONTINUOUS
 62
     3
 10
-348.0
 20
-3.0
 30
0.0
 40
7.0
 50
180.0
 51
270.0
  0
ARC
  5
26A
  8
OUTLINE
  6
CONTINUOUS
 62
     3
 10
225.0
 20
-198.26440600000001
 30
0.0
 40
70.0
 50
270.0
 51
0.0
  0
LINE
  5
26B
  8
OUTLINE
  6
CONTINUOUS
 62
     3
 10
255.0
 20
-20.0
 30
0.0
 11
255.0
 21
-10.0
 31
0.0
  0
LINE
  5
26C
  8
OUTLINE
  6
CONTINUOUS
 62
     3
 10
225.0
 20
-268.26440600000001
 30
0.0
 11
130.0
 21
-268.26440600000001
 31
0.0
  0
LINE
  5
26D
  8
OUTLINE
  6
CONTINUOUS
 62
     3
 10
130.0
 20
-230.26440599999989
 30
0.0
 11
225.0
 21
-230.26440599999989
 31
0.0
  0
LINE
  5
26E
  8
OUTLINE
  6
CONTINUOUS
 62
     3
 10
315.0
 20
-20.0
 30
0.0
 11
315.0
 21
-10.0
 31
0.0
  0
LINE
  5
26F
  8
OUTLINE
  6
CONTINUOUS
 62
     3
 10
72.0
 20
-327.0
 30
0.0
 11
-72.0
 21
-327.0
 31
0.0
  0
LINE
  5
270
  8
OUTLINE
  6
CONTINUOUS
 62
     3
 10
-130.0
 20
-277.76605399999983
 30
0.0
 11
-130.0
 21
-230.26440599999989
 31
0.0
  0
LINE
  5
271
  8
OUTLINE
  6
CONTINUOUS
 62
     3
 10
130.0
 20
-277.76605399999983
 30
0.0
 11
130.0
 21
-230.26440599999989
 31
0.0
  0
LINE
  5
272
  8
OUTLINE
  6
CONTINUOUS
 62
     3
 10
130.0
 20
-277.76605399999983
 30
0.0
 11
-130.0
 21
-277.76605399999983
 31
0.0
  0
LINE
  5
273
  8
OUTLINE
  6
CONTINUOUS
 62
     3
 10
315.0
 20
-20.0
 30
0.0
 11
255.0
 21
-20.0
 31
0.0
  0
LINE
  5
274
  8
OUTLINE
  6
CONTINUOUS
 62
     3
 10
-335.49999999999989
 20
-10.0
 30
0.0
 11
-348.0
 21
-10.0
 31
0.0
  0
LINE
  5
275
  8
OUTLINE
  6
CONTINUOUS
 62
     3
 10
335.49999999999989
 20
-10.0
 30
0.0
 11
-335.49999999999989
 21
-10.0
 31
0.0
  0
LINE
  5
276
  8
OUTLINE
  6
CONTINUOUS
 62
     3
 10
-355.0
 20
-3.0
 30
0.0
 11
-355.0
 21
0.0
 31
0.0
  0
LINE
  5
277
  8
OUTLINE
  6
CONTINUOUS
 62
     3
 10
355.0
 20
-3.0
 30
0.0
 11
355.0
 21
0.0
 31
0.0
  0
LINE
  5
278
  8
OUTLINE
  6
CONTINUOUS
 62
     3
 10
348.0
 20
-10.0
 30
0.0
 11
335.49999999999989
 21
-10.0
 31
0.0
  0
LINE
  5
279
  8
OUTLINE
  6
CONTINUOUS
 62
     3
 10
295.0
 20
-20.0
 30
0.0
 11
295.0
 21
-198.26440600000001
 31
0.0
  0
LINE
  5
27A
  8
OUTLINE
  6
CONTINUOUS
 62
     3
 10
355.0
 20
0.0
 30
0.0
 11
-355.0
 21
0.0
 31
0.0
  0
LINE
  5
27C
  8
SIZE
  6
CONTINUOUS
 62
    30
 10
-86.0
 20
-543.89918699999976
 30
0.0
 11
-306.80361799999997
 21
-543.89918699999976
 31
0.0
  0
LINE
  5
27D
  8
SIZE
  6
BYBLOCK
 62
    30
 10
-352.49999999999977
 20
-113.0
 30
0.0
 11
-352.49999999999977
 21
-723.56964699999969
 31
0.0
  0
LINE
  5
27E
  8
SIZE
  6
BYBLOCK
 62
    30
 10
352.49999999999977
 20
-113.0
 30
0.0
 11
352.49999999999977
 21
-723.56964699999969
 31
0.0
  0
LINE
  5
27F
  8
SIZE
  6
BYBLOCK
 62
    30
 10
-350.49999999999977
 20
-693.5696469999998
 30
0.0
 11
0.0
 21
-693.5696469999998
 31
0.0
  0
LINE
  5
280
  8
SIZE
  6
BYBLOCK
 62
    30
 10
350.49999999999977
 20
-693.5696469999998
 30
0.0
 11
0.0
 21
-693.5696469999998
 31
0.0
  0
TEXT
  5
281
  8
SIZE
  6
BYBLOCK
 62
    30
 10
-102.85714299999989
 20
-668.79094999999995
 30
0.0
 40
64.0
  1
φ705
 41
0.9
  0
LINE
  5
282
  8
SIZE
  6
BYBLOCK
 62
    30
 10
82.0
 20
-337.0
 30
0.0
 11
82.0
 21
-573.89918699999976
 31
0.0
  0
LINE
  5
283
  8
SIZE
  6
BYBLOCK
 62
    30
 10
-82.0
 20
-337.0
 30
0.0
 11
-82.0
 21
-573.89918699999976
 31
0.0
  0
LINE
  5
284
  8
SIZE
  6
BYBLOCK
 62
    30
 10
-84.0
 20
-543.89918699999976
 30
0.0
 11
-86.0
 21
-543.89918699999976
 31
0.0
  0
LINE
  5
285
  8
SIZE
  6
BYBLOCK
 62
    30
 10
84.0
 20
-543.89918699999976
 30
0.0
 11
86.0
 21
-543.89918699999976
 31
0.0
  0
LINE
  5
286
  8
SIZE
  6
BYBLOCK
 62
    30
 10
-82.0
 20
-543.89918699999976
 30
0.0
 11
82.0
 21
-543.89918699999976
 31
0.0
  0
TEXT
  5
287
  8
SIZE
  6
BYBLOCK
 62
    30
 10
-315.5794029999999
 20
-513.63054999999986
 30
0.0
 40
64.0
  1
φ164
 41
0.9
  0
LINE
  5
288
  8
SIZE
  6
BYBLOCK
 62
    30
 10
-355.0
 20
20.0
 30
0.0
 11
-355.0
 21
408.80068299999999
 31
0.0
  0
LINE
  5
289
  8
SIZE
  6
BYBLOCK
 62
    30
 10
355.0
 20
20.0
 30
0.0
 11
355.0
 21
408.80068299999999
 31
0.0
  0
LINE
  5
28A
  8
SIZE
  6
BYBLOCK
 62
    30
 10
-353.0
 20
378.80068299999999
 30
0.0
 11
0.0
 21
378.80068299999999
 31
0.0
  0
LINE
  5
28B
  8
SIZE
  6
BYBLOCK
 62
    30
 10
353.0
 20
378.80068299999999
 30
0.0
 11
0.0
 21
378.80068299999999
 31
0.0
  0
TEXT
  5
28C
  8
SIZE
  6
BYBLOCK
 62
    30
 10
-68.571429000000009
 20
409.06932
 30
0.0
 40
64.0
  1
710
 41
0.9
  0
LINE
  5
28D
  8
SIZE
  6
BYBLOCK
 62
    30
 10
-325.0
 20
40.0
 30
0.0
 11
-325.0
 21
283.696327
 31
0.0
  0
LINE
  5
28E
  8
SIZE
  6
BYBLOCK
 62
    30
 10
325.0
 20
40.0
 30
0.0
 11
325.0
 21
283.696327
 31
0.0
  0
LINE
  5
28F
  8
SIZE
  6
BYBLOCK
 62
    30
 10
-323.0
 20
253.696327
 30
0.0
 11
0.0
 21
253.696327
 31
0.0
  0
LINE
  5
290
  8
SIZE
  6
BYBLOCK
 62
    30
 10
323.0
 20
253.696327
 30
0.0
 11
0.0
 21
253.696327
 31
0.0
  0
TEXT
  5
291
  8
SIZE
  6
BYBLOCK
 62
    30
 10
-74.057143000000025
 20
283.96496400000001
 30
0.0
 40
64.0
  1
650
 41
0.9
  0
LINE
  5
292
  8
SIZE
  6
BYBLOCK
 62
    30
 10
-375.0
 20
0.0
 30
0.0
 11
-673.46292500000004
 21
0.0
 31
0.0
  0
LINE
  5
293
  8
SIZE
  6
BYBLOCK
 62
    30
 10
-92.0
 20
-327.0
 30
0.0
 11
-673.46292500000004
 21
-327.0
 31
0.0
  0
LINE
  5
294
  8
SIZE
  6
BYBLOCK
 62
    30
 10
-643.46292500000004
 20
-2.0
 30
0.0
 11
-643.46292500000004
 21
-163.4999999999998
 31
0.0
  0
LINE
  5
295
  8
SIZE
  6
BYBLOCK
 62
    30
 10
-643.46292500000004
 20
-325.0
 30
0.0
 11
-643.46292500000004
 21
-163.4999999999998
 31
0.0
  0
TEXT
  5
296
  8
SIZE
  6
BYBLOCK
 62
    30
 10
-675.46292500000004
 20
-237.557143
 30
0.0
 40
64.0
  1
327
 50
90.0
 41
0.9
  0
LINE
  5
297
  8
SIZE
  6
BYBLOCK
 62
    30
 10
-375.0
 20
0.0
 30
0.0
 11
-579.59055899999998
 21
0.0
 31
0.0
  0
LINE
  5
298
  8
SIZE
  6
BYBLOCK
 62
    30
 10
-372.5
 20
-93.0
 30
0.0
 11
-579.59055899999998
 21
-93.0
 31
0.0
  0
LINE
  5
299
  8
SIZE
  6
BYBLOCK
 62
    30
 10
-549.59055899999976
 20
-95.0
 30
0.0
 11
-549.59055899999976
 21
-97.0
 31
0.0
  0
LINE
  5
29A
  8
SIZE
  6
BYBLOCK
 62
    30
 10
-549.59055899999976
 20
2.0
 30
0.0
 11
-549.59055899999976
 21
4.0
 31
0.0
  0
LINE
  5
29B
  8
SIZE
  6
BYBLOCK
 62
    30
 10
-549.59055899999976
 20
-93.0
 30
0.0
 11
-549.59055899999976
 21
0.0
 31
0.0
  0
TEXT
  5
29C
  8
SIZE
  6
BYBLOCK
 62
    30
 10
-581.59055899999976
 20
27.550218000000001
 30
0.0
 40
64.0
  1
93
 50
90.0
 41
0.9
  0
LINE
  5
29D
  8
SIZE
  6
BYBLOCK
 62
    30
 10
-375.0
 20
0.0
 30
0.0
 11
-457.42211200000003
 21
0.0
 31
0.0
  0
LINE
  5
29E
  8
SIZE
  6
BYBLOCK
 62
    30
 10
-368.0
 20
-10.0
 30
0.0
 11
-457.42211200000003
 21
-10.0
 31
0.0
  0
LINE
  5
29F
  8
SIZE
  6
BYBLOCK
 62
    30
 10
-427.42211199999991
 20
-12.0
 30
0.0
 11
-427.42211199999991
 21
-14.0
 31
0.0
  0
LINE
  5
2A0
  8
SIZE
  6
BYBLOCK
 62
    30
 10
-427.42211199999991
 20
2.0
 30
0.0
 11
-427.42211199999991
 21
4.0
 31
0.0
  0
LINE
  5
2A1
  8
SIZE
  6
BYBLOCK
 62
    30
 10
-427.42211199999991
 20
-10.0
 30
0.0
 11
-427.42211199999991
 21
0.0
 31
0.0
  0
TEXT
  5
2A2
  8
SIZE
  6
BYBLOCK
 62
    30
 10
-459.42211200000003
 20
35.799531000000002
 30
0.0
 40
64.0
  1
10
 50
90.0
 41
0.9
  0
CIRCLE
  5
2A3
  8
SIZE
  6
CONTINUOUS
 62
    30
 10
-427.42211199999991
 20
0.0
 30
0.0
 40
6.0
  0
CIRCLE
  5
2A4
  8
SIZE
  6
CONTINUOUS
 62
    30
 10
-427.42211199999991
 20
-10.0
 30
0.0
 40
6.0
  0
CIRCLE
  5
2A5
  8
SIZE
  6
CONTINUOUS
 62
    30
 10
-549.59055899999976
 20
0.0
 30
0.0
 40
6.0
  0
CIRCLE
  5
2A6
  8
SIZE
  6
CONTINUOUS
 62
    30
 10
-549.59055899999976
 20
-93.0
 30
0.0
 40
6.0
  0
CIRCLE
  5
2A7
  8
SIZE
  6
CONTINUOUS
 62
    30
 10
-643.46292500000004
 20
-327.0
 30
0.0
 40
6.0
  0
CIRCLE
  5
2A8
  8
SIZE
  6
CONTINUOUS
 62
    30
 10
-643.46292500000004
 20
0.0
 30
0.0
 40
6.0
  0
CIRCLE
  5
2A9
  8
SIZE
  6
CONTINUOUS
 62
    30
 10
325.0
 20
253.696327
 30
0.0
 40
6.0
  0
CIRCLE
  5
2AA
  8
SIZE
  6
CONTINUOUS
 62
    30
 10
-325.0
 20
253.696327
 30
0.0
 40
6.0
  0
CIRCLE
  5
2AB
  8
SIZE
  6
CONTINUOUS
 62
    30
 10
355.0
 20
378.80068299999999
 30
0.0
 40
6.0
  0
CIRCLE
  5
2AC
  8
SIZE
  6
CONTINUOUS
 62
    30
 10
-355.0
 20
378.80068299999999
 30
0.0
 40
6.0
  0
CIRCLE
  5
2AD
  8
SIZE
  6
CONTINUOUS
 62
    30
 10
82.0
 20
-543.89918699999976
 30
0.0
 40
6.0
  0
CIRCLE
  5
2AE
  8
SIZE
  6
CONTINUOUS
 62
    30
 10
-82.0
 20
-543.89918699999976
 30
0.0
 40
6.0
  0
CIRCLE
  5
2AF
  8
SIZE
  6
CONTINUOUS
 62
    30
 10
352.49999999999977
 20
-693.5696469999998
 30
0.0
 40
6.0
  0
CIRCLE
  5
2B0
  8
SIZE
  6
CONTINUOUS
 62
    30
 10
-352.49999999999977
 20
-693.5696469999998
 30
0.0
 40
6.0
  0
LINE
  5
2B6
  8
NOTE
  6
CONTINUOUS
 62
     4
 10
325.0
 20
-20.0
 30
0.0
 11
325.0
 21
20.0
 31
0.0
  0
LINE
  5
2B7
  8
NOTE
  6
CONTINUOUS
 62
     4
 10
305.0
 20
0.0
 30
0.0
 11
345.0
 21
0.0
 31
0.0
  0
LINE
  5
2B8
  8
NOTE
  6
CONTINUOUS
 62
     4
 10
-325.0
 20
-20.0
 30
0.0
 11
-325.0
 21
20.0
 31
0.0
  0
LINE
  5
2B9
  8
NOTE
  6
CONTINUOUS
 62
     4
 10
-345.0
 20
0.0
 30
0.0
 11
-305.0
 21
0.0
 31
0.0
  0
ARC
  5
31A
  8
DETAIL
  6
CONTINUOUS
 62
     5
 10
-88.040746999999769
 20
196.29992099999981
 30
0.0
 40
363.67505799999992
 50
275.2337839999991
 51
307.29842500000279
  0
ARC
  5
31C
  8
DETAIL
  6
CONTINUOUS
 62
     5
 10
48.706089000000127
 20
-333.46999299999982
 30
0.0
 40
301.54009600000001
 50
127.11056400000091
 51
141.97419500000191
  0
ARC
  5
31D
  8
DETAIL
  6
CONTINUOUS
 62
     5
 10
-163.3642159999998
 20
-163.57956399999969
 30
0.0
 40
30.0
 50
148.0774130000004
 51
180.0
  0
ARC
  5
31E
  8
DETAIL
  6
CONTINUOUS
 62
     5
 10
-201.0429479999996
 20
-80.440746000000004
 30
0.0
 40
93.132536999999999
 50
215.97493600000161
 51
274.7293780000021
  0
LINE
  5
31F
  8
DETAIL
  6
CONTINUOUS
 62
     5
 10
-193.3642159999998
 20
-173.2561899999998
 30
0.0
 11
-193.3642159999998
 21
-163.57956399999969
 31
0.0
  0
ARC
  5
320
  8
DETAIL
  6
CONTINUOUS
 62
     5
 10
-143.4863979999997
 20
23.766467999999929
 30
0.0
 40
209.311455
 50
295.04868700000128
 51
326.0920750000011
  0
ARC
  5
321
  8
DETAIL
  6
CONTINUOUS
 62
     5
 10
296.44495899999981
 20
312.49232799999982
 30
0.0
 40
481.39577400000002
 50
244.4048580000015
 51
267.03293699999813
  0
ARC
  5
322
  8
DETAIL
  6
CONTINUOUS
 62
     5
 10
313.2691369999996
 20
106.0928669999999
 30
0.0
 40
277.50831699999992
 50
227.39161999999791
 51
261.34887300000031
  0
TEXT
  5
32E
  8
ETC
  6
CONTINUOUS
 62
    61
 10
679.31502056940337
 20
525.36019014442695
 30
0.0
 40
64.0
  1
EG-60FTXB3-F_1
 41
0.9
  0
TEXT
  5
32F
  8
ETC
  6
CONTINUOUS
 62
    61
 10
670.71734456940351
 20
419.69555014442687
 30
0.0
 40
64.0
  1
産業扇
 41
0.9
  0
TEXT
  5
330
  8
ETC
  6
CONTINUOUS
 62
    61
 10
803.61888651821914
 20
335.79633962019642
 30
0.0
 40
50.0
  1
EG-60FTXB3-F
 41
0.9
  0
LINE
  5
331
  8
NOTE
  6
CONTINUOUS
 62
     4
 10
360.40316300000001
 20
18.617626999999992
 30
0.0
 11
325.0
 21
0.0
 31
0.0
  0
LINE
  5
332
  8
NOTE
  6
CONTINUOUS
 62
     4
 10
325.0
 20
0.0
 30
0.0
 11
346.35122599999983
 21
33.824919000000001
 31
0.0
  0
ENDSEC
  0
EOF
