  0
SECTION
  2
HEADER
  9
$ACADVER
  1
AC1009
  9
$DWGCODEPAGE
  3
ansi_932
  9
$INSBASE
 10
0.0
 20
0.0
 30
0.0
  9
$EXTMIN
 10
-1258.815194098882
 20
-663.5750134999998
 30
0.0
  9
$EXTMAX
 10
1013.579510517317
 20
730.0273620884869
 30
0.0
  9
$LIMMIN
 10
-2970.0
 20
-2100.0
  9
$LIMMAX
 10
2970.0
 20
2100.0
  9
$ORTHOMODE
 70
     1
  9
$REGENMODE
 70
     0
  9
$FILLMODE
 70
     1
  9
$QTEXTMODE
 70
     0
  9
$MIRRTEXT
 70
     0
  9
$DRAGMODE
 70
     2
  9
$LTSCALE
 40
20.0
  9
$OSMODE
 70
    37
  9
$ATTMODE
 70
     1
  9
$TEXTSIZE
 40
64.0
  9
$TRACEWID
 40
0.05
  9
$TEXTSTYLE
  7
STANDARD
  9
$CLAYER
  8
SIZE
  9
$CELTYPE
  6
CONTINUOUS
  9
$CECOLOR
 62
    30
  9
$DIMSCALE
 40
1.0
  9
$DIMASZ
 40
2.0
  9
$DIMEXO
 40
20.0
  9
$DIMDLI
 40
200.0
  9
$DIMRND
 40
0.0
  9
$DIMDLE
 40
0.0
  9
$DIMEXE
 40
30.0
  9
$DIMTP
 40
0.0
  9
$DIMTM
 40
0.0
  9
$DIMTXT
 40
64.0
  9
$DIMCEN
 40
0.09
  9
$DIMTSZ
 40
0.0
  9
$DIMTOL
 70
     0
  9
$DIMLIM
 70
     0
  9
$DIMTIH
 70
     0
  9
$DIMTOH
 70
     0
  9
$DIMSE1
 70
     0
  9
$DIMSE2
 70
     0
  9
$DIMTAD
 70
     1
  9
$DIMZIN
 70
     8
  9
$DIMBLK
  1

  9
$DIMASO
 70
     1
  9
$DIMSHO
 70
     0
  9
$DIMPOST
  1

  9
$DIMAPOST
  1

  9
$DIMALT
 70
     0
  9
$DIMALTD
 70
     2
  9
$DIMALTF
 40
25.4
  9
$DIMLFAC
 40
1.0
  9
$DIMTOFL
 70
     1
  9
$DIMTVP
 40
0.0
  9
$DIMTIX
 70
     1
  9
$DIMSOXD
 70
     0
  9
$DIMSAH
 70
     0
  9
$DIMBLK1
  1

  9
$DIMBLK2
  1

  9
$DIMSTYLE
  2
STANDARD
  9
$DIMCLRD
 70
     0
  9
$DIMCLRE
 70
     0
  9
$DIMCLRT
 70
     0
  9
$DIMTFAC
 40
1.0
  9
$DIMGAP
 40
0.09
  9
$LUNITS
 70
     2
  9
$LUPREC
 70
     4
  9
$SKETCHINC
 40
0.1
  9
$FILLETRAD
 40
5.0
  9
$AUNITS
 70
     1
  9
$AUPREC
 70
     3
  9
$MENU
  1
ACAD
  9
$ELEVATION
 40
0.0
  9
$PELEVATION
 40
0.0
  9
$THICKNESS
 40
0.0
  9
$LIMCHECK
 70
     1
  9
$CHAMFERA
 40
0.0
  9
$CHAMFERB
 40
0.0
  9
$SKPOLY
 70
     0
  9
$TDCREATE
 40
2451485.3875
  9
$TDUPDATE
 40
2457485.555968449
  9
$TDINDWG
 40
0.0222858681
  9
$TDUSRTIMER
 40
0.022285162
  9
$USRTIMER
 70
     1
  9
$ANGBASE
 50
0.0
  9
$ANGDIR
 70
     0
  9
$PDMODE
 70
     3
  9
$PDSIZE
 40
-2.0
  9
$PLINEWID
 40
0.0
  9
$COORDS
 70
     1
  9
$SPLFRAME
 70
     0
  9
$SPLINETYPE
 70
     6
  9
$SPLINESEGS
 70
     8
  9
$ATTDIA
 70
     0
  9
$ATTREQ
 70
     1
  9
$HANDLING
 70
     1
  9
$HANDSEED
  5
572
  9
$SURFTAB1
 70
     6
  9
$SURFTAB2
 70
     6
  9
$SURFTYPE
 70
     6
  9
$SURFU
 70
     6
  9
$SURFV
 70
     6
  9
$UCSNAME
  2

  9
$UCSORG
 10
0.0
 20
0.0
 30
0.0
  9
$UCSXDIR
 10
1.0
 20
0.0
 30
0.0
  9
$UCSYDIR
 10
0.0
 20
1.0
 30
0.0
  9
$PUCSNAME
  2

  9
$PUCSORG
 10
0.0
 20
0.0
 30
0.0
  9
$PUCSXDIR
 10
1.0
 20
0.0
 30
0.0
  9
$PUCSYDIR
 10
0.0
 20
1.0
 30
0.0
  9
$USERI1
 70
     0
  9
$USERI2
 70
     0
  9
$USERI3
 70
     0
  9
$USERI4
 70
     0
  9
$USERI5
 70
     0
  9
$USERR1
 40
20.0
  9
$USERR2
 40
0.0
  9
$USERR3
 40
0.0
  9
$USERR4
 40
0.0
  9
$USERR5
 40
0.0
  9
$WORLDVIEW
 70
     1
  9
$SHADEDGE
 70
     3
  9
$SHADEDIF
 70
    70
  9
$TILEMODE
 70
     1
  9
$MAXACTVP
 70
    64
  9
$PLIMCHECK
 70
     0
  9
$PEXTMIN
 10
1.000000000000000E+20
 20
1.000000000000000E+20
 30
1.000000000000000E+20
  9
$PEXTMAX
 10
-1.000000000000000E+20
 20
-1.000000000000000E+20
 30
-1.000000000000000E+20
  9
$PLIMMIN
 10
0.0
 20
0.0
  9
$PLIMMAX
 10
12.0
 20
9.0
  9
$UNITMODE
 70
     0
  9
$VISRETAIN
 70
     1
  9
$PLINEGEN
 70
     0
  9
$PSLTSCALE
 70
     1
  0
ENDSEC
  0
SECTION
  2
TABLES
  0
TABLE
  2
VPORT
 70
     1
  0
VPORT
  2
*ACTIVE
 70
     0
 10
0.0
 20
0.0
 11
1.0
 21
1.0
 12
-122.6264792948895
 22
30.53445238160384
 13
0.0
 23
0.0
 14
400.0
 24
400.0
 15
400.0
 25
400.0
 16
0.0
 26
0.0
 36
1.0
 17
0.0
 27
0.0
 37
0.0
 40
1919.699406759317
 41
1.493654822335025
 42
50.0
 43
0.0
 44
0.0
 50
0.0
 51
0.0
 71
     0
 72
  1000
 73
     1
 74
     0
 75
     0
 76
     0
 77
     0
 78
     0
  0
ENDTAB
  0
TABLE
  2
LTYPE
 70
     7
  0
LTYPE
  2
CONTINUOUS
 70
     0
  3
実線
 72
    65
 73
     0
 40
0.0
  0
LTYPE
  2
DASHDOT
 70
     0
  3
____ _ ____ _ ____ _ ____ _ ____ _ ____ _ ____
 72
    65
 73
     4
 40
5.5
 49
4.0
 49
-0.6
 49
0.3
 49
-0.6
  0
LTYPE
  2
DASHED
 70
     0
  3
_ _ _ _ _ _ _ _ _ _ _ _ _ _ _ _ _ _ _ _ _ _ _
 72
    65
 73
     2
 40
1.999999999999999
 49
1.199999999999999
 49
-0.8
  0
LTYPE
  2
DOT
 70
     0
  3
...............................................
 72
    65
 73
     2
 40
0.8
 49
0.5
 49
-0.3
  0
LTYPE
  2
DASHDOT1
 70
     0
  3
____ _ ____ _ ____ _ ____ _ ____ _ ____ _ ____
 72
    65
 73
     4
 40
2.0
 49
1.5
 49
-0.2
 49
0.1
 49
-0.2
  0
LTYPE
  2
DIVIDE
 70
     0
  3
_____ _ _ _____ _ _ _____ _ _ _____ _ _ ____
 72
    65
 73
     6
 40
6.4
 49
4.0
 49
-0.6
 49
0.3
 49
-0.6
 49
0.3
 49
-0.6
  0
LTYPE
  2
DIVIDE1
 70
     0
  3
_____ _ _ _____ _ _ _____ _ _ _____ _ _ ____
 72
    65
 73
     6
 40
3.2
 49
2.0
 49
-0.3
 49
0.15
 49
-0.3
 49
0.15
 49
-0.3
  0
ENDTAB
  0
TABLE
  2
LAYER
 70
    12
  0
LAYER
  2
0
 70
     0
 62
     7
  6
CONTINUOUS
  0
LAYER
  2
DETAIL
 70
     0
 62
     5
  6
CONTINUOUS
  0
LAYER
  2
OUTLINE
 70
     0
 62
     3
  6
CONTINUOUS
  0
LAYER
  2
BASIS
 70
     0
 62
     6
  6
DASHDOT
  0
LAYER
  2
NOTE
 70
     0
 62
     4
  6
CONTINUOUS
  0
LAYER
  2
DEFPOINTS
 70
     0
 62
     7
  6
CONTINUOUS
  0
LAYER
  2
SIZE
 70
     0
 62
    30
  6
CONTINUOUS
  0
LAYER
  2
ARRANGE
 70
     0
 62
     1
  6
CONTINUOUS
  0
LAYER
  2
FIX
 70
     0
 62
    11
  6
CONTINUOUS
  0
LAYER
  2
ETC
 70
     0
 62
    61
  6
CONTINUOUS
  0
LAYER
  2
SERVICESPACE
 70
     0
 62
     2
  6
DASHDOT
  0
LAYER
  2
SYMBOLLINE
 70
     0
 62
    15
  6
CONTINUOUS
  0
ENDTAB
  0
TABLE
  2
STYLE
 70
     1
  0
STYLE
  2
STANDARD
 70
     0
 40
0.0
 41
0.9
 50
0.0
 71
     0
 42
64.0
  3
SIMPLEX
  4
BIGFONT
  0
ENDTAB
  0
TABLE
  2
VIEW
 70
     1
  0
VIEW
  2
ALL
 70
     0
 40
4508.020851
 10
0.0
 20
41.30990399999999
 41
6252.631578999999
 11
0.0
 21
0.0
 31
1.0
 12
0.0
 22
0.0
 32
0.0
 42
50.0
 43
0.0
 44
0.0
 50
0.0
 71
     0
  0
ENDTAB
  0
TABLE
  2
UCS
 70
     0
  0
ENDTAB
  0
TABLE
  2
APPID
 70
     1
  0
APPID
  2
ACAD
 70
     0
  0
ENDTAB
  0
TABLE
  2
DIMSTYLE
 70
     1
  0
DIMSTYLE
  2
STANDARD
 70
     0
  3

  4

  5

  6

  7

 40
1.0
 41
0.18
 42
0.0625
 43
0.38
 44
0.18
 45
0.0
 46
0.0
 47
0.0
 48
0.0
140
0.18
141
0.09
142
0.0
143
25.4
144
1.0
145
0.0
146
1.0
147
0.09
 71
     0
 72
     0
 73
     1
 74
     1
 75
     0
 76
     0
 77
     0
 78
     0
170
     0
171
     2
172
     0
173
     0
174
     0
175
     0
176
     0
177
     0
178
     0
  0
ENDTAB
  0
ENDSEC
  0
SECTION
  2
BLOCKS
  0
BLOCK
  8
0
  2
$MODEL_SPACE
 70
     0
 10
0.0
 20
0.0
 30
0.0
  3
$MODEL_SPACE
  1

  0
ENDBLK
  5
3F6
  8
0
  0
BLOCK
 67
     1
  8
0
  2
$PAPER_SPACE
 70
     0
 10
0.0
 20
0.0
 30
0.0
  3
$PAPER_SPACE
  1

  0
ENDBLK
  5
3F2
 67
     1
  8
0
  0
BLOCK
  8
0
  2
DOT1
 70
     0
 10
0.0
 20
0.0
 30
0.0
  3
DOT1
  1

  0
CIRCLE
  5
416
  8
SIZE
  6
CONTINUOUS
 62
     7
 10
0.0
 20
0.0
 30
0.0
 40
3.0
  0
ENDBLK
  5
417
  8
0
  0
BLOCK
  8
0
  2
_ORIGIN
 70
     0
 10
0.0
 20
0.0
 30
0.0
  3
_ORIGIN
  1

  0
CIRCLE
  5
41A
  8
0
  6
CONTINUOUS
 62
     7
 10
0.0
 20
0.0
 30
0.0
 40
0.5
  0
LINE
  5
41B
  8
0
  6
CONTINUOUS
 62
     7
 10
0.0
 20
0.0
 30
0.0
 11
-1.0
 21
0.0
 31
0.0
  0
ENDBLK
  5
41C
  8
0
  0
ENDSEC
  0
SECTION
  2
ENTITIES
  0
LINE
  5
41D
  8
BASIS
  6
DASHDOT
 62
     6
 10
0.0
 20
447.1251209999999
 30
0.0
 11
0.0
 21
-448.6301589999999
 31
0.0
  0
LINE
  5
41E
  8
BASIS
  6
DASHDOT
 62
     6
 10
-457.2582299999999
 20
0.0
 30
0.0
 11
457.9924369999999
 21
0.0
 31
0.0
  0
LINE
  5
41F
  8
DETAIL
  6
CONTINUOUS
 62
     5
 10
355.0000049999999
 20
327.6923129999999
 30
0.0
 11
355.0000049999999
 21
-327.6923129999998
 31
0.0
  0
LINE
  5
420
  8
DETAIL
  6
CONTINUOUS
 62
     5
 10
-355.0000049999999
 20
327.6923129999999
 30
0.0
 11
-355.0000049999999
 21
-327.6923129999998
 31
0.0
  0
LINE
  5
421
  8
DETAIL
  6
CONTINUOUS
 62
     5
 10
-327.6923129999999
 20
355.0000049999999
 30
0.0
 11
327.692313
 21
355.0000049999999
 31
0.0
  0
LINE
  5
422
  8
DETAIL
  6
CONTINUOUS
 62
     5
 10
-327.6923129999999
 20
-355.0000049999998
 30
0.0
 11
327.692313
 21
-355.0000049999998
 31
0.0
  0
ARC
  5
423
  8
DETAIL
  6
CONTINUOUS
 62
     5
 10
-327.6923129999999
 20
327.6923129999999
 30
0.0
 40
27.307693
 50
90.0
 51
180.0
  0
ARC
  5
424
  8
DETAIL
  6
CONTINUOUS
 62
     5
 10
-327.6923129999999
 20
-327.6923129999998
 30
0.0
 40
27.307693
 50
180.0
 51
270.0
  0
ARC
  5
425
  8
DETAIL
  6
CONTINUOUS
 62
     5
 10
327.692313
 20
-327.6923129999998
 30
0.0
 40
27.307693
 50
270.0
 51
0.0
  0
ARC
  5
426
  8
DETAIL
  6
CONTINUOUS
 62
     5
 10
327.692313
 20
327.6923129999999
 30
0.0
 40
27.307693
 50
0.0
 51
90.0
  0
LINE
  5
427
  8
DETAIL
  6
CONTINUOUS
 62
     5
 10
325.0
 20
314.3933979999999
 30
0.0
 11
335.606602
 21
325.0000000000001
 31
0.0
  0
LINE
  5
428
  8
DETAIL
  6
CONTINUOUS
 62
     5
 10
314.3933979999999
 20
325.0000000000001
 30
0.0
 11
325.0
 21
335.6066019999999
 31
0.0
  0
LINE
  5
429
  8
DETAIL
  6
CONTINUOUS
 62
     5
 10
335.606602
 20
325.0000000000001
 30
0.0
 11
325.0
 21
335.6066019999999
 31
0.0
  0
LINE
  5
42A
  8
DETAIL
  6
CONTINUOUS
 62
     5
 10
325.0
 20
314.3933979999999
 30
0.0
 11
314.3933979999999
 21
325.0000000000001
 31
0.0
  0
CIRCLE
  5
42B
  8
FIX
  6
CONTINUOUS
 62
    11
 10
325.0
 20
325.0000000000001
 30
0.0
 40
7.5
  0
CIRCLE
  5
42C
  8
FIX
  6
CONTINUOUS
 62
    11
 10
325.0
 20
-324.9999999999999
 30
0.0
 40
7.5
  0
LINE
  5
42D
  8
DETAIL
  6
CONTINUOUS
 62
     5
 10
325.0
 20
-335.606602
 30
0.0
 11
314.3933979999999
 21
-324.9999999999999
 31
0.0
  0
LINE
  5
42E
  8
DETAIL
  6
CONTINUOUS
 62
     5
 10
335.606602
 20
-324.9999999999999
 30
0.0
 11
325.0
 21
-314.3933979999997
 31
0.0
  0
LINE
  5
42F
  8
DETAIL
  6
CONTINUOUS
 62
     5
 10
314.3933979999999
 20
-324.9999999999999
 30
0.0
 11
325.0
 21
-314.3933979999997
 31
0.0
  0
LINE
  5
430
  8
DETAIL
  6
CONTINUOUS
 62
     5
 10
325.0
 20
-335.606602
 30
0.0
 11
335.606602
 21
-324.9999999999999
 31
0.0
  0
LINE
  5
431
  8
DETAIL
  6
CONTINUOUS
 62
     5
 10
-324.9999999999997
 20
-335.606602
 30
0.0
 11
-314.3933979999998
 21
-324.9999999999999
 31
0.0
  0
LINE
  5
432
  8
DETAIL
  6
CONTINUOUS
 62
     5
 10
-335.6066020000001
 20
-324.9999999999999
 30
0.0
 11
-324.9999999999997
 21
-314.3933979999997
 31
0.0
  0
LINE
  5
433
  8
DETAIL
  6
CONTINUOUS
 62
     5
 10
-314.3933979999998
 20
-324.9999999999999
 30
0.0
 11
-324.9999999999997
 21
-314.3933979999997
 31
0.0
  0
LINE
  5
434
  8
DETAIL
  6
CONTINUOUS
 62
     5
 10
-324.9999999999997
 20
-335.606602
 30
0.0
 11
-335.6066020000001
 21
-324.9999999999999
 31
0.0
  0
CIRCLE
  5
435
  8
FIX
  6
CONTINUOUS
 62
    11
 10
-324.9999999999997
 20
-324.9999999999999
 30
0.0
 40
7.5
  0
CIRCLE
  5
436
  8
FIX
  6
CONTINUOUS
 62
    11
 10
-324.9999999999997
 20
325.0000000000001
 30
0.0
 40
7.5
  0
LINE
  5
437
  8
DETAIL
  6
CONTINUOUS
 62
     5
 10
-324.9999999999997
 20
314.3933979999999
 30
0.0
 11
-335.6066020000001
 21
325.0000000000001
 31
0.0
  0
LINE
  5
438
  8
DETAIL
  6
CONTINUOUS
 62
     5
 10
-314.3933979999998
 20
325.0000000000001
 30
0.0
 11
-324.9999999999997
 21
335.6066019999999
 31
0.0
  0
LINE
  5
439
  8
DETAIL
  6
CONTINUOUS
 62
     5
 10
-335.6066020000001
 20
325.0000000000001
 30
0.0
 11
-324.9999999999997
 21
335.6066019999999
 31
0.0
  0
LINE
  5
43A
  8
DETAIL
  6
CONTINUOUS
 62
     5
 10
-324.9999999999997
 20
314.3933979999999
 30
0.0
 11
-314.3933979999998
 21
325.0000000000001
 31
0.0
  0
TEXT
  5
43B
  8
NOTE
  6
CONTINUOUS
 62
     4
 10
-830.5122919999999
 20
489.0883669999999
 30
0.0
 40
64.0
  1
4-15×15
 41
0.9
  0
LINE
  5
43C
  8
NOTE
  6
CONTINUOUS
 62
     4
 10
-858.8159019999989
 20
463.9888179999999
 30
0.0
 11
-431.9558460000001
 21
463.9888179999999
 31
0.0
  0
LINE
  5
43D
  8
NOTE
  6
CONTINUOUS
 62
     4
 10
-324.9999999999997
 20
325.0000000000001
 30
0.0
 11
-431.9558460000001
 21
463.9888179999999
 31
0.0
  0
ARC
  5
43E
  8
OUTLINE
  6
CONTINUOUS
 62
     3
 10
327.692313
 20
327.6923129999999
 30
0.0
 40
27.307693
 50
0.0
 51
90.0
  0
ARC
  5
43F
  8
OUTLINE
  6
CONTINUOUS
 62
     3
 10
327.692313
 20
-327.6923129999998
 30
0.0
 40
27.307693
 50
270.0
 51
0.0
  0
ARC
  5
440
  8
OUTLINE
  6
CONTINUOUS
 62
     3
 10
-327.6923129999999
 20
-327.6923129999998
 30
0.0
 40
27.307693
 50
180.0
 51
270.0
  0
ARC
  5
441
  8
OUTLINE
  6
CONTINUOUS
 62
     3
 10
-327.6923129999999
 20
327.6923129999999
 30
0.0
 40
27.307693
 50
90.0
 51
180.0
  0
LINE
  5
442
  8
OUTLINE
  6
CONTINUOUS
 62
     3
 10
-327.6923129999999
 20
-355.0000049999998
 30
0.0
 11
327.692313
 21
-355.0000049999998
 31
0.0
  0
LINE
  5
443
  8
OUTLINE
  6
CONTINUOUS
 62
     3
 10
-327.6923129999999
 20
355.0000049999999
 30
0.0
 11
327.692313
 21
355.0000049999999
 31
0.0
  0
LINE
  5
444
  8
OUTLINE
  6
CONTINUOUS
 62
     3
 10
-355.0000049999999
 20
327.6923129999999
 30
0.0
 11
-355.0000049999999
 21
-327.6923129999998
 31
0.0
  0
LINE
  5
445
  8
OUTLINE
  6
CONTINUOUS
 62
     3
 10
355.0000049999999
 20
327.6923129999999
 30
0.0
 11
355.0000049999999
 21
-327.6923129999998
 31
0.0
  0
POINT
  5
446
  8
ARRANGE
  6
CONTINUOUS
 62
     1
 10
0.0
 20
0.0
 30
0.0
  0
CIRCLE
  5
447
  8
ARRANGE
  6
CONTINUOUS
 62
     1
 10
0.0
 20
0.0
 30
0.0
 40
40.0
  0
LINE
  5
448
  8
SIZE
  6
BYBLOCK
 62
    30
 10
305.0
 20
-20.00000000000001
 30
0.0
 11
305.0
 21
-638.3075769999999
 31
0.0
  0
LINE
  5
449
  8
SIZE
  6
BYBLOCK
 62
    30
 10
-305.0
 20
-20.00000000000001
 30
0.0
 11
-305.0
 21
-638.3075769999999
 31
0.0
  0
LINE
  5
44A
  8
SIZE
  6
BYBLOCK
 62
    30
 10
303.0
 20
-608.3075769999999
 30
0.0
 11
0.0
 21
-608.3075769999999
 31
0.0
  0
LINE
  5
44B
  8
SIZE
  6
BYBLOCK
 62
    30
 10
-302.9999999999998
 20
-608.3075769999999
 30
0.0
 11
0.0
 21
-608.3075769999999
 31
0.0
  0
TEXT
  5
44C
  8
SIZE
  6
BYBLOCK
 62
    30
 10
-97.37142899999981
 20
-576.3075769999999
 30
0.0
 40
64.0
  1
φ610
 41
0.9
  0
LINE
  5
44D
  8
SIZE
  6
BYBLOCK
 62
    30
 10
347.692313
 20
355.0000049999999
 30
0.0
 11
792.9713509999999
 21
355.0000049999999
 31
0.0
  0
LINE
  5
44E
  8
SIZE
  6
BYBLOCK
 62
    30
 10
347.692313
 20
-355.0000049999998
 30
0.0
 11
792.9713509999999
 21
-355.0000049999998
 31
0.0
  0
LINE
  5
44F
  8
SIZE
  6
BYBLOCK
 62
    30
 10
762.9713509999999
 20
353.0000049999999
 30
0.0
 11
762.9713509999999
 21
0.0
 31
0.0
  0
LINE
  5
450
  8
SIZE
  6
BYBLOCK
 62
    30
 10
762.9713509999999
 20
-353.0000049999998
 30
0.0
 11
762.9713509999999
 21
0.0
 31
0.0
  0
TEXT
  5
451
  8
SIZE
  6
BYBLOCK
 62
    30
 10
730.9713509999999
 20
-68.57142900000001
 30
0.0
 40
64.0
  1
710
 50
90.0
 41
0.9
  0
LINE
  5
452
  8
SIZE
  6
BYBLOCK
 62
    30
 10
365.0
 20
325.0000000000001
 30
0.0
 11
662.25376
 21
325.0000000000001
 31
0.0
  0
LINE
  5
453
  8
SIZE
  6
BYBLOCK
 62
    30
 10
355.606602
 20
-324.9999999999999
 30
0.0
 11
662.25376
 21
-324.9999999999999
 31
0.0
  0
LINE
  5
454
  8
SIZE
  6
BYBLOCK
 62
    30
 10
632.25376
 20
323.0000000000001
 30
0.0
 11
632.25376
 21
0.0
 31
0.0
  0
LINE
  5
455
  8
SIZE
  6
BYBLOCK
 62
    30
 10
632.25376
 20
-322.9999999999999
 30
0.0
 11
632.25376
 21
0.0
 31
0.0
  0
TEXT
  5
456
  8
SIZE
  6
BYBLOCK
 62
    30
 10
600.25376
 20
-74.05714300000002
 30
0.0
 40
64.0
  1
650
 50
90.0
 41
0.9
  0
LINE
  5
457
  8
SIZE
  6
BYBLOCK
 62
    30
 10
355.0000049999999
 20
347.692313
 30
0.0
 11
355.0000049999999
 21
670.481523
 31
0.0
  0
LINE
  5
458
  8
SIZE
  6
BYBLOCK
 62
    30
 10
-355.0000049999999
 20
347.692313
 30
0.0
 11
-355.0000049999999
 21
670.481523
 31
0.0
  0
LINE
  5
459
  8
SIZE
  6
BYBLOCK
 62
    30
 10
353.0000049999999
 20
640.481523
 30
0.0
 11
0.0
 21
640.481523
 31
0.0
  0
LINE
  5
45A
  8
SIZE
  6
BYBLOCK
 62
    30
 10
-353.0000049999998
 20
640.481523
 30
0.0
 11
0.0
 21
640.481523
 31
0.0
  0
TEXT
  5
45B
  8
SIZE
  6
BYBLOCK
 62
    30
 10
-68.57142900000002
 20
672.4815229999999
 30
0.0
 40
64.0
  1
710
 41
0.9
  0
LINE
  5
45C
  8
SIZE
  6
BYBLOCK
 62
    30
 10
325.0
 20
365.0
 30
0.0
 11
325.0
 21
545.5806859999999
 31
0.0
  0
LINE
  5
45D
  8
SIZE
  6
BYBLOCK
 62
    30
 10
-324.9999999999997
 20
365.0
 30
0.0
 11
-324.9999999999997
 21
545.5806859999999
 31
0.0
  0
LINE
  5
45E
  8
SIZE
  6
BYBLOCK
 62
    30
 10
323.0
 20
515.5806859999999
 30
0.0
 11
0.0
 21
515.5806859999999
 31
0.0
  0
LINE
  5
45F
  8
SIZE
  6
BYBLOCK
 62
    30
 10
-323.0
 20
515.5806859999999
 30
0.0
 11
0.0
 21
515.5806859999999
 31
0.0
  0
TEXT
  5
460
  8
SIZE
  6
BYBLOCK
 62
    30
 10
-74.05714299999994
 20
547.5806859999997
 30
0.0
 40
64.0
  1
650
 41
0.9
  0
CIRCLE
  5
461
  8
SIZE
  6
CONTINUOUS
 62
    30
 10
-324.9999999999997
 20
515.5806859999999
 30
0.0
 40
6.0
  0
CIRCLE
  5
462
  8
SIZE
  6
CONTINUOUS
 62
    30
 10
325.0
 20
515.5806859999999
 30
0.0
 40
6.0
  0
CIRCLE
  5
463
  8
SIZE
  6
CONTINUOUS
 62
    30
 10
-355.0000049999999
 20
640.481523
 30
0.0
 40
6.0
  0
CIRCLE
  5
464
  8
SIZE
  6
CONTINUOUS
 62
    30
 10
355.0000049999999
 20
640.481523
 30
0.0
 40
6.0
  0
CIRCLE
  5
465
  8
SIZE
  6
CONTINUOUS
 62
    30
 10
632.25376
 20
-324.9999999999999
 30
0.0
 40
6.0
  0
CIRCLE
  5
466
  8
SIZE
  6
CONTINUOUS
 62
    30
 10
632.25376
 20
325.0000000000001
 30
0.0
 40
6.0
  0
CIRCLE
  5
467
  8
SIZE
  6
CONTINUOUS
 62
    30
 10
762.9713509999999
 20
-355.0000049999998
 30
0.0
 40
6.0
  0
CIRCLE
  5
468
  8
SIZE
  6
CONTINUOUS
 62
    30
 10
762.9713509999999
 20
355.0000049999999
 30
0.0
 40
6.0
  0
CIRCLE
  5
469
  8
SIZE
  6
CONTINUOUS
 62
    30
 10
-305.0
 20
-608.3075769999999
 30
0.0
 40
6.0
  0
CIRCLE
  5
46A
  8
SIZE
  6
CONTINUOUS
 62
    30
 10
305.0
 20
-608.3075769999999
 30
0.0
 40
6.0
  0
LINE
  5
46B
  8
NOTE
  6
CONTINUOUS
 62
     4
 10
-324.9999999999997
 20
305.0
 30
0.0
 11
-324.9999999999997
 21
345.0
 31
0.0
  0
LINE
  5
46C
  8
NOTE
  6
CONTINUOUS
 62
     4
 10
-344.9999999999997
 20
325.0000000000001
 30
0.0
 11
-305.0
 21
325.0000000000001
 31
0.0
  0
LINE
  5
46D
  8
NOTE
  6
CONTINUOUS
 62
     4
 10
-324.9999999999997
 20
-345.0
 30
0.0
 11
-324.9999999999997
 21
-304.9999999999999
 31
0.0
  0
LINE
  5
46E
  8
NOTE
  6
CONTINUOUS
 62
     4
 10
-344.9999999999997
 20
-324.9999999999999
 30
0.0
 11
-305.0
 21
-324.9999999999999
 31
0.0
  0
LINE
  5
46F
  8
NOTE
  6
CONTINUOUS
 62
     4
 10
325.0
 20
-345.0
 30
0.0
 11
325.0
 21
-304.9999999999999
 31
0.0
  0
LINE
  5
470
  8
NOTE
  6
CONTINUOUS
 62
     4
 10
305.0
 20
-324.9999999999999
 30
0.0
 11
345.0
 21
-324.9999999999999
 31
0.0
  0
LINE
  5
471
  8
NOTE
  6
CONTINUOUS
 62
     4
 10
325.0
 20
305.0
 30
0.0
 11
325.0
 21
345.0
 31
0.0
  0
LINE
  5
472
  8
NOTE
  6
CONTINUOUS
 62
     4
 10
305.0
 20
325.0000000000001
 30
0.0
 11
345.0
 21
325.0000000000001
 31
0.0
  0
LINE
  5
473
  8
SIZE
  6
CONTINUOUS
 62
    30
 10
291.614381
 20
-69.7776124999999
 30
0.0
 11
-291.614380999999
 21
71.09187149999998
 31
0.0
  0
ARC
  5
474
  8
DETAIL
  6
CONTINUOUS
 62
     5
 10
-126.5429909999996
 20
120.7236755
 30
0.0
 40
149.3598509999999
 50
193.2896120000029
 51
294.8983039999948
  0
ARC
  5
475
  8
DETAIL
  6
CONTINUOUS
 62
     5
 10
-216.2857699999992
 20
-3.016896499999991
 30
0.0
 40
223.9435049999999
 50
275.4132680000018
 51
343.9759200000023
  0
LINE
  5
476
  8
DETAIL
  6
CONTINUOUS
 62
     5
 10
-121.5696195665934
 20
134.8338562521603
 30
0.0
 11
-211.9053649999989
 21
220.0223874999998
 31
0.0
  0
LINE
  5
477
  8
DETAIL
  6
CONTINUOUS
 62
     5
 10
-126.5694500788192
 20
132.5409085121505
 30
0.0
 11
-215.541197999999
 21
216.4509934999998
 31
0.0
  0
CIRCLE
  5
478
  8
DETAIL
  6
CONTINUOUS
 62
     5
 10
0.0
 20
0.6571295000000994
 30
0.0
 40
305.0
  0
ARC
  5
479
  8
DETAIL
  6
CONTINUOUS
 62
     5
 10
0.0
 20
0.6571295000000994
 30
0.0
 40
300.0
 50
163.3031860000004
 51
228.8483270000033
  0
ARC
  5
47A
  8
DETAIL
  6
CONTINUOUS
 62
     5
 10
-195.442213999999
 20
-222.9750264999997
 30
0.0
 40
3.0
 50
228.8483270000031
 51
275.4132680000019
  0
LINE
  5
47B
  8
DETAIL
  6
CONTINUOUS
 62
     5
 10
-206.9625649999994
 20
-223.3774584999998
 30
0.0
 11
-203.4308179999996
 21
-219.8330114999995
 31
0.0
  0
LINE
  5
47C
  8
DETAIL
  6
CONTINUOUS
 62
     5
 10
-213.7820209999991
 20
-209.8119834999997
 30
0.0
 11
-217.3122749999995
 21
-213.3530924999995
 31
0.0
  0
LINE
  5
47D
  8
DETAIL
  6
CONTINUOUS
 62
     5
 10
-210.1874719999989
 20
-213.4018034999999
 30
0.0
 11
-213.7173969999989
 21
-216.9431324999998
 31
0.0
  0
TEXT
  5
47E
  8
SIZE
  6
CONTINUOUS
 62
    30
 10
-602.2621368411421
 20
171.8426615184969
 30
0.0
 40
64.00000000000001
  1
φ600
 50
346.4212269999938
 41
0.8999999999999999
 72
     1
 11
-499.8564859999991
 21
147.1082834999999
 31
0.0
  0
LINE
  5
47F
  8
SIZE
  6
CONTINUOUS
 62
    30
 10
-627.3431459999988
 20
152.1817304999996
 30
0.0
 11
-303.2789559999989
 21
73.90926149999987
 31
0.0
  0
CIRCLE
  5
480
  8
SIZE
  6
CONTINUOUS
 62
    30
 10
-291.614380999999
 20
71.09187149999998
 30
0.0
 40
6.0
  0
ARC
  5
481
  8
DETAIL
  6
CONTINUOUS
 62
     5
 10
-279.6888339999994
 20
84.55084749999997
 30
0.0
 40
8.0
 50
13.28961200000311
 51
163.3031860000004
  0
LINE
  5
482
  8
SIZE
  6
CONTINUOUS
 62
    30
 10
-291.614380999999
 20
71.09187149999998
 30
0.0
 11
-303.2789559999989
 21
73.90926149999987
 31
0.0
  0
CIRCLE
  5
483
  8
DETAIL
  6
CONTINUOUS
 62
     5
 10
0.0
 20
0.6571295000000994
 30
0.0
 40
65.5
  0
ARC
  5
484
  8
DETAIL
  6
CONTINUOUS
 62
     5
 10
0.0
 20
0.6571295000000994
 30
0.0
 40
300.0
 50
287.7595319999968
 51
353.5127089999988
  0
LINE
  5
485
  8
SIZE
  6
CONTINUOUS
 62
    30
 10
291.614381
 20
-69.7776124999999
 30
0.0
 11
303.278956
 21
-72.59500249999985
 31
0.0
  0
CIRCLE
  5
486
  8
SIZE
  6
CONTINUOUS
 62
    30
 10
291.614381
 20
-69.7776124999999
 30
0.0
 40
6.0
  0
ARC
  5
487
  8
DETAIL
  6
CONTINUOUS
 62
     5
 10
-159.5809139999989
 20
-196.5442814999997
 30
0.0
 40
253.47222
 50
341.9806480000048
 51
36.17812500000144
  0
ARC
  5
488
  8
DETAIL
  6
CONTINUOUS
 62
     5
 10
89.06664000000018
 20
-277.4276304999997
 30
0.0
 40
8.0
 50
161.9806480000048
 51
287.7595319999969
  0
LINE
  5
489
  8
DETAIL
  6
CONTINUOUS
 62
     5
 10
208.1561690000004
 20
-215.3776114999997
 30
0.0
 11
211.7945730000002
 21
-218.8150984999995
 31
0.0
  0
LINE
  5
48A
  8
DETAIL
  6
CONTINUOUS
 62
     5
 10
211.7969180000001
 20
-211.8094924999997
 30
0.0
 11
215.4327920000002
 21
-215.2449594999995
 31
0.0
  0
LINE
  5
48B
  8
SIZE
  6
CONTINUOUS
 62
    30
 10
303.278956
 20
-72.59500249999985
 30
0.0
 11
314.9435309999999
 21
-75.41239249999974
 31
0.0
  0
ARC
  5
48C
  8
DETAIL
  6
CONTINUOUS
 62
     5
 10
72.53722400000026
 20
-345.2769214999997
 30
0.0
 40
386.55383
 50
54.5311459999954
 51
93.07250000000334
  0
ARC
  5
48D
  8
DETAIL
  6
CONTINUOUS
 62
     5
 10
0.0
 20
0.6571295000000994
 30
0.0
 40
300.0
 50
46.93663700000205
 51
109.3839170000055
  0
ARC
  5
48E
  8
DETAIL
  6
CONTINUOUS
 62
     5
 10
171.4061550000002
 20
56.23031649999999
 30
0.0
 40
148.73264
 50
80.31899299999932
 51
177.7516540000047
  0
ARC
  5
48F
  8
DETAIL
  6
CONTINUOUS
 62
     5
 10
317.7922850000002
 20
204.5725554999997
 30
0.0
 40
426.289734
 50
169.6223650000034
 51
206.4284799999983
  0
ARC
  5
490
  8
DETAIL
  6
CONTINUOUS
 62
     5
 10
-98.57321599999943
 20
280.8219404999996
 30
0.0
 40
3.0
 50
109.3839170000057
 51
169.6223650000023
  0
LINE
  5
491
  8
DETAIL
  6
CONTINUOUS
 62
     5
 10
126.569310091182
 20
132.5429564697729
 30
0.0
 11
215.5367440000004
 21
216.4554424999998
 31
0.0
  0
LINE
  5
492
  8
DETAIL
  6
CONTINUOUS
 62
     5
 10
121.569482031305
 20
134.8358749265691
 30
0.0
 11
211.9008590000001
 21
220.0267394999998
 31
0.0
  0
ARC
  5
493
  8
DETAIL
  6
CONTINUOUS
 62
     5
 10
198.0822340000004
 20
212.6039114999998
 30
0.0
 40
9.9
 50
260.3189929999991
 51
46.93663700000205
  0
ARC
  5
494
  8
DETAIL
  6
CONTINUOUS
 62
     5
 10
295.0982920000002
 20
-32.8987665
 30
0.0
 40
3.0
 50
353.5127089999989
 51
54.53114599999503
  0
TEXT
  5
495
  8
ETC
  6
CONTINUOUS
 62
    61
 10
631.8645169019144
 20
691.2947985884862
 30
0.0
 40
64.0
  1
EG-60FTXB3-F_3
 41
0.9
  0
TEXT
  5
496
  8
ETC
  6
CONTINUOUS
 62
    61
 10
623.2668409019144
 20
585.6301585884863
 30
0.0
 40
64.0
  1
産業扇
 41
0.9
  0
TEXT
  5
497
  8
ETC
  6
CONTINUOUS
 62
    61
 10
756.1683828507298
 20
501.7309480642557
 30
0.0
 40
50.0
  1
EG-60FTXB3-F
 41
0.9
  0
LINE
  5
498
  8
NOTE
  6
CONTINUOUS
 62
     4
 10
-356.959145
 20
349.0543769999999
 30
0.0
 11
-324.9999999999997
 21
325.0000000000001
 31
0.0
  0
LINE
  5
499
  8
NOTE
  6
CONTINUOUS
 62
     4
 10
-324.9999999999997
 20
325.0000000000001
 30
0.0
 11
-340.6502429999998
 21
361.811274
 31
0.0
  0
LINE
  5
49A
  8
DETAIL
  6
CONTINUOUS
 62
     5
 10
85.00041176175506
 20
-129.9999999999998
 30
0.0
 11
-31.82443297461253
 21
-129.9999999999998
 31
0.0
  0
LINE
  5
49B
  8
DETAIL
  6
CONTINUOUS
 62
     5
 10
120.0000000000001
 20
129.9999999999999
 30
0.0
 11
42.2572796751279
 21
129.9999999999999
 31
0.0
  0
LINE
  5
49C
  8
DETAIL
  6
CONTINUOUS
 62
     5
 10
120.0000000000001
 20
131.1983556528799
 30
0.0
 11
120.0000000000001
 21
38.35199865858628
 31
0.0
  0
LINE
  5
49D
  8
DETAIL
  6
CONTINUOUS
 62
     5
 10
-119.9999999999999
 20
131.1962072748535
 30
0.0
 11
-119.9999999999999
 21
-28.49279262438664
 31
0.0
  0
LINE
  5
49E
  8
DETAIL
  6
CONTINUOUS
 62
     5
 10
-124.9999999999999
 20
128.9034193728833
 30
0.0
 11
-124.9999999999999
 21
15.0
 31
0.0
  0
LINE
  5
49F
  8
DETAIL
  6
CONTINUOUS
 62
     5
 10
125.0000000000002
 20
128.9055993592416
 30
0.0
 11
125.0
 21
38.35199865858628
 31
0.0
  0
ARC
  5
4A0
  8
DETAIL
  6
CONTINUOUS
 62
     5
 10
-125.0000000000001
 20
131.1962072748535
 30
0.0
 40
5.0
 50
0.0
 51
46.67970586095133
  0
ARC
  5
4A1
  8
DETAIL
  6
CONTINUOUS
 62
     5
 10
-130.0
 20
128.9034193728833
 30
0.0
 40
5.0
 50
0.0
 51
46.67703623902317
  0
ARC
  5
4A2
  8
DETAIL
  6
CONTINUOUS
 62
     5
 10
130.0000000000002
 20
128.9055993592416
 30
0.0
 40
5.0
 50
133.3251688112375
 51
180.0
  0
ARC
  5
4A3
  8
DETAIL
  6
CONTINUOUS
 62
     5
 10
125.0
 20
131.1983556528799
 30
0.0
 40
5.0
 50
133.3224604646356
 51
180.0
  0
LINE
  5
4A4
  8
DETAIL
  6
CONTINUOUS
 62
     5
 10
-101.9241326917433
 20
129.9999999999999
 30
0.0
 11
-119.9999999999999
 21
129.9999999999999
 31
0.0
  0
LINE
  5
4A5
  8
DETAIL
  6
CONTINUOUS
 62
     5
 10
-119.9999999999999
 20
15.0
 30
0.0
 11
-124.9999999999999
 21
15.0
 31
0.0
  0
LINE
  5
4A6
  8
DETAIL
  6
CONTINUOUS
 62
     5
 10
-119.9999999999999
 20
-14.99999999999999
 30
0.0
 11
-124.9999999999999
 21
-14.99999999999999
 31
0.0
  0
LINE
  5
4A7
  8
DETAIL
  6
CONTINUOUS
 62
     5
 10
-124.9999999999999
 20
-14.99999999999999
 30
0.0
 11
-124.9999999999999
 21
-28.49279262438664
 31
0.0
  0
ARC
  5
4A9
  8
SIZE
  6
CONTINUOUS
 62
    30
 10
0.0007016526326993
 20
0.6569600271435299
 30
0.0
 40
299.9992783151162
 50
345.2752618872888
 51
347.5671367802727
  0
ARC
  5
4AA
  8
SIZE
  6
CONTINUOUS
 62
    30
 10
-0.0007016477862294
 20
0.6572989716848383
 30
0.0
 40
299.9992783201012
 50
165.2752618873075
 51
167.5671367802534
  0
ENDSEC
  0
EOF
