  0
SECTION
  2
HEADER
  9
$ACADVER
  1
AC1009
  9
$INSBASE
 10
0.0
 20
0.0
 30
0.0
  9
$EXTMIN
 10
-739.46292500000015
 20
-723.56964699999969
 30
0.0
  9
$EXTMAX
 10
1451.5401414743569
 20
565.38010438102367
 30
0.0
  9
$LIMMIN
 10
-2970.0
 20
-2100.0
  9
$LIMMAX
 10
2970.0
 20
2100.0
  9
$ORTHOMODE
 70
     0
  9
$REGENMODE
 70
     0
  9
$FILLMODE
 70
     1
  9
$QTEXTMODE
 70
     0
  9
$MIRRTEXT
 70
     0
  9
$DRAGMODE
 70
     2
  9
$LTSCALE
 40
20.0
  9
$OSMODE
 70
   167
  9
$ATTMODE
 70
     1
  9
$TEXTSIZE
 40
64.0
  9
$TRACEWID
 40
0.05
  9
$TEXTSTYLE
  7
STANDARD
  9
$CLAYER
  8
0
  9
$CELTYPE
  6
CONTINUOUS
  9
$CECOLOR
 62
     8
  9
$DIMSCALE
 40
1.0
  9
$DIMASZ
 40
2.0
  9
$DIMEXO
 40
20.0
  9
$DIMDLI
 40
200.0
  9
$DIMRND
 40
0.0
  9
$DIMDLE
 40
0.0
  9
$DIMEXE
 40
30.0
  9
$DIMTP
 40
0.0
  9
$DIMTM
 40
0.0
  9
$DIMTXT
 40
64.0
  9
$DIMCEN
 40
0.09
  9
$DIMTSZ
 40
0.0
  9
$DIMTOL
 70
     0
  9
$DIMLIM
 70
     0
  9
$DIMTIH
 70
     0
  9
$DIMTOH
 70
     0
  9
$DIMSE1
 70
     0
  9
$DIMSE2
 70
     0
  9
$DIMTAD
 70
     1
  9
$DIMZIN
 70
     8
  9
$DIMBLK
  1

  9
$DIMASO
 70
     1
  9
$DIMSHO
 70
     0
  9
$DIMPOST
  1

  9
$DIMAPOST
  1

  9
$DIMALT
 70
     0
  9
$DIMALTD
 70
     2
  9
$DIMALTF
 40
25.399999999999999
  9
$DIMLFAC
 40
1.0
  9
$DIMTOFL
 70
     1
  9
$DIMTVP
 40
0.0
  9
$DIMTIX
 70
     1
  9
$DIMSOXD
 70
     0
  9
$DIMSAH
 70
     0
  9
$DIMBLK1
  1

  9
$DIMBLK2
  1

  9
$DIMSTYLE
  2
STANDARD
  9
$DIMCLRD
 70
     0
  9
$DIMCLRE
 70
     0
  9
$DIMCLRT
 70
     0
  9
$DIMTFAC
 40
1.0
  9
$DIMGAP
 40
0.09
  9
$LUNITS
 70
     2
  9
$LUPREC
 70
     4
  9
$SKETCHINC
 40
0.1
  9
$FILLETRAD
 40
240.0
  9
$AUNITS
 70
     1
  9
$AUPREC
 70
     3
  9
$MENU
  1
ACAD
  9
$ELEVATION
 40
0.0
  9
$PELEVATION
 40
0.0
  9
$THICKNESS
 40
0.0
  9
$LIMCHECK
 70
     1
  9
$BLIPMODE
 70
     0
  9
$CHAMFERA
 40
0.0
  9
$CHAMFERB
 40
0.0
  9
$SKPOLY
 70
     0
  9
$TDCREATE
 40
2451485.3945717588
  9
$TDUPDATE
 40
2454965.396709525
  9
$TDINDWG
 40
0.0076177315
  9
$TDUSRTIMER
 40
0.0076173727
  9
$USRTIMER
 70
     1
  9
$ANGBASE
 50
0.0
  9
$ANGDIR
 70
     0
  9
$PDMODE
 70
     3
  9
$PDSIZE
 40
-2.0
  9
$PLINEWID
 40
0.0
  9
$COORDS
 70
     2
  9
$SPLFRAME
 70
     0
  9
$SPLINETYPE
 70
     6
  9
$SPLINESEGS
 70
     8
  9
$ATTDIA
 70
     0
  9
$ATTREQ
 70
     1
  9
$HANDLING
 70
 22529
  9
$HANDSEED
  5
4FC
  9
$SURFTAB1
 70
     6
  9
$SURFTAB2
 70
     6
  9
$SURFTYPE
 70
     6
  9
$SURFU
 70
     6
  9
$SURFV
 70
     6
  9
$UCSNAME
  2

  9
$UCSORG
 10
0.0
 20
0.0
 30
0.0
  9
$UCSXDIR
 10
1.0
 20
0.0
 30
0.0
  9
$UCSYDIR
 10
0.0
 20
1.0
 30
0.0
  9
$PUCSNAME
  2

  9
$PUCSORG
 10
0.0
 20
0.0
 30
0.0
  9
$PUCSXDIR
 10
1.0
 20
0.0
 30
0.0
  9
$PUCSYDIR
 10
0.0
 20
1.0
 30
0.0
  9
$USERI1
 70
     0
  9
$USERI2
 70
     0
  9
$USERI3
 70
     0
  9
$USERI4
 70
     0
  9
$USERI5
 70
     0
  9
$USERR1
 40
20.0
  9
$USERR2
 40
0.0
  9
$USERR3
 40
0.0
  9
$USERR4
 40
0.0
  9
$USERR5
 40
0.0
  9
$WORLDVIEW
 70
     1
  9
$SHADEDGE
 70
     3
  9
$SHADEDIF
 70
    70
  9
$TILEMODE
 70
     1
  9
$MAXACTVP
 70
    64
  9
$PLIMCHECK
 70
     0
  9
$PEXTMIN
 10
1.0000000000000000E+020
 20
1.0000000000000000E+020
 30
1.0000000000000000E+020
  9
$PEXTMAX
 10
-1.0000000000000000E+020
 20
-1.0000000000000000E+020
 30
-1.0000000000000000E+020
  9
$PLIMMIN
 10
0.0
 20
0.0
  9
$PLIMMAX
 10
12.0
 20
9.0
  9
$UNITMODE
 70
     0
  9
$VISRETAIN
 70
     1
  9
$PLINEGEN
 70
     0
  9
$PSLTSCALE
 70
     1
  0
ENDSEC
  0
SECTION
  2
TABLES
  0
TABLE
  2
VPORT
 70
     3
  0
VPORT
  2
*ACTIVE
 70
     0
 10
0.0
 20
0.0
 11
1.0
 21
1.0
 12
315.98575834429062
 22
-113.4493283782702
 13
0.0
 23
0.0
 14
400.0
 24
400.0
 15
400.0
 25
400.0
 16
0.0
 26
0.0
 36
1.0
 17
0.0
 27
0.0
 37
0.0
 40
1823.557301260221
 41
1.493654822335025
 42
50.0
 43
0.0
 44
0.0
 50
0.0
 51
0.0
 71
     0
 72
  1000
 73
     1
 74
     0
 75
     0
 76
     0
 77
     0
 78
     0
  0
ENDTAB
  0
TABLE
  2
LTYPE
 70
     7
  0
LTYPE
  2
CONTINUOUS
 70
     0
  3
実線
 72
    65
 73
     0
 40
0.0
  0
LTYPE
  2
DASHDOT
 70
     0
  3
____ _ ____ _ ____ _ ____ _ ____ _ ____ _ ____
 72
    65
 73
     4
 40
5.5
 49
4.0
 49
-0.6
 49
0.3
 49
-0.6
  0
LTYPE
  2
DASHED
 70
     0
  3
_ _ _ _ _ _ _ _ _ _ _ _ _ _ _ _ _ _ _ _ _ _ _
 72
    65
 73
     2
 40
2.0
 49
1.1999999999999991
 49
-0.8
  0
LTYPE
  2
DOT
 70
     0
  3
...............................................
 72
    65
 73
     2
 40
0.8
 49
0.5
 49
-0.3
  0
LTYPE
  2
DASHDOT1
 70
     0
  3
____ _ ____ _ ____ _ ____ _ ____ _ ____ _ ____
 72
    65
 73
     4
 40
2.0
 49
1.5
 49
-0.2
 49
0.1
 49
-0.2
  0
LTYPE
  2
DIVIDE
 70
     0
  3
_____ _ _ _____ _ _ _____ _ _ _____ _ _ ____
 72
    65
 73
     6
 40
6.4000000000000004
 49
4.0
 49
-0.6
 49
0.3
 49
-0.6
 49
0.3
 49
-0.6
  0
LTYPE
  2
DIVIDE1
 70
     0
  3
_____ _ _ _____ _ _ _____ _ _ _____ _ _ ____
 72
    65
 73
     6
 40
3.2000000000000002
 49
2.0
 49
-0.3
 49
0.15
 49
-0.3
 49
0.15
 49
-0.3
  0
ENDTAB
  0
TABLE
  2
LAYER
 70
    12
  0
LAYER
  2
0
 70
     0
 62
     7
  6
CONTINUOUS
  0
LAYER
  2
OUTLINE
 70
     0
 62
     3
  6
CONTINUOUS
  0
LAYER
  2
DETAIL
 70
     0
 62
     5
  6
CONTINUOUS
  0
LAYER
  2
BASIS
 70
     0
 62
     6
  6
DASHDOT
  0
LAYER
  2
NOTE
 70
     0
 62
     4
  6
CONTINUOUS
  0
LAYER
  2
DEFPOINTS
 70
     0
 62
     7
  6
CONTINUOUS
  0
LAYER
  2
SIZE
 70
     0
 62
    30
  6
CONTINUOUS
  0
LAYER
  2
ARRANGE
 70
     0
 62
     1
  6
CONTINUOUS
  0
LAYER
  2
FIX
 70
     0
 62
    11
  6
CONTINUOUS
  0
LAYER
  2
ETC
 70
     0
 62
    61
  6
CONTINUOUS
  0
LAYER
  2
SERVICESPACE
 70
     0
 62
     2
  6
DASHDOT
  0
LAYER
  2
SYMBOLLINE
 70
     0
 62
    15
  6
CONTINUOUS
  0
ENDTAB
  0
TABLE
  2
STYLE
 70
     1
  0
STYLE
  2
STANDARD
 70
     0
 40
0.0
 41
0.9
 50
0.0
 71
     0
 42
64.0
  3
SIMPLEX
  4
BIGFONT
  0
ENDTAB
  0
TABLE
  2
VIEW
 70
     1
  0
VIEW
  2
ALL
 70
     0
 40
4508.0208510000002
 10
0.0
 20
41.309903999999989
 41
6252.631578999999
 11
0.0
 21
0.0
 31
1.0
 12
0.0
 22
0.0
 32
0.0
 42
50.0
 43
0.0
 44
0.0
 50
0.0
 71
     0
  0
ENDTAB
  0
TABLE
  2
UCS
 70
     0
  0
ENDTAB
  0
TABLE
  2
APPID
 70
     1
  0
APPID
  2
ACAD
 70
     0
  0
ENDTAB
  0
TABLE
  2
DIMSTYLE
 70
     1
  0
DIMSTYLE
  2
STANDARD
 70
     0
  3

  4

  5

  6

  7

 40
1.0
 41
0.18
 42
0.0625
 43
0.38
 44
0.18
 45
0.0
 46
0.0
 47
0.0
 48
0.0
140
0.18
141
0.09
142
0.0
143
25.399999999999999
144
1.0
145
0.0
146
1.0
147
0.09
 71
     0
 72
     0
 73
     1
 74
     1
 75
     0
 76
     0
 77
     0
 78
     0
170
     0
171
     2
172
     0
173
     0
174
     0
175
     0
176
     0
177
     0
178
     0
  0
ENDTAB
  0
ENDSEC
  0
SECTION
  2
BLOCKS
  0
BLOCK
  8
0
  2
$MODEL_SPACE
 70
     0
 10
0.0
 20
0.0
 30
0.0
  3
$MODEL_SPACE
  1

  0
ENDBLK
  5
3CB
  8
0
  0
BLOCK
 67
     1
  8
0
  2
$PAPER_SPACE
 70
     0
 10
0.0
 20
0.0
 30
0.0
  3
$PAPER_SPACE
  1

  0
ENDBLK
  5
3C7
 67
     1
  8
0
  0
BLOCK
  8
0
  2
DOT1
 70
     0
 10
0.0
 20
0.0
 30
0.0
  3
DOT1
  1

  0
CIRCLE
  5
3EB
  8
SIZE
  6
CONTINUOUS
 62
     7
 10
0.0
 20
0.0
 30
0.0
 40
3.0
  0
ENDBLK
  5
3EC
  8
0
  0
BLOCK
  8
0
  2
_ORIGIN
 70
     0
 10
0.0
 20
0.0
 30
0.0
  3
_ORIGIN
  1

  0
CIRCLE
  5
3EF
  8
0
  6
CONTINUOUS
 62
     7
 10
0.0
 20
0.0
 30
0.0
 40
0.5
  0
LINE
  5
3F0
  8
0
  6
CONTINUOUS
 62
     7
 10
0.0
 20
0.0
 30
0.0
 11
-1.0
 21
0.0
 31
0.0
  0
ENDBLK
  5
3F1
  8
0
  0
ENDSEC
  0
SECTION
  2
ENTITIES
  0
LINE
  5
3F2
  8
DETAIL
  6
CONTINUOUS
 62
     5
 10
355.0
 20
0.0
 30
0.0
 11
-355.0
 21
0.0
 31
0.0
  0
LINE
  5
3F3
  8
BASIS
  6
DASHDOT
 62
     6
 10
0.0
 20
60.312736999999991
 30
0.0
 11
0.0
 21
-388.829992
 31
0.0
  0
LINE
  5
3F4
  8
DETAIL
  6
CONTINUOUS
 62
     5
 10
295.0
 20
-20.0
 30
0.0
 11
295.0
 21
-198.26440600000001
 31
0.0
  0
LINE
  5
3F5
  8
DETAIL
  6
CONTINUOUS
 62
     5
 10
348.0
 20
-10.0
 30
0.0
 11
335.49999999999989
 21
-10.0
 31
0.0
  0
LINE
  5
3F6
  8
DETAIL
  6
CONTINUOUS
 62
     5
 10
355.0
 20
-3.0
 30
0.0
 11
355.0
 21
0.0
 31
0.0
  0
LINE
  5
3F7
  8
DETAIL
  6
CONTINUOUS
 62
     5
 10
-355.0
 20
-3.0
 30
0.0
 11
-355.0
 21
0.0
 31
0.0
  0
LINE
  5
3F8
  8
DETAIL
  6
CONTINUOUS
 62
     5
 10
335.49999999999989
 20
-10.0
 30
0.0
 11
-335.49999999999989
 21
-10.0
 31
0.0
  0
LINE
  5
3F9
  8
DETAIL
  6
CONTINUOUS
 62
     5
 10
-335.49999999999989
 20
-10.0
 30
0.0
 11
-348.0
 21
-10.0
 31
0.0
  0
LINE
  5
3FA
  8
DETAIL
  6
CONTINUOUS
 62
     5
 10
315.0
 20
-20.0
 30
0.0
 11
255.0
 21
-20.0
 31
0.0
  0
LINE
  5
3FB
  8
DETAIL
  6
CONTINUOUS
 62
     5
 10
130.0
 20
-277.76605399999983
 30
0.0
 11
-130.0
 21
-277.76605399999983
 31
0.0
  0
LINE
  5
3FC
  8
DETAIL
  6
CONTINUOUS
 62
     5
 10
90.0
 20
-230.26440599999989
 30
0.0
 11
14.852179999999979
 21
-230.26440599999989
 31
0.0
  0
LINE
  5
3FD
  8
DETAIL
  6
CONTINUOUS
 62
     5
 10
130.0
 20
-277.76605399999983
 30
0.0
 11
130.0
 21
-230.26440599999989
 31
0.0
  0
LINE
  5
3FE
  8
DETAIL
  6
CONTINUOUS
 62
     5
 10
-130.0
 20
-277.76605399999983
 30
0.0
 11
-130.0
 21
-230.26440599999989
 31
0.0
  0
LINE
  5
3FF
  8
DETAIL
  6
CONTINUOUS
 62
     5
 10
-82.0
 20
-137.6013419999999
 30
0.0
 11
-82.0
 21
-225.763856
 31
0.0
  0
LINE
  5
400
  8
DETAIL
  6
CONTINUOUS
 62
     5
 10
82.0
 20
-137.6013419999999
 30
0.0
 11
82.0
 21
-225.763856
 31
0.0
  0
LINE
  5
401
  8
DETAIL
  6
CONTINUOUS
 62
     5
 10
72.0
 20
-327.0
 30
0.0
 11
-72.0
 21
-327.0
 31
0.0
  0
LINE
  5
402
  8
DETAIL
  6
CONTINUOUS
 62
     5
 10
315.0
 20
-20.0
 30
0.0
 11
315.0
 21
-10.0
 31
0.0
  0
LINE
  5
403
  8
DETAIL
  6
CONTINUOUS
 62
     5
 10
90.0
 20
-230.26440599999989
 30
0.0
 11
225.0
 21
-230.26440599999989
 31
0.0
  0
LINE
  5
404
  8
DETAIL
  6
CONTINUOUS
 62
     5
 10
225.0
 20
-268.26440600000001
 30
0.0
 11
130.0
 21
-268.26440600000001
 31
0.0
  0
LINE
  5
405
  8
DETAIL
  6
CONTINUOUS
 62
     5
 10
255.0
 20
-20.0
 30
0.0
 11
255.0
 21
-10.0
 31
0.0
  0
ARC
  5
406
  8
DETAIL
  6
CONTINUOUS
 62
     5
 10
225.0
 20
-198.26440600000001
 30
0.0
 40
70.0
 50
270.0
 51
0.0
  0
CIRCLE
  5
407
  8
FIX
  6
CONTINUOUS
 62
    11
 10
-325.0
 20
0.0
 30
0.0
 40
7.5
  0
ARC
  5
408
  8
DETAIL
  6
CONTINUOUS
 62
     5
 10
-348.0
 20
-3.0
 30
0.0
 40
7.0
 50
180.0
 51
270.0
  0
ARC
  5
409
  8
DETAIL
  6
CONTINUOUS
 62
     5
 10
348.0
 20
-3.0
 30
0.0
 40
7.0
 50
270.0
 51
0.0
  0
LINE
  5
40A
  8
DETAIL
  6
CONTINUOUS
 62
     5
 10
275.0
 20
-93.0
 30
0.0
 11
-275.0
 21
-93.0
 31
0.0
  0
LINE
  5
40B
  8
DETAIL
  6
CONTINUOUS
 62
     5
 10
-295.0
 20
-93.0
 30
0.0
 11
-352.49999999999972
 21
-93.0
 31
0.0
  0
LINE
  5
40C
  8
DETAIL
  6
CONTINUOUS
 62
     5
 10
295.0
 20
-93.0
 30
0.0
 11
352.49999999999972
 21
-93.0
 31
0.0
  0
POINT
  5
40D
  8
ARRANGE
  6
CONTINUOUS
 62
     1
 10
0.0
 20
0.0
 30
0.0
  0
CIRCLE
  5
40E
  8
ARRANGE
  6
CONTINUOUS
 62
     1
 10
0.0
 20
0.0
 30
0.0
 40
40.0
  0
LINE
  5
40F
  8
NOTE
  6
CONTINUOUS
 62
     4
 10
295.0
 20
-20.0
 30
0.0
 11
178.476493
 21
88.931880000000007
 31
0.0
  0
TEXT
  5
410
  8
NOTE
  6
CONTINUOUS
 62
     4
 10
81.881134000000003
 20
110.355873
 30
0.0
 40
64.0
  1
EL
 41
0.9
  0
TEXT
  5
411
  8
NOTE
  6
CONTINUOUS
 62
     4
 10
442.77670599999988
 20
113.0531389999999
 30
0.0
 40
64.0
  1
4-15×15
 41
0.9
  0
LINE
  5
412
  8
NOTE
  6
CONTINUOUS
 62
     4
 10
847.40031599999998
 20
87.953590000000005
 30
0.0
 11
419.97747999999979
 21
87.953590000000005
 31
0.0
  0
LINE
  5
413
  8
DETAIL
  6
CONTINUOUS
 62
     5
 10
72.0
 20
-127.6013419999999
 30
0.0
 11
-72.0
 21
-127.6013419999999
 31
0.0
  0
ARC
  5
414
  8
DETAIL
  6
CONTINUOUS
 62
     5
 10
-72.0
 20
-137.6013419999999
 30
0.0
 40
10.0
 50
90.0
 51
180.0
  0
ARC
  5
415
  8
DETAIL
  6
CONTINUOUS
 62
     5
 10
72.0
 20
-137.6013419999999
 30
0.0
 40
10.0
 50
0.0
 51
90.0
  0
LINE
  5
416
  8
DETAIL
  6
CONTINUOUS
 62
     5
 10
-20.0
 20
-112.6013419999999
 30
0.0
 11
-20.0
 21
-127.6013419999999
 31
0.0
  0
LINE
  5
417
  8
DETAIL
  6
CONTINUOUS
 62
     5
 10
20.0
 20
-112.6013419999999
 30
0.0
 11
20.0
 21
-127.6013419999999
 31
0.0
  0
LINE
  5
418
  8
DETAIL
  6
CONTINUOUS
 62
     5
 10
20.0
 20
-112.6013419999999
 30
0.0
 11
-20.0
 21
-112.6013419999999
 31
0.0
  0
LINE
  5
419
  8
DETAIL
  6
CONTINUOUS
 62
     5
 10
-8.0
 20
-93.0
 30
0.0
 11
-8.0
 21
-112.6013419999999
 31
0.0
  0
LINE
  5
41A
  8
DETAIL
  6
CONTINUOUS
 62
     5
 10
8.0
 20
-93.0
 30
0.0
 11
8.0
 21
-112.6013419999999
 31
0.0
  0
LINE
  5
41B
  8
DETAIL
  6
CONTINUOUS
 62
     5
 10
82.0
 20
-277.76605399999983
 30
0.0
 11
82.0
 21
-317.0
 31
0.0
  0
LINE
  5
41C
  8
DETAIL
  6
CONTINUOUS
 62
     5
 10
-82.0
 20
-277.76605399999983
 30
0.0
 11
-82.0
 21
-317.0
 31
0.0
  0
ARC
  5
41D
  8
DETAIL
  6
CONTINUOUS
 62
     5
 10
-72.0
 20
-317.0
 30
0.0
 40
10.0
 50
180.0
 51
270.0
  0
ARC
  5
41E
  8
DETAIL
  6
CONTINUOUS
 62
     5
 10
72.0
 20
-317.0
 30
0.0
 40
10.0
 50
270.0
 51
0.0
  0
LINE
  5
41F
  8
DETAIL
  6
CONTINUOUS
 62
     5
 10
275.0
 20
-20.0
 30
0.0
 11
275.0
 21
-180.26440600000001
 31
0.0
  0
ARC
  5
420
  8
DETAIL
  6
CONTINUOUS
 62
     5
 10
225.0
 20
-180.26440600000001
 30
0.0
 40
50.0
 50
270.0
 51
0.0
  0
CIRCLE
  5
421
  8
FIX
  6
CONTINUOUS
 62
    11
 10
325.0
 20
0.0
 30
0.0
 40
7.5
  0
LINE
  5
422
  8
DETAIL
  6
CONTINUOUS
 62
     5
 10
130.0
 20
-225.763856
 30
0.0
 11
-130.0
 21
-225.763856
 31
0.0
  0
LINE
  5
423
  8
DETAIL
  6
CONTINUOUS
 62
     5
 10
130.0
 20
-230.26440599999989
 30
0.0
 11
130.0
 21
-225.763856
 31
0.0
  0
LINE
  5
424
  8
DETAIL
  6
CONTINUOUS
 62
     5
 10
-130.0
 20
-230.26440599999989
 30
0.0
 11
-130.0
 21
-225.763856
 31
0.0
  0
LINE
  5
425
  8
DETAIL
  6
CONTINUOUS
 62
     5
 10
130.0
 20
-268.26440600000001
 30
0.0
 11
14.852179999999979
 21
-268.26440600000001
 31
0.0
  0
LINE
  5
426
  8
DETAIL
  6
CONTINUOUS
 62
     5
 10
14.852179999999979
 20
-268.26440600000001
 30
0.0
 11
14.852179999999979
 21
-230.26440599999989
 31
0.0
  0
LINE
  5
427
  8
DETAIL
  6
CONTINUOUS
 62
     5
 10
-14.852179999999979
 20
-230.26440599999989
 30
0.0
 11
-90.0
 21
-230.26440599999989
 31
0.0
  0
LINE
  5
428
  8
DETAIL
  6
CONTINUOUS
 62
     5
 10
-14.852179999999979
 20
-268.26440600000001
 30
0.0
 11
-14.852179999999979
 21
-230.26440599999989
 31
0.0
  0
LINE
  5
429
  8
DETAIL
  6
CONTINUOUS
 62
     5
 10
-130.0
 20
-268.26440600000001
 30
0.0
 11
-14.852179999999979
 21
-268.26440600000001
 31
0.0
  0
LINE
  5
42A
  8
NOTE
  6
CONTINUOUS
 62
     4
 10
325.0
 20
0.0
 30
0.0
 11
419.97747999999979
 21
87.953590000000005
 31
0.0
  0
LINE
  5
42B
  8
NOTE
  6
CONTINUOUS
 62
     4
 10
67.410316000000009
 20
88.931880000000007
 30
0.0
 11
178.476493
 21
88.931880000000007
 31
0.0
  0
ARC
  5
42C
  8
DETAIL
  6
CONTINUOUS
 62
     5
 10
360.88203399999992
 20
-48.922888
 30
0.0
 40
44.86703
 50
178.58988500000001
 51
259.23277100000001
  0
ARC
  5
42D
  8
DETAIL
  6
CONTINUOUS
 62
     5
 10
-360.88203399999992
 20
-48.922888
 30
0.0
 40
44.86703
 50
280.76722899999982
 51
1.410115
  0
LINE
  5
42E
  8
DETAIL
  6
CONTINUOUS
 62
     5
 10
-255.0
 20
-20.0
 30
0.0
 11
-255.0
 21
-10.0
 31
0.0
  0
LINE
  5
42F
  8
DETAIL
  6
CONTINUOUS
 62
     5
 10
-315.0
 20
-20.0
 30
0.0
 11
-315.0
 21
-10.0
 31
0.0
  0
LINE
  5
430
  8
DETAIL
  6
CONTINUOUS
 62
     5
 10
-315.0
 20
-20.0
 30
0.0
 11
-255.0
 21
-20.0
 31
0.0
  0
LINE
  5
431
  8
DETAIL
  6
CONTINUOUS
 62
     5
 10
-90.0
 20
-230.26440599999989
 30
0.0
 11
-225.0
 21
-230.26440599999989
 31
0.0
  0
LINE
  5
432
  8
DETAIL
  6
CONTINUOUS
 62
     5
 10
-225.0
 20
-268.26440600000001
 30
0.0
 11
-130.0
 21
-268.26440600000001
 31
0.0
  0
ARC
  5
433
  8
DETAIL
  6
CONTINUOUS
 62
     5
 10
-225.0
 20
-198.26440600000001
 30
0.0
 40
70.0
 50
180.0
 51
270.0
  0
ARC
  5
434
  8
DETAIL
  6
CONTINUOUS
 62
     5
 10
-225.0
 20
-180.26440600000001
 30
0.0
 40
50.0
 50
180.0
 51
270.0
  0
LINE
  5
435
  8
DETAIL
  6
CONTINUOUS
 62
     5
 10
-295.0
 20
-20.0
 30
0.0
 11
-295.0
 21
-198.26440600000001
 31
0.0
  0
LINE
  5
436
  8
DETAIL
  6
CONTINUOUS
 62
     5
 10
-275.0
 20
-20.0
 30
0.0
 11
-275.0
 21
-180.26440600000001
 31
0.0
  0
LINE
  5
437
  8
DETAIL
  6
CONTINUOUS
 62
     5
 10
-315.0
 20
-20.0
 30
0.0
 11
-316.028592
 21
-47.818770000000001
 31
0.0
  0
LINE
  5
438
  8
DETAIL
  6
CONTINUOUS
 62
     5
 10
315.0
 20
-20.0
 30
0.0
 11
316.028592
 21
-47.818770000000001
 31
0.0
  0
LINE
  5
439
  8
SIZE
  6
CONTINUOUS
 62
    30
 10
-427.42211199999991
 20
0.0
 30
0.0
 11
-427.42211199999991
 21
132.923709
 31
0.0
  0
LINE
  5
43A
  8
SIZE
  6
CONTINUOUS
 62
    30
 10
-549.59055899999964
 20
2.0
 30
0.0
 11
-549.59055899999964
 21
132.923709
 31
0.0
  0
LINE
  5
43B
  8
OUTLINE
  6
CONTINUOUS
 62
     3
 10
315.0
 20
-20.0
 30
0.0
 11
316.028592
 21
-47.818770000000001
 31
0.0
  0
LINE
  5
43C
  8
OUTLINE
  6
CONTINUOUS
 62
     3
 10
-315.0
 20
-20.0
 30
0.0
 11
-316.028592
 21
-47.818770000000001
 31
0.0
  0
LINE
  5
43D
  8
OUTLINE
  6
CONTINUOUS
 62
     3
 10
-275.0
 20
-20.0
 30
0.0
 11
-275.0
 21
-180.26440600000001
 31
0.0
  0
LINE
  5
43E
  8
OUTLINE
  6
CONTINUOUS
 62
     3
 10
-295.0
 20
-20.0
 30
0.0
 11
-295.0
 21
-198.26440600000001
 31
0.0
  0
ARC
  5
43F
  8
OUTLINE
  6
CONTINUOUS
 62
     3
 10
-225.0
 20
-180.26440600000001
 30
0.0
 40
50.0
 50
180.0
 51
270.0
  0
ARC
  5
440
  8
OUTLINE
  6
CONTINUOUS
 62
     3
 10
-225.0
 20
-198.26440600000001
 30
0.0
 40
70.0
 50
180.0
 51
270.0
  0
LINE
  5
441
  8
OUTLINE
  6
CONTINUOUS
 62
     3
 10
-225.0
 20
-268.26440600000001
 30
0.0
 11
-130.0
 21
-268.26440600000001
 31
0.0
  0
LINE
  5
442
  8
OUTLINE
  6
CONTINUOUS
 62
     3
 10
-130.0
 20
-230.26440599999989
 30
0.0
 11
-225.0
 21
-230.26440599999989
 31
0.0
  0
LINE
  5
443
  8
OUTLINE
  6
CONTINUOUS
 62
     3
 10
-315.0
 20
-20.0
 30
0.0
 11
-255.0
 21
-20.0
 31
0.0
  0
LINE
  5
444
  8
OUTLINE
  6
CONTINUOUS
 62
     3
 10
-315.0
 20
-20.0
 30
0.0
 11
-315.0
 21
-10.0
 31
0.0
  0
LINE
  5
445
  8
OUTLINE
  6
CONTINUOUS
 62
     3
 10
-255.0
 20
-20.0
 30
0.0
 11
-255.0
 21
-10.0
 31
0.0
  0
ARC
  5
446
  8
OUTLINE
  6
CONTINUOUS
 62
     3
 10
-360.88203399999992
 20
-48.922888
 30
0.0
 40
44.86703
 50
280.76722899999982
 51
1.410115
  0
ARC
  5
447
  8
OUTLINE
  6
CONTINUOUS
 62
     3
 10
360.88203399999992
 20
-48.922888
 30
0.0
 40
44.86703
 50
178.58988500000001
 51
259.23277100000001
  0
LINE
  5
448
  8
OUTLINE
  6
CONTINUOUS
 62
     3
 10
-130.0
 20
-230.26440599999989
 30
0.0
 11
-130.0
 21
-225.763856
 31
0.0
  0
LINE
  5
449
  8
OUTLINE
  6
CONTINUOUS
 62
     3
 10
130.0
 20
-230.26440599999989
 30
0.0
 11
130.0
 21
-225.763856
 31
0.0
  0
LINE
  5
44A
  8
OUTLINE
  6
CONTINUOUS
 62
     3
 10
130.0
 20
-225.763856
 30
0.0
 11
-130.0
 21
-225.763856
 31
0.0
  0
ARC
  5
44B
  8
OUTLINE
  6
CONTINUOUS
 62
     3
 10
225.0
 20
-180.26440600000001
 30
0.0
 40
50.0
 50
270.0
 51
0.0
  0
LINE
  5
44C
  8
OUTLINE
  6
CONTINUOUS
 62
     3
 10
275.0
 20
-20.0
 30
0.0
 11
275.0
 21
-180.26440600000001
 31
0.0
  0
ARC
  5
44D
  8
OUTLINE
  6
CONTINUOUS
 62
     3
 10
72.0
 20
-317.0
 30
0.0
 40
10.0
 50
270.0
 51
0.0
  0
ARC
  5
44E
  8
OUTLINE
  6
CONTINUOUS
 62
     3
 10
-72.0
 20
-317.0
 30
0.0
 40
10.0
 50
180.0
 51
270.0
  0
LINE
  5
44F
  8
OUTLINE
  6
CONTINUOUS
 62
     3
 10
-82.0
 20
-277.76605399999983
 30
0.0
 11
-82.0
 21
-317.0
 31
0.0
  0
LINE
  5
450
  8
OUTLINE
  6
CONTINUOUS
 62
     3
 10
82.0
 20
-277.76605399999983
 30
0.0
 11
82.0
 21
-317.0
 31
0.0
  0
LINE
  5
451
  8
OUTLINE
  6
CONTINUOUS
 62
     3
 10
295.0
 20
-93.0
 30
0.0
 11
352.49999999999972
 21
-93.0
 31
0.0
  0
LINE
  5
452
  8
OUTLINE
  6
CONTINUOUS
 62
     3
 10
-295.0
 20
-93.0
 30
0.0
 11
-352.49999999999972
 21
-93.0
 31
0.0
  0
LINE
  5
453
  8
OUTLINE
  6
CONTINUOUS
 62
     3
 10
275.0
 20
-93.0
 30
0.0
 11
-275.0
 21
-93.0
 31
0.0
  0
ARC
  5
454
  8
OUTLINE
  6
CONTINUOUS
 62
     3
 10
348.0
 20
-3.0
 30
0.0
 40
7.0
 50
270.0
 51
0.0
  0
ARC
  5
455
  8
OUTLINE
  6
CONTINUOUS
 62
     3
 10
-348.0
 20
-3.0
 30
0.0
 40
7.0
 50
180.0
 51
270.0
  0
ARC
  5
456
  8
OUTLINE
  6
CONTINUOUS
 62
     3
 10
225.0
 20
-198.26440600000001
 30
0.0
 40
70.0
 50
270.0
 51
0.0
  0
LINE
  5
457
  8
OUTLINE
  6
CONTINUOUS
 62
     3
 10
255.0
 20
-20.0
 30
0.0
 11
255.0
 21
-10.0
 31
0.0
  0
LINE
  5
458
  8
OUTLINE
  6
CONTINUOUS
 62
     3
 10
225.0
 20
-268.26440600000001
 30
0.0
 11
130.0
 21
-268.26440600000001
 31
0.0
  0
LINE
  5
459
  8
OUTLINE
  6
CONTINUOUS
 62
     3
 10
130.0
 20
-230.26440599999989
 30
0.0
 11
225.0
 21
-230.26440599999989
 31
0.0
  0
LINE
  5
45A
  8
OUTLINE
  6
CONTINUOUS
 62
     3
 10
315.0
 20
-20.0
 30
0.0
 11
315.0
 21
-10.0
 31
0.0
  0
LINE
  5
45B
  8
OUTLINE
  6
CONTINUOUS
 62
     3
 10
72.0
 20
-327.0
 30
0.0
 11
-72.0
 21
-327.0
 31
0.0
  0
LINE
  5
45C
  8
OUTLINE
  6
CONTINUOUS
 62
     3
 10
-130.0
 20
-277.76605399999983
 30
0.0
 11
-130.0
 21
-230.26440599999989
 31
0.0
  0
LINE
  5
45D
  8
OUTLINE
  6
CONTINUOUS
 62
     3
 10
130.0
 20
-277.76605399999983
 30
0.0
 11
130.0
 21
-230.26440599999989
 31
0.0
  0
LINE
  5
45E
  8
OUTLINE
  6
CONTINUOUS
 62
     3
 10
130.0
 20
-277.76605399999983
 30
0.0
 11
-130.0
 21
-277.76605399999983
 31
0.0
  0
LINE
  5
45F
  8
OUTLINE
  6
CONTINUOUS
 62
     3
 10
315.0
 20
-20.0
 30
0.0
 11
255.0
 21
-20.0
 31
0.0
  0
LINE
  5
460
  8
OUTLINE
  6
CONTINUOUS
 62
     3
 10
-335.49999999999989
 20
-10.0
 30
0.0
 11
-348.0
 21
-10.0
 31
0.0
  0
LINE
  5
461
  8
OUTLINE
  6
CONTINUOUS
 62
     3
 10
335.49999999999989
 20
-10.0
 30
0.0
 11
-335.49999999999989
 21
-10.0
 31
0.0
  0
LINE
  5
462
  8
OUTLINE
  6
CONTINUOUS
 62
     3
 10
-355.0
 20
-3.0
 30
0.0
 11
-355.0
 21
0.0
 31
0.0
  0
LINE
  5
463
  8
OUTLINE
  6
CONTINUOUS
 62
     3
 10
355.0
 20
-3.0
 30
0.0
 11
355.0
 21
0.0
 31
0.0
  0
LINE
  5
464
  8
OUTLINE
  6
CONTINUOUS
 62
     3
 10
348.0
 20
-10.0
 30
0.0
 11
335.49999999999989
 21
-10.0
 31
0.0
  0
LINE
  5
465
  8
OUTLINE
  6
CONTINUOUS
 62
     3
 10
295.0
 20
-20.0
 30
0.0
 11
295.0
 21
-198.26440600000001
 31
0.0
  0
LINE
  5
466
  8
OUTLINE
  6
CONTINUOUS
 62
     3
 10
355.0
 20
0.0
 30
0.0
 11
-355.0
 21
0.0
 31
0.0
  0
LINE
  5
467
  8
SIZE
  6
CONTINUOUS
 62
    30
 10
-86.0
 20
-543.89918699999976
 30
0.0
 11
-306.80361799999997
 21
-543.89918699999976
 31
0.0
  0
LINE
  5
469
  8
SIZE
  6
BYBLOCK
 62
    30
 10
-352.49999999999972
 20
-113.0
 30
0.0
 11
-352.49999999999972
 21
-723.56964699999969
 31
0.0
  0
LINE
  5
46A
  8
SIZE
  6
BYBLOCK
 62
    30
 10
352.49999999999972
 20
-113.0
 30
0.0
 11
352.49999999999972
 21
-723.56964699999969
 31
0.0
  0
LINE
  5
46B
  8
SIZE
  6
BYBLOCK
 62
    30
 10
-350.49999999999972
 20
-693.56964699999969
 30
0.0
 11
0.0
 21
-693.56964699999969
 31
0.0
  0
LINE
  5
46C
  8
SIZE
  6
BYBLOCK
 62
    30
 10
350.49999999999972
 20
-693.56964699999969
 30
0.0
 11
0.0
 21
-693.56964699999969
 31
0.0
  0
TEXT
  5
46D
  8
SIZE
  6
BYBLOCK
 62
    30
 10
-102.85714299999979
 20
-668.79094999999995
 30
0.0
 40
64.0
  1
φ705
 41
0.9
  0
LINE
  5
46E
  8
SIZE
  6
BYBLOCK
 62
    30
 10
82.0
 20
-337.0
 30
0.0
 11
82.0
 21
-573.89918699999976
 31
0.0
  0
LINE
  5
46F
  8
SIZE
  6
BYBLOCK
 62
    30
 10
-82.0
 20
-337.0
 30
0.0
 11
-82.0
 21
-573.89918699999976
 31
0.0
  0
LINE
  5
470
  8
SIZE
  6
BYBLOCK
 62
    30
 10
-84.0
 20
-543.89918699999976
 30
0.0
 11
-86.0
 21
-543.89918699999976
 31
0.0
  0
LINE
  5
471
  8
SIZE
  6
BYBLOCK
 62
    30
 10
84.0
 20
-543.89918699999976
 30
0.0
 11
86.0
 21
-543.89918699999976
 31
0.0
  0
LINE
  5
472
  8
SIZE
  6
BYBLOCK
 62
    30
 10
-82.0
 20
-543.89918699999976
 30
0.0
 11
82.0
 21
-543.89918699999976
 31
0.0
  0
TEXT
  5
473
  8
SIZE
  6
BYBLOCK
 62
    30
 10
-315.5794029999999
 20
-513.63054999999986
 30
0.0
 40
64.0
  1
φ164
 41
0.9
  0
LINE
  5
474
  8
SIZE
  6
BYBLOCK
 62
    30
 10
-355.0
 20
20.0
 30
0.0
 11
-355.0
 21
408.80068299999999
 31
0.0
  0
LINE
  5
475
  8
SIZE
  6
BYBLOCK
 62
    30
 10
355.0
 20
20.0
 30
0.0
 11
355.0
 21
408.80068299999999
 31
0.0
  0
LINE
  5
476
  8
SIZE
  6
BYBLOCK
 62
    30
 10
-353.0
 20
378.80068299999999
 30
0.0
 11
0.0
 21
378.80068299999999
 31
0.0
  0
LINE
  5
477
  8
SIZE
  6
BYBLOCK
 62
    30
 10
353.0
 20
378.80068299999999
 30
0.0
 11
0.0
 21
378.80068299999999
 31
0.0
  0
TEXT
  5
478
  8
SIZE
  6
BYBLOCK
 62
    30
 10
-68.571429000000009
 20
409.06932
 30
0.0
 40
64.0
  1
710
 41
0.9
  0
LINE
  5
479
  8
SIZE
  6
BYBLOCK
 62
    30
 10
-325.0
 20
40.0
 30
0.0
 11
-325.0
 21
283.696327
 31
0.0
  0
LINE
  5
47A
  8
SIZE
  6
BYBLOCK
 62
    30
 10
325.0
 20
40.0
 30
0.0
 11
325.0
 21
283.696327
 31
0.0
  0
LINE
  5
47B
  8
SIZE
  6
BYBLOCK
 62
    30
 10
-323.0
 20
253.696327
 30
0.0
 11
0.0
 21
253.696327
 31
0.0
  0
LINE
  5
47C
  8
SIZE
  6
BYBLOCK
 62
    30
 10
323.0
 20
253.696327
 30
0.0
 11
0.0
 21
253.696327
 31
0.0
  0
TEXT
  5
47D
  8
SIZE
  6
BYBLOCK
 62
    30
 10
-74.057143000000025
 20
283.96496400000001
 30
0.0
 40
64.0
  1
650
 41
0.9
  0
LINE
  5
47E
  8
SIZE
  6
BYBLOCK
 62
    30
 10
-375.0
 20
0.0
 30
0.0
 11
-673.46292500000004
 21
0.0
 31
0.0
  0
LINE
  5
47F
  8
SIZE
  6
BYBLOCK
 62
    30
 10
-92.0
 20
-327.0
 30
0.0
 11
-673.46292500000004
 21
-327.0
 31
0.0
  0
LINE
  5
480
  8
SIZE
  6
BYBLOCK
 62
    30
 10
-643.46292500000004
 20
-2.0
 30
0.0
 11
-643.46292500000004
 21
-163.4999999999998
 31
0.0
  0
LINE
  5
481
  8
SIZE
  6
BYBLOCK
 62
    30
 10
-643.46292500000004
 20
-325.0
 30
0.0
 11
-643.46292500000004
 21
-163.4999999999998
 31
0.0
  0
TEXT
  5
482
  8
SIZE
  6
BYBLOCK
 62
    30
 10
-675.46292500000004
 20
-237.557143
 30
0.0
 40
64.0
  1
327
 50
90.0
 41
0.9
  0
LINE
  5
483
  8
SIZE
  6
BYBLOCK
 62
    30
 10
-375.0
 20
0.0
 30
0.0
 11
-579.59055899999998
 21
0.0
 31
0.0
  0
LINE
  5
484
  8
SIZE
  6
BYBLOCK
 62
    30
 10
-372.5
 20
-93.0
 30
0.0
 11
-579.59055899999998
 21
-93.0
 31
0.0
  0
LINE
  5
485
  8
SIZE
  6
BYBLOCK
 62
    30
 10
-549.59055899999964
 20
-95.0
 30
0.0
 11
-549.59055899999964
 21
-97.0
 31
0.0
  0
LINE
  5
486
  8
SIZE
  6
BYBLOCK
 62
    30
 10
-549.59055899999964
 20
2.0
 30
0.0
 11
-549.59055899999964
 21
4.0
 31
0.0
  0
LINE
  5
487
  8
SIZE
  6
BYBLOCK
 62
    30
 10
-549.59055899999964
 20
-93.0
 30
0.0
 11
-549.59055899999964
 21
0.0
 31
0.0
  0
TEXT
  5
488
  8
SIZE
  6
BYBLOCK
 62
    30
 10
-581.59055899999976
 20
27.550218000000001
 30
0.0
 40
64.0
  1
93
 50
90.0
 41
0.9
  0
LINE
  5
489
  8
SIZE
  6
BYBLOCK
 62
    30
 10
-375.0
 20
0.0
 30
0.0
 11
-457.42211200000003
 21
0.0
 31
0.0
  0
LINE
  5
48A
  8
SIZE
  6
BYBLOCK
 62
    30
 10
-368.0
 20
-10.0
 30
0.0
 11
-457.42211200000003
 21
-10.0
 31
0.0
  0
LINE
  5
48B
  8
SIZE
  6
BYBLOCK
 62
    30
 10
-427.42211199999991
 20
-12.0
 30
0.0
 11
-427.42211199999991
 21
-14.0
 31
0.0
  0
LINE
  5
48C
  8
SIZE
  6
BYBLOCK
 62
    30
 10
-427.42211199999991
 20
2.0
 30
0.0
 11
-427.42211199999991
 21
4.0
 31
0.0
  0
LINE
  5
48D
  8
SIZE
  6
BYBLOCK
 62
    30
 10
-427.42211199999991
 20
-10.0
 30
0.0
 11
-427.42211199999991
 21
0.0
 31
0.0
  0
TEXT
  5
48E
  8
SIZE
  6
BYBLOCK
 62
    30
 10
-459.42211200000003
 20
35.799531000000002
 30
0.0
 40
64.0
  1
10
 50
90.0
 41
0.9
  0
CIRCLE
  5
48F
  8
SIZE
  6
CONTINUOUS
 62
    30
 10
-427.42211199999991
 20
0.0
 30
0.0
 40
6.0
  0
CIRCLE
  5
490
  8
SIZE
  6
CONTINUOUS
 62
    30
 10
-427.42211199999991
 20
-10.0
 30
0.0
 40
6.0
  0
CIRCLE
  5
491
  8
SIZE
  6
CONTINUOUS
 62
    30
 10
-549.59055899999964
 20
0.0
 30
0.0
 40
6.0
  0
CIRCLE
  5
492
  8
SIZE
  6
CONTINUOUS
 62
    30
 10
-549.59055899999964
 20
-93.0
 30
0.0
 40
6.0
  0
CIRCLE
  5
493
  8
SIZE
  6
CONTINUOUS
 62
    30
 10
-643.46292500000004
 20
-327.0
 30
0.0
 40
6.0
  0
CIRCLE
  5
494
  8
SIZE
  6
CONTINUOUS
 62
    30
 10
-643.46292500000004
 20
0.0
 30
0.0
 40
6.0
  0
CIRCLE
  5
495
  8
SIZE
  6
CONTINUOUS
 62
    30
 10
325.0
 20
253.696327
 30
0.0
 40
6.0
  0
CIRCLE
  5
496
  8
SIZE
  6
CONTINUOUS
 62
    30
 10
-325.0
 20
253.696327
 30
0.0
 40
6.0
  0
CIRCLE
  5
497
  8
SIZE
  6
CONTINUOUS
 62
    30
 10
355.0
 20
378.80068299999999
 30
0.0
 40
6.0
  0
CIRCLE
  5
498
  8
SIZE
  6
CONTINUOUS
 62
    30
 10
-355.0
 20
378.80068299999999
 30
0.0
 40
6.0
  0
CIRCLE
  5
499
  8
SIZE
  6
CONTINUOUS
 62
    30
 10
82.0
 20
-543.89918699999976
 30
0.0
 40
6.0
  0
CIRCLE
  5
49A
  8
SIZE
  6
CONTINUOUS
 62
    30
 10
-82.0
 20
-543.89918699999976
 30
0.0
 40
6.0
  0
CIRCLE
  5
49B
  8
SIZE
  6
CONTINUOUS
 62
    30
 10
352.49999999999972
 20
-693.56964699999969
 30
0.0
 40
6.0
  0
CIRCLE
  5
49C
  8
SIZE
  6
CONTINUOUS
 62
    30
 10
-352.49999999999972
 20
-693.56964699999969
 30
0.0
 40
6.0
  0
LINE
  5
49D
  8
NOTE
  6
CONTINUOUS
 62
     4
 10
295.0
 20
-40.0
 30
0.0
 11
295.0
 21
0.0
 31
0.0
  0
LINE
  5
49E
  8
NOTE
  6
CONTINUOUS
 62
     4
 10
275.0
 20
-20.0
 30
0.0
 11
315.0
 21
-20.0
 31
0.0
  0
LINE
  5
49F
  8
NOTE
  6
CONTINUOUS
 62
     4
 10
325.0
 20
-20.0
 30
0.0
 11
325.0
 21
20.0
 31
0.0
  0
LINE
  5
4A0
  8
NOTE
  6
CONTINUOUS
 62
     4
 10
305.0
 20
0.0
 30
0.0
 11
345.0
 21
0.0
 31
0.0
  0
LINE
  5
4A1
  8
NOTE
  6
CONTINUOUS
 62
     4
 10
-325.0
 20
-20.0
 30
0.0
 11
-325.0
 21
20.0
 31
0.0
  0
LINE
  5
4A2
  8
NOTE
  6
CONTINUOUS
 62
     4
 10
-345.0
 20
0.0
 30
0.0
 11
-305.0
 21
0.0
 31
0.0
  0
ARC
  5
4A4
  8
DETAIL
  6
CONTINUOUS
 62
     5
 10
-88.040746999999783
 20
196.2999209999997
 30
0.0
 40
363.67505799999992
 50
296.78177774466172
 51
307.29842500000279
  0
ARC
  5
4A5
  8
DETAIL
  6
CONTINUOUS
 62
     5
 10
48.706089000000127
 20
-333.46999299999982
 30
0.0
 40
301.54009600000001
 50
127.11056400000091
 51
141.97419500000191
  0
ARC
  5
4A6
  8
DETAIL
  6
CONTINUOUS
 62
     5
 10
-163.3642159999998
 20
-163.57956399999969
 30
0.0
 40
30.0
 50
148.0774130000004
 51
180.0
  0
ARC
  5
4A7
  8
DETAIL
  6
CONTINUOUS
 62
     5
 10
-201.04294799999951
 20
-80.440746000000033
 30
0.0
 40
93.132537000000013
 50
215.9749359999997
 51
274.7293780000021
  0
LINE
  5
4A8
  8
DETAIL
  6
CONTINUOUS
 62
     5
 10
-193.3642159999998
 20
-173.2561899999998
 30
0.0
 11
-193.3642159999998
 21
-163.57956399999969
 31
0.0
  0
ARC
  5
4A9
  8
DETAIL
  6
CONTINUOUS
 62
     5
 10
-143.48639799999961
 20
23.766467999999922
 30
0.0
 40
209.311455
 50
319.3447047670395
 51
326.0920750000011
  0
ARC
  5
4AA
  8
DETAIL
  6
CONTINUOUS
 62
     5
 10
296.44495899999981
 20
312.49232799999982
 30
0.0
 40
481.39577400000002
 50
244.4048580000015
 51
267.03293699999813
  0
ARC
  5
4AB
  8
DETAIL
  6
CONTINUOUS
 62
     5
 10
313.2691369999996
 20
106.0928669999997
 30
0.0
 40
277.50831699999992
 50
227.39161999999791
 51
261.34887300000031
  0
LINE
  5
4AD
  8
NOTE
  6
CONTINUOUS
 62
     4
 10
360.40316300000001
 20
18.617626999999992
 30
0.0
 11
325.0
 21
0.0
 31
0.0
  0
LINE
  5
4AE
  8
NOTE
  6
CONTINUOUS
 62
     4
 10
325.0
 20
0.0
 30
0.0
 11
346.35122599999983
 21
33.824919000000001
 31
0.0
  0
LINE
  5
4AF
  8
NOTE
  6
CONTINUOUS
 62
     4
 10
259.557703
 20
-1.456980999999999
 30
0.0
 11
295.0
 21
-20.0
 31
0.0
  0
LINE
  5
4B0
  8
NOTE
  6
CONTINUOUS
 62
     4
 10
295.0
 20
-20.0
 30
0.0
 11
273.57757999999973
 21
13.779874
 31
0.0
  0
TEXT
  5
4B9
  8
ETC
  6
CONTINUOUS
 62
    61
 10
672.56871290292906
 20
501.38010438102327
 30
0.0
 40
64.0
  1
EG-60FTXB3-F_6
 41
0.9
  0
TEXT
  5
4BA
  8
ETC
  6
CONTINUOUS
 62
    61
 10
796.87257885174461
 20
311.8162538567928
 30
0.0
 40
50.0
  1
EG-60FTXB3-F
 41
0.9
  0
TEXT
  5
4BB
  8
ETC
  6
CONTINUOUS
 62
    61
 10
663.97103690292897
 20
395.71546438102331
 30
0.0
 40
64.0
  1
産業扇
 41
0.9
  0
ENDSEC
  0
EOF
