  0
SECTION
  2
HEADER
  9
$ACADVER
  1
AC1009
  9
$DWGCODEPAGE
  3
ansi_932
  9
$INSBASE
 10
0.0
 20
0.0
 30
0.0
  9
$EXTMIN
 10
-663.3010099999999
 20
-489.984762
 30
0.0
  9
$EXTMAX
 10
1332.740462949639
 20
818.1658881832288
 30
0.0
  9
$LIMMIN
 10
-2970.0
 20
-2100.0
  9
$LIMMAX
 10
2970.0
 20
2100.0
  9
$ORTHOMODE
 70
     1
  9
$REGENMODE
 70
     0
  9
$FILLMODE
 70
     1
  9
$QTEXTMODE
 70
     0
  9
$MIRRTEXT
 70
     0
  9
$DRAGMODE
 70
     2
  9
$LTSCALE
 40
20.0
  9
$OSMODE
 70
    37
  9
$ATTMODE
 70
     1
  9
$TEXTSIZE
 40
64.0
  9
$TRACEWID
 40
0.05
  9
$TEXTSTYLE
  7
STANDARD
  9
$CLAYER
  8
0
  9
$CELTYPE
  6
CONTINUOUS
  9
$CECOLOR
 62
     8
  9
$DIMSCALE
 40
1.0
  9
$DIMASZ
 40
2.0
  9
$DIMEXO
 40
20.0
  9
$DIMDLI
 40
200.0
  9
$DIMRND
 40
0.0
  9
$DIMDLE
 40
0.0
  9
$DIMEXE
 40
30.0
  9
$DIMTP
 40
0.0
  9
$DIMTM
 40
0.0
  9
$DIMTXT
 40
64.0
  9
$DIMCEN
 40
0.09
  9
$DIMTSZ
 40
0.0
  9
$DIMTOL
 70
     0
  9
$DIMLIM
 70
     0
  9
$DIMTIH
 70
     0
  9
$DIMTOH
 70
     0
  9
$DIMSE1
 70
     0
  9
$DIMSE2
 70
     0
  9
$DIMTAD
 70
     1
  9
$DIMZIN
 70
     8
  9
$DIMBLK
  1

  9
$DIMASO
 70
     1
  9
$DIMSHO
 70
     0
  9
$DIMPOST
  1

  9
$DIMAPOST
  1

  9
$DIMALT
 70
     0
  9
$DIMALTD
 70
     2
  9
$DIMALTF
 40
25.4
  9
$DIMLFAC
 40
1.0
  9
$DIMTOFL
 70
     1
  9
$DIMTVP
 40
0.0
  9
$DIMTIX
 70
     1
  9
$DIMSOXD
 70
     0
  9
$DIMSAH
 70
     0
  9
$DIMBLK1
  1

  9
$DIMBLK2
  1

  9
$DIMSTYLE
  2
STANDARD
  9
$DIMCLRD
 70
     0
  9
$DIMCLRE
 70
     0
  9
$DIMCLRT
 70
     0
  9
$DIMTFAC
 40
1.0
  9
$DIMGAP
 40
0.09
  9
$LUNITS
 70
     2
  9
$LUPREC
 70
     4
  9
$SKETCHINC
 40
0.1
  9
$FILLETRAD
 40
240.0
  9
$AUNITS
 70
     1
  9
$AUPREC
 70
     3
  9
$MENU
  1
ACAD
  9
$ELEVATION
 40
0.0
  9
$PELEVATION
 40
0.0
  9
$THICKNESS
 40
0.0
  9
$LIMCHECK
 70
     1
  9
$CHAMFERA
 40
0.0
  9
$CHAMFERB
 40
0.0
  9
$SKPOLY
 70
     0
  9
$TDCREATE
 40
2451485.361828704
  9
$TDUPDATE
 40
2457485.555977477
  9
$TDINDWG
 40
0.0384253704
  9
$TDUSRTIMER
 40
0.0384251968
  9
$USRTIMER
 70
     1
  9
$ANGBASE
 50
0.0
  9
$ANGDIR
 70
     0
  9
$PDMODE
 70
     3
  9
$PDSIZE
 40
-2.0
  9
$PLINEWID
 40
0.0
  9
$COORDS
 70
     1
  9
$SPLFRAME
 70
     0
  9
$SPLINETYPE
 70
     6
  9
$SPLINESEGS
 70
     8
  9
$ATTDIA
 70
     0
  9
$ATTREQ
 70
     1
  9
$HANDLING
 70
     1
  9
$HANDSEED
  5
45A
  9
$SURFTAB1
 70
     6
  9
$SURFTAB2
 70
     6
  9
$SURFTYPE
 70
     6
  9
$SURFU
 70
     6
  9
$SURFV
 70
     6
  9
$UCSNAME
  2

  9
$UCSORG
 10
0.0
 20
0.0
 30
0.0
  9
$UCSXDIR
 10
1.0
 20
0.0
 30
0.0
  9
$UCSYDIR
 10
0.0
 20
1.0
 30
0.0
  9
$PUCSNAME
  2

  9
$PUCSORG
 10
0.0
 20
0.0
 30
0.0
  9
$PUCSXDIR
 10
1.0
 20
0.0
 30
0.0
  9
$PUCSYDIR
 10
0.0
 20
1.0
 30
0.0
  9
$USERI1
 70
     0
  9
$USERI2
 70
     0
  9
$USERI3
 70
     0
  9
$USERI4
 70
     0
  9
$USERI5
 70
     0
  9
$USERR1
 40
20.0
  9
$USERR2
 40
0.0
  9
$USERR3
 40
0.0
  9
$USERR4
 40
0.0
  9
$USERR5
 40
0.0
  9
$WORLDVIEW
 70
     1
  9
$SHADEDGE
 70
     3
  9
$SHADEDIF
 70
    70
  9
$TILEMODE
 70
     1
  9
$MAXACTVP
 70
    64
  9
$PLIMCHECK
 70
     0
  9
$PEXTMIN
 10
1.000000000000000E+20
 20
1.000000000000000E+20
 30
1.000000000000000E+20
  9
$PEXTMAX
 10
-1.000000000000000E+20
 20
-1.000000000000000E+20
 30
-1.000000000000000E+20
  9
$PLIMMIN
 10
0.0
 20
0.0
  9
$PLIMMAX
 10
12.0
 20
9.0
  9
$UNITMODE
 70
     0
  9
$VISRETAIN
 70
     1
  9
$PLINEGEN
 70
     0
  9
$PSLTSCALE
 70
     1
  0
ENDSEC
  0
SECTION
  2
TABLES
  0
TABLE
  2
VPORT
 70
     1
  0
VPORT
  2
*ACTIVE
 70
     0
 10
0.0
 20
0.0
 11
1.0
 21
1.0
 12
347.7777657748361
 22
158.6657526006988
 13
0.0
 23
0.0
 14
400.0
 24
400.0
 15
400.0
 25
400.0
 16
0.0
 26
0.0
 36
1.0
 17
0.0
 27
0.0
 37
0.0
 40
1808.110871285599
 41
1.493654822335025
 42
50.0
 43
0.0
 44
0.0
 50
0.0
 51
0.0
 71
     0
 72
  1000
 73
     1
 74
     0
 75
     0
 76
     0
 77
     0
 78
     0
  0
ENDTAB
  0
TABLE
  2
LTYPE
 70
     7
  0
LTYPE
  2
CONTINUOUS
 70
     0
  3
実線
 72
    65
 73
     0
 40
0.0
  0
LTYPE
  2
DASHDOT
 70
     0
  3
____ _ ____ _ ____ _ ____ _ ____ _ ____ _ ____
 72
    65
 73
     4
 40
5.5
 49
4.0
 49
-0.6
 49
0.3
 49
-0.6
  0
LTYPE
  2
DASHED
 70
     0
  3
_ _ _ _ _ _ _ _ _ _ _ _ _ _ _ _ _ _ _ _ _ _ _
 72
    65
 73
     2
 40
1.999999999999999
 49
1.199999999999999
 49
-0.8
  0
LTYPE
  2
DOT
 70
     0
  3
...............................................
 72
    65
 73
     2
 40
0.8
 49
0.5
 49
-0.3
  0
LTYPE
  2
DASHDOT1
 70
     0
  3
____ _ ____ _ ____ _ ____ _ ____ _ ____ _ ____
 72
    65
 73
     4
 40
2.0
 49
1.5
 49
-0.2
 49
0.1
 49
-0.2
  0
LTYPE
  2
DIVIDE
 70
     0
  3
_____ _ _ _____ _ _ _____ _ _ _____ _ _ ____
 72
    65
 73
     6
 40
6.4
 49
4.0
 49
-0.6
 49
0.3
 49
-0.6
 49
0.3
 49
-0.6
  0
LTYPE
  2
DIVIDE1
 70
     0
  3
_____ _ _ _____ _ _ _____ _ _ _____ _ _ ____
 72
    65
 73
     6
 40
3.2
 49
2.0
 49
-0.3
 49
0.15
 49
-0.3
 49
0.15
 49
-0.3
  0
ENDTAB
  0
TABLE
  2
LAYER
 70
    12
  0
LAYER
  2
0
 70
     0
 62
     7
  6
CONTINUOUS
  0
LAYER
  2
OUTLINE
 70
     0
 62
     3
  6
CONTINUOUS
  0
LAYER
  2
DETAIL
 70
     0
 62
     5
  6
CONTINUOUS
  0
LAYER
  2
BASIS
 70
     0
 62
     6
  6
DASHDOT
  0
LAYER
  2
NOTE
 70
     0
 62
     4
  6
CONTINUOUS
  0
LAYER
  2
DEFPOINTS
 70
     0
 62
     7
  6
CONTINUOUS
  0
LAYER
  2
SIZE
 70
     0
 62
    30
  6
CONTINUOUS
  0
LAYER
  2
ARRANGE
 70
     0
 62
     1
  6
CONTINUOUS
  0
LAYER
  2
FIX
 70
     0
 62
    11
  6
CONTINUOUS
  0
LAYER
  2
ETC
 70
     0
 62
    61
  6
CONTINUOUS
  0
LAYER
  2
SERVICESPACE
 70
     0
 62
     2
  6
DASHDOT
  0
LAYER
  2
SYMBOLLINE
 70
     0
 62
    15
  6
CONTINUOUS
  0
ENDTAB
  0
TABLE
  2
STYLE
 70
     1
  0
STYLE
  2
STANDARD
 70
     0
 40
0.0
 41
0.9
 50
0.0
 71
     0
 42
64.0
  3
SIMPLEX
  4
BIGFONT
  0
ENDTAB
  0
TABLE
  2
VIEW
 70
     1
  0
VIEW
  2
ALL
 70
     0
 40
4508.020851
 10
0.0
 20
41.30990399999999
 41
6252.631578999999
 11
0.0
 21
0.0
 31
1.0
 12
0.0
 22
0.0
 32
0.0
 42
50.0
 43
0.0
 44
0.0
 50
0.0
 71
     0
  0
ENDTAB
  0
TABLE
  2
UCS
 70
     0
  0
ENDTAB
  0
TABLE
  2
APPID
 70
     1
  0
APPID
  2
ACAD
 70
     0
  0
ENDTAB
  0
TABLE
  2
DIMSTYLE
 70
     1
  0
DIMSTYLE
  2
STANDARD
 70
     0
  3

  4

  5

  6

  7

 40
1.0
 41
0.18
 42
0.0625
 43
0.38
 44
0.18
 45
0.0
 46
0.0
 47
0.0
 48
0.0
140
0.18
141
0.09
142
0.0
143
25.4
144
1.0
145
0.0
146
1.0
147
0.09
 71
     0
 72
     0
 73
     1
 74
     1
 75
     0
 76
     0
 77
     0
 78
     0
170
     0
171
     2
172
     0
173
     0
174
     0
175
     0
176
     0
177
     0
178
     0
  0
ENDTAB
  0
ENDSEC
  0
SECTION
  2
BLOCKS
  0
BLOCK
  8
0
  2
$MODEL_SPACE
 70
     0
 10
0.0
 20
0.0
 30
0.0
  3
$MODEL_SPACE
  1

  0
ENDBLK
  5
1FD
  8
0
  0
BLOCK
 67
     1
  8
0
  2
$PAPER_SPACE
 70
     0
 10
0.0
 20
0.0
 30
0.0
  3
$PAPER_SPACE
  1

  0
ENDBLK
  5
1F9
 67
     1
  8
0
  0
BLOCK
  8
0
  2
DOT1
 70
     0
 10
0.0
 20
0.0
 30
0.0
  3
DOT1
  1

  0
CIRCLE
  5
21D
  8
SIZE
  6
CONTINUOUS
 62
     7
 10
0.0
 20
0.0
 30
0.0
 40
3.0
  0
ENDBLK
  5
21E
  8
0
  0
BLOCK
  8
0
  2
_ORIGIN
 70
     0
 10
0.0
 20
0.0
 30
0.0
  3
_ORIGIN
  1

  0
CIRCLE
  5
221
  8
0
  6
CONTINUOUS
 62
     7
 10
0.0
 20
0.0
 30
0.0
 40
0.5
  0
LINE
  5
222
  8
0
  6
CONTINUOUS
 62
     7
 10
0.0
 20
0.0
 30
0.0
 11
-1.0
 21
0.0
 31
0.0
  0
ENDBLK
  5
223
  8
0
  0
ENDSEC
  0
SECTION
  2
ENTITIES
  0
LINE
  5
224
  8
DETAIL
  6
CONTINUOUS
 62
     5
 10
0.0
 20
-355.0
 30
0.0
 11
0.0
 21
355.0
 31
0.0
  0
LINE
  5
225
  8
BASIS
  6
DASHDOT
 62
     6
 10
60.312737
 20
0.0
 30
0.0
 11
-388.829992
 21
0.0
 31
0.0
  0
LINE
  5
226
  8
DETAIL
  6
CONTINUOUS
 62
     5
 10
-20.0
 20
-295.0
 30
0.0
 11
-198.264406
 21
-295.0
 31
0.0
  0
LINE
  5
227
  8
DETAIL
  6
CONTINUOUS
 62
     5
 10
-10.0
 20
-348.0
 30
0.0
 11
-10.0
 21
-335.4999999999999
 31
0.0
  0
LINE
  5
228
  8
DETAIL
  6
CONTINUOUS
 62
     5
 10
-3.000000000000085
 20
-355.0
 30
0.0
 11
0.0
 21
-355.0
 31
0.0
  0
LINE
  5
229
  8
DETAIL
  6
CONTINUOUS
 62
     5
 10
-3.000000000000085
 20
355.0
 30
0.0
 11
0.0
 21
355.0
 31
0.0
  0
LINE
  5
22A
  8
DETAIL
  6
CONTINUOUS
 62
     5
 10
-10.0
 20
-335.4999999999999
 30
0.0
 11
-10.0
 21
335.4999999999999
 31
0.0
  0
LINE
  5
22B
  8
DETAIL
  6
CONTINUOUS
 62
     5
 10
-10.0
 20
335.4999999999999
 30
0.0
 11
-10.0
 21
348.0
 31
0.0
  0
LINE
  5
22C
  8
DETAIL
  6
CONTINUOUS
 62
     5
 10
-20.0
 20
-315.0
 30
0.0
 11
-20.0
 21
-255.0
 31
0.0
  0
LINE
  5
22D
  8
DETAIL
  6
CONTINUOUS
 62
     5
 10
-277.7660539999999
 20
-130.0
 30
0.0
 11
-277.7660539999999
 21
130.0
 31
0.0
  0
LINE
  5
22E
  8
DETAIL
  6
CONTINUOUS
 62
     5
 10
-230.2644059999999
 20
-90.0
 30
0.0
 11
-230.2644059999999
 21
-14.85217999999998
 31
0.0
  0
LINE
  5
22F
  8
DETAIL
  6
CONTINUOUS
 62
     5
 10
-277.7660539999999
 20
-130.0
 30
0.0
 11
-230.2644059999999
 21
-130.0
 31
0.0
  0
LINE
  5
230
  8
DETAIL
  6
CONTINUOUS
 62
     5
 10
-277.7660539999999
 20
130.0
 30
0.0
 11
-230.2644059999999
 21
130.0
 31
0.0
  0
LINE
  5
231
  8
DETAIL
  6
CONTINUOUS
 62
     5
 10
-137.6013419999999
 20
82.0
 30
0.0
 11
-225.763856
 21
82.0
 31
0.0
  0
LINE
  5
232
  8
DETAIL
  6
CONTINUOUS
 62
     5
 10
-137.6013419999999
 20
-82.0
 30
0.0
 11
-225.763856
 21
-82.0
 31
0.0
  0
LINE
  5
233
  8
DETAIL
  6
CONTINUOUS
 62
     5
 10
-326.9999999999999
 20
-72.0
 30
0.0
 11
-326.9999999999999
 21
72.0
 31
0.0
  0
LINE
  5
234
  8
DETAIL
  6
CONTINUOUS
 62
     5
 10
-20.0
 20
-315.0
 30
0.0
 11
-10.0
 21
-315.0
 31
0.0
  0
LINE
  5
235
  8
DETAIL
  6
CONTINUOUS
 62
     5
 10
-230.2644059999999
 20
-90.0
 30
0.0
 11
-230.2644059999999
 21
-225.0
 31
0.0
  0
LINE
  5
236
  8
DETAIL
  6
CONTINUOUS
 62
     5
 10
-268.264406
 20
-225.0
 30
0.0
 11
-268.264406
 21
-130.0
 31
0.0
  0
LINE
  5
237
  8
DETAIL
  6
CONTINUOUS
 62
     5
 10
-20.0
 20
-255.0
 30
0.0
 11
-10.0
 21
-255.0
 31
0.0
  0
ARC
  5
238
  8
DETAIL
  6
CONTINUOUS
 62
     5
 10
-198.264406
 20
-225.0
 30
0.0
 40
70.0
 50
180.0
 51
270.0
  0
CIRCLE
  5
239
  8
FIX
  6
CONTINUOUS
 62
    11
 10
0.0
 20
325.0
 30
0.0
 40
7.5
  0
ARC
  5
23A
  8
DETAIL
  6
CONTINUOUS
 62
     5
 10
-3.000000000000085
 20
348.0
 30
0.0
 40
7.0
 50
90.0
 51
180.0
  0
ARC
  5
23B
  8
DETAIL
  6
CONTINUOUS
 62
     5
 10
-3.000000000000085
 20
-348.0
 30
0.0
 40
7.0
 50
180.0
 51
270.0
  0
LINE
  5
23C
  8
DETAIL
  6
CONTINUOUS
 62
     5
 10
-93.0000000000001
 20
-275.0
 30
0.0
 11
-93.0000000000001
 21
275.0
 31
0.0
  0
LINE
  5
23D
  8
DETAIL
  6
CONTINUOUS
 62
     5
 10
-93.0000000000001
 20
295.0
 30
0.0
 11
-93.0000000000001
 21
352.4999999999998
 31
0.0
  0
LINE
  5
23E
  8
DETAIL
  6
CONTINUOUS
 62
     5
 10
-93.0000000000001
 20
-295.0
 30
0.0
 11
-93.0000000000001
 21
-352.4999999999998
 31
0.0
  0
POINT
  5
23F
  8
ARRANGE
  6
CONTINUOUS
 62
     1
 10
0.0
 20
0.0
 30
0.0
  0
CIRCLE
  5
240
  8
ARRANGE
  6
CONTINUOUS
 62
     1
 10
0.0
 20
0.0
 30
0.0
 40
40.0
  0
LINE
  5
241
  8
NOTE
  6
CONTINUOUS
 62
     4
 10
-20.0
 20
-295.0
 30
0.0
 11
70.4790019999999
 21
-175.0742089999999
 31
0.0
  0
TEXT
  5
242
  8
NOTE
  6
CONTINUOUS
 62
     4
 10
84.9498199999999
 20
-153.6502159999998
 30
0.0
 40
64.0
  1
EL
 41
0.9
  0
TEXT
  5
243
  8
NOTE
  6
CONTINUOUS
 62
     4
 10
175.0200529999999
 20
-464.8852129999998
 30
0.0
 40
64.0
  1
4-15×15
 41
0.9
  0
LINE
  5
244
  8
NOTE
  6
CONTINUOUS
 62
     4
 10
579.6436629999998
 20
-489.984762
 30
0.0
 11
152.7836069999999
 21
-489.984762
 31
0.0
  0
LINE
  5
245
  8
DETAIL
  6
CONTINUOUS
 62
     5
 10
-127.6013419999999
 20
-1.078712901700839
 30
0.0
 11
-127.6013419999999
 21
72.0
 31
0.0
  0
ARC
  5
246
  8
DETAIL
  6
CONTINUOUS
 62
     5
 10
-137.6013419999999
 20
72.0
 30
0.0
 40
10.0
 50
0.0
 51
90.0
  0
ARC
  5
247
  8
DETAIL
  6
CONTINUOUS
 62
     5
 10
-137.6013419999999
 20
-72.0
 30
0.0
 40
10.0
 50
270.0
 51
337.4870544701632
  0
LINE
  5
248
  8
DETAIL
  6
CONTINUOUS
 62
     5
 10
-112.6013419999999
 20
20.0
 30
0.0
 11
-127.6013419999999
 21
20.0
 31
0.0
  0
LINE
  5
24A
  8
DETAIL
  6
CONTINUOUS
 62
     5
 10
-112.6013419999999
 20
-15.30625167252444
 30
0.0
 11
-112.6013419999999
 21
20.0
 31
0.0
  0
LINE
  5
24B
  8
DETAIL
  6
CONTINUOUS
 62
     5
 10
-93.0000000000001
 20
8.0
 30
0.0
 11
-112.6013419999999
 21
8.0
 31
0.0
  0
LINE
  5
24C
  8
DETAIL
  6
CONTINUOUS
 62
     5
 10
-93.0000000000001
 20
-8.0
 30
0.0
 11
-112.6013419999999
 21
-8.0
 31
0.0
  0
LINE
  5
24D
  8
DETAIL
  6
CONTINUOUS
 62
     5
 10
-277.7660539999999
 20
-82.0
 30
0.0
 11
-316.9999999999999
 21
-82.0
 31
0.0
  0
LINE
  5
24E
  8
DETAIL
  6
CONTINUOUS
 62
     5
 10
-277.7660539999999
 20
82.0
 30
0.0
 11
-316.9999999999999
 21
82.0
 31
0.0
  0
ARC
  5
24F
  8
DETAIL
  6
CONTINUOUS
 62
     5
 10
-316.9999999999999
 20
72.0
 30
0.0
 40
10.0
 50
90.0
 51
180.0
  0
ARC
  5
250
  8
DETAIL
  6
CONTINUOUS
 62
     5
 10
-316.9999999999999
 20
-72.0
 30
0.0
 40
10.0
 50
180.0
 51
270.0
  0
LINE
  5
251
  8
DETAIL
  6
CONTINUOUS
 62
     5
 10
-20.0
 20
-275.0
 30
0.0
 11
-180.264406
 21
-275.0
 31
0.0
  0
ARC
  5
252
  8
DETAIL
  6
CONTINUOUS
 62
     5
 10
-180.264406
 20
-225.0
 30
0.0
 40
50.0
 50
180.0
 51
270.0
  0
CIRCLE
  5
254
  8
FIX
  6
CONTINUOUS
 62
    11
 10
0.0
 20
-325.0
 30
0.0
 40
7.5
  0
LINE
  5
255
  8
DETAIL
  6
CONTINUOUS
 62
     5
 10
-225.763856
 20
-130.0
 30
0.0
 11
-225.763856
 21
130.0
 31
0.0
  0
LINE
  5
256
  8
DETAIL
  6
CONTINUOUS
 62
     5
 10
-230.2644059999999
 20
-130.0
 30
0.0
 11
-225.763856
 21
-130.0
 31
0.0
  0
LINE
  5
257
  8
DETAIL
  6
CONTINUOUS
 62
     5
 10
-230.2644059999999
 20
130.0
 30
0.0
 11
-225.763856
 21
130.0
 31
0.0
  0
LINE
  5
258
  8
DETAIL
  6
CONTINUOUS
 62
     5
 10
-268.264406
 20
-130.0
 30
0.0
 11
-268.264406
 21
-14.85217999999998
 31
0.0
  0
LINE
  5
259
  8
DETAIL
  6
CONTINUOUS
 62
     5
 10
-268.264406
 20
-14.85217999999998
 30
0.0
 11
-230.2644059999999
 21
-14.85217999999998
 31
0.0
  0
LINE
  5
25A
  8
DETAIL
  6
CONTINUOUS
 62
     5
 10
-230.2644059999999
 20
14.85217999999998
 30
0.0
 11
-230.2644059999999
 21
90.0
 31
0.0
  0
LINE
  5
25B
  8
DETAIL
  6
CONTINUOUS
 62
     5
 10
-268.264406
 20
14.85217999999998
 30
0.0
 11
-230.2644059999999
 21
14.85217999999998
 31
0.0
  0
LINE
  5
25C
  8
DETAIL
  6
CONTINUOUS
 62
     5
 10
-268.264406
 20
130.0
 30
0.0
 11
-268.264406
 21
14.85217999999998
 31
0.0
  0
LINE
  5
25D
  8
NOTE
  6
CONTINUOUS
 62
     4
 10
0.0
 20
-325.0
 30
0.0
 11
152.7836069999999
 21
-489.984762
 31
0.0
  0
LINE
  5
25E
  8
NOTE
  6
CONTINUOUS
 62
     4
 10
70.4790019999999
 20
-175.0742089999999
 30
0.0
 11
182.925597
 21
-175.0742089999999
 31
0.0
  0
ARC
  5
260
  8
DETAIL
  6
CONTINUOUS
 62
     5
 10
-48.922888
 20
-360.8820339999999
 30
0.0
 40
44.86703
 50
88.589885
 51
169.2327709999998
  0
ARC
  5
261
  8
DETAIL
  6
CONTINUOUS
 62
     5
 10
-48.922888
 20
360.8820339999999
 30
0.0
 40
44.86703
 50
190.767229
 51
271.410115
  0
LINE
  5
262
  8
DETAIL
  6
CONTINUOUS
 62
     5
 10
-20.0
 20
255.0
 30
0.0
 11
-10.0
 21
255.0
 31
0.0
  0
LINE
  5
263
  8
DETAIL
  6
CONTINUOUS
 62
     5
 10
-20.0
 20
315.0
 30
0.0
 11
-10.0
 21
315.0
 31
0.0
  0
LINE
  5
264
  8
DETAIL
  6
CONTINUOUS
 62
     5
 10
-20.0
 20
315.0
 30
0.0
 11
-20.0
 21
255.0
 31
0.0
  0
LINE
  5
266
  8
DETAIL
  6
CONTINUOUS
 62
     5
 10
-230.2644059999999
 20
90.0
 30
0.0
 11
-230.2644059999999
 21
225.0
 31
0.0
  0
LINE
  5
267
  8
DETAIL
  6
CONTINUOUS
 62
     5
 10
-268.264406
 20
225.0
 30
0.0
 11
-268.264406
 21
130.0
 31
0.0
  0
ARC
  5
268
  8
DETAIL
  6
CONTINUOUS
 62
     5
 10
-198.264406
 20
225.0
 30
0.0
 40
70.0
 50
90.0
 51
180.0
  0
ARC
  5
269
  8
DETAIL
  6
CONTINUOUS
 62
     5
 10
-180.264406
 20
225.0
 30
0.0
 40
50.0
 50
90.0
 51
180.0
  0
LINE
  5
26A
  8
DETAIL
  6
CONTINUOUS
 62
     5
 10
-20.0
 20
295.0
 30
0.0
 11
-198.264406
 21
295.0
 31
0.0
  0
LINE
  5
26B
  8
DETAIL
  6
CONTINUOUS
 62
     5
 10
-20.0
 20
275.0
 30
0.0
 11
-180.264406
 21
275.0
 31
0.0
  0
LINE
  5
26C
  8
DETAIL
  6
CONTINUOUS
 62
     5
 10
-20.0
 20
315.0
 30
0.0
 11
-47.81877000000009
 21
316.028592
 31
0.0
  0
LINE
  5
26D
  8
DETAIL
  6
CONTINUOUS
 62
     5
 10
-20.0
 20
-315.0
 30
0.0
 11
-47.81877000000009
 21
-316.028592
 31
0.0
  0
LINE
  5
26E
  8
SIZE
  6
CONTINUOUS
 62
    30
 10
0.0
 20
427.4221119999999
 30
0.0
 11
132.9237089999999
 21
427.4221119999999
 31
0.0
  0
LINE
  5
26F
  8
SIZE
  6
CONTINUOUS
 62
    30
 10
1.999999999999915
 20
549.5905589999998
 30
0.0
 11
132.9237089999999
 21
549.5905589999998
 31
0.0
  0
LINE
  5
270
  8
OUTLINE
  6
CONTINUOUS
 62
     3
 10
-20.0
 20
-315.0
 30
0.0
 11
-47.81877000000009
 21
-316.028592
 31
0.0
  0
LINE
  5
271
  8
OUTLINE
  6
CONTINUOUS
 62
     3
 10
-20.0
 20
315.0
 30
0.0
 11
-47.81877000000009
 21
316.028592
 31
0.0
  0
LINE
  5
272
  8
OUTLINE
  6
CONTINUOUS
 62
     3
 10
-20.0
 20
275.0
 30
0.0
 11
-180.264406
 21
275.0
 31
0.0
  0
LINE
  5
273
  8
OUTLINE
  6
CONTINUOUS
 62
     3
 10
-20.0
 20
295.0
 30
0.0
 11
-198.264406
 21
295.0
 31
0.0
  0
ARC
  5
274
  8
OUTLINE
  6
CONTINUOUS
 62
     3
 10
-180.264406
 20
225.0
 30
0.0
 40
50.0
 50
90.0
 51
180.0
  0
ARC
  5
275
  8
OUTLINE
  6
CONTINUOUS
 62
     3
 10
-198.264406
 20
225.0
 30
0.0
 40
70.0
 50
90.0
 51
180.0
  0
LINE
  5
276
  8
OUTLINE
  6
CONTINUOUS
 62
     3
 10
-268.264406
 20
225.0
 30
0.0
 11
-268.264406
 21
130.0
 31
0.0
  0
LINE
  5
277
  8
OUTLINE
  6
CONTINUOUS
 62
     3
 10
-230.2644059999999
 20
130.0
 30
0.0
 11
-230.2644059999999
 21
225.0
 31
0.0
  0
LINE
  5
278
  8
OUTLINE
  6
CONTINUOUS
 62
     3
 10
-20.0
 20
315.0
 30
0.0
 11
-20.0
 21
255.0
 31
0.0
  0
LINE
  5
279
  8
OUTLINE
  6
CONTINUOUS
 62
     3
 10
-20.0
 20
315.0
 30
0.0
 11
-10.0
 21
315.0
 31
0.0
  0
LINE
  5
27A
  8
OUTLINE
  6
CONTINUOUS
 62
     3
 10
-20.0
 20
255.0
 30
0.0
 11
-10.0
 21
255.0
 31
0.0
  0
ARC
  5
27B
  8
OUTLINE
  6
CONTINUOUS
 62
     3
 10
-48.922888
 20
360.8820339999999
 30
0.0
 40
44.86703
 50
190.767229
 51
271.410115
  0
ARC
  5
27C
  8
OUTLINE
  6
CONTINUOUS
 62
     3
 10
-48.922888
 20
-360.8820339999999
 30
0.0
 40
44.86703
 50
88.589885
 51
169.2327709999998
  0
LINE
  5
27D
  8
OUTLINE
  6
CONTINUOUS
 62
     3
 10
-230.2644059999999
 20
130.0
 30
0.0
 11
-225.763856
 21
130.0
 31
0.0
  0
LINE
  5
27E
  8
OUTLINE
  6
CONTINUOUS
 62
     3
 10
-230.2644059999999
 20
-130.0
 30
0.0
 11
-225.763856
 21
-130.0
 31
0.0
  0
LINE
  5
27F
  8
OUTLINE
  6
CONTINUOUS
 62
     3
 10
-225.763856
 20
-130.0
 30
0.0
 11
-225.763856
 21
130.0
 31
0.0
  0
ARC
  5
280
  8
OUTLINE
  6
CONTINUOUS
 62
     3
 10
-180.264406
 20
-225.0
 30
0.0
 40
50.0
 50
180.0
 51
270.0
  0
LINE
  5
281
  8
OUTLINE
  6
CONTINUOUS
 62
     3
 10
-20.0
 20
-275.0
 30
0.0
 11
-180.264406
 21
-275.0
 31
0.0
  0
ARC
  5
282
  8
OUTLINE
  6
CONTINUOUS
 62
     3
 10
-316.9999999999999
 20
-72.0
 30
0.0
 40
10.0
 50
180.0
 51
270.0
  0
ARC
  5
283
  8
OUTLINE
  6
CONTINUOUS
 62
     3
 10
-316.9999999999999
 20
72.0
 30
0.0
 40
10.0
 50
90.0
 51
180.0
  0
LINE
  5
284
  8
OUTLINE
  6
CONTINUOUS
 62
     3
 10
-277.7660539999999
 20
82.0
 30
0.0
 11
-316.9999999999999
 21
82.0
 31
0.0
  0
LINE
  5
285
  8
OUTLINE
  6
CONTINUOUS
 62
     3
 10
-277.7660539999999
 20
-82.0
 30
0.0
 11
-316.9999999999999
 21
-82.0
 31
0.0
  0
LINE
  5
286
  8
OUTLINE
  6
CONTINUOUS
 62
     3
 10
-93.0000000000001
 20
-295.0
 30
0.0
 11
-93.0000000000001
 21
-352.4999999999998
 31
0.0
  0
LINE
  5
287
  8
OUTLINE
  6
CONTINUOUS
 62
     3
 10
-93.0000000000001
 20
295.0
 30
0.0
 11
-93.0000000000001
 21
352.4999999999998
 31
0.0
  0
LINE
  5
288
  8
OUTLINE
  6
CONTINUOUS
 62
     3
 10
-93.0000000000001
 20
-275.0
 30
0.0
 11
-93.0000000000001
 21
275.0
 31
0.0
  0
ARC
  5
289
  8
OUTLINE
  6
CONTINUOUS
 62
     3
 10
-3.000000000000085
 20
-348.0
 30
0.0
 40
7.0
 50
180.0
 51
270.0
  0
ARC
  5
28A
  8
OUTLINE
  6
CONTINUOUS
 62
     3
 10
-3.000000000000085
 20
348.0
 30
0.0
 40
7.0
 50
90.0
 51
180.0
  0
ARC
  5
28B
  8
OUTLINE
  6
CONTINUOUS
 62
     3
 10
-198.264406
 20
-225.0
 30
0.0
 40
70.0
 50
180.0
 51
270.0
  0
LINE
  5
28C
  8
OUTLINE
  6
CONTINUOUS
 62
     3
 10
-20.0
 20
-255.0
 30
0.0
 11
-10.0
 21
-255.0
 31
0.0
  0
LINE
  5
28D
  8
OUTLINE
  6
CONTINUOUS
 62
     3
 10
-268.264406
 20
-225.0
 30
0.0
 11
-268.264406
 21
-130.0
 31
0.0
  0
LINE
  5
28E
  8
OUTLINE
  6
CONTINUOUS
 62
     3
 10
-230.2644059999999
 20
-130.0
 30
0.0
 11
-230.2644059999999
 21
-225.0
 31
0.0
  0
LINE
  5
28F
  8
OUTLINE
  6
CONTINUOUS
 62
     3
 10
-20.0
 20
-315.0
 30
0.0
 11
-10.0
 21
-315.0
 31
0.0
  0
LINE
  5
290
  8
OUTLINE
  6
CONTINUOUS
 62
     3
 10
-326.9999999999999
 20
-72.0
 30
0.0
 11
-326.9999999999999
 21
72.0
 31
0.0
  0
LINE
  5
291
  8
OUTLINE
  6
CONTINUOUS
 62
     3
 10
-277.7660539999999
 20
130.0
 30
0.0
 11
-230.2644059999999
 21
130.0
 31
0.0
  0
LINE
  5
292
  8
OUTLINE
  6
CONTINUOUS
 62
     3
 10
-277.7660539999999
 20
-130.0
 30
0.0
 11
-230.2644059999999
 21
-130.0
 31
0.0
  0
LINE
  5
293
  8
OUTLINE
  6
CONTINUOUS
 62
     3
 10
-277.7660539999999
 20
-130.0
 30
0.0
 11
-277.7660539999999
 21
130.0
 31
0.0
  0
LINE
  5
294
  8
OUTLINE
  6
CONTINUOUS
 62
     3
 10
-20.0
 20
-315.0
 30
0.0
 11
-20.0
 21
-255.0
 31
0.0
  0
LINE
  5
295
  8
OUTLINE
  6
CONTINUOUS
 62
     3
 10
-10.0
 20
335.4999999999999
 30
0.0
 11
-10.0
 21
348.0
 31
0.0
  0
LINE
  5
296
  8
OUTLINE
  6
CONTINUOUS
 62
     3
 10
-10.0
 20
-335.4999999999999
 30
0.0
 11
-10.0
 21
335.4999999999999
 31
0.0
  0
LINE
  5
297
  8
OUTLINE
  6
CONTINUOUS
 62
     3
 10
-3.000000000000085
 20
355.0
 30
0.0
 11
0.0
 21
355.0
 31
0.0
  0
LINE
  5
298
  8
OUTLINE
  6
CONTINUOUS
 62
     3
 10
-3.000000000000085
 20
-355.0
 30
0.0
 11
0.0
 21
-355.0
 31
0.0
  0
LINE
  5
299
  8
OUTLINE
  6
CONTINUOUS
 62
     3
 10
-10.0
 20
-348.0
 30
0.0
 11
-10.0
 21
-335.4999999999999
 31
0.0
  0
LINE
  5
29A
  8
OUTLINE
  6
CONTINUOUS
 62
     3
 10
-20.0
 20
-295.0
 30
0.0
 11
-198.264406
 21
-295.0
 31
0.0
  0
LINE
  5
29B
  8
OUTLINE
  6
CONTINUOUS
 62
     3
 10
0.0
 20
-355.0
 30
0.0
 11
0.0
 21
355.0
 31
0.0
  0
LINE
  5
29C
  8
SIZE
  6
BYBLOCK
 62
    30
 10
-113.0
 20
352.4999999999998
 30
0.0
 11
-597.3010099999999
 21
352.4999999999998
 31
0.0
  0
LINE
  5
29D
  8
SIZE
  6
BYBLOCK
 62
    30
 10
-113.0
 20
-352.4999999999998
 30
0.0
 11
-597.3010099999999
 21
-352.4999999999998
 31
0.0
  0
LINE
  5
29E
  8
SIZE
  6
BYBLOCK
 62
    30
 10
-567.3010099999997
 20
350.4999999999998
 30
0.0
 11
-567.3010099999997
 21
0.0
 31
0.0
  0
LINE
  5
29F
  8
SIZE
  6
BYBLOCK
 62
    30
 10
-567.3010099999997
 20
-350.4999999999998
 30
0.0
 11
-567.3010099999997
 21
0.0
 31
0.0
  0
TEXT
  5
2A0
  8
SIZE
  6
BYBLOCK
 62
    30
 10
-599.30101
 20
-102.8571429999999
 30
0.0
 40
64.0
  1
φ705
 50
90.0
 41
0.9
  0
LINE
  5
2A1
  8
SIZE
  6
BYBLOCK
 62
    30
 10
-336.9999999999999
 20
-82.0
 30
0.0
 11
-469.5903129999999
 21
-82.0
 31
0.0
  0
LINE
  5
2A2
  8
SIZE
  6
BYBLOCK
 62
    30
 10
-336.9999999999999
 20
82.0
 30
0.0
 11
-469.5903129999999
 21
82.0
 31
0.0
  0
LINE
  5
2A3
  8
SIZE
  6
BYBLOCK
 62
    30
 10
-439.5903129999998
 20
84.0
 30
0.0
 11
-439.5903129999998
 21
86.0
 31
0.0
  0
LINE
  5
2A4
  8
SIZE
  6
BYBLOCK
 62
    30
 10
-439.5903129999998
 20
-84.0
 30
0.0
 11
-439.5903129999998
 21
-86.0
 31
0.0
  0
LINE
  5
2A5
  8
SIZE
  6
BYBLOCK
 62
    30
 10
-439.5903129999998
 20
82.0
 30
0.0
 11
-439.5903129999998
 21
-82.0
 31
0.0
  0
TEXT
  5
2A6
  8
SIZE
  6
BYBLOCK
 62
    30
 10
-471.590313
 20
-98.74285700000001
 30
0.0
 40
64.0
  1
φ164
 50
90.0
 41
0.9
  0
LINE
  5
2A7
  8
SIZE
  6
BYBLOCK
 62
    30
 10
20.0
 20
355.0
 30
0.0
 11
408.8006829999998
 21
355.0
 31
0.0
  0
LINE
  5
2A8
  8
SIZE
  6
BYBLOCK
 62
    30
 10
20.0
 20
-355.0
 30
0.0
 11
408.8006829999998
 21
-355.0
 31
0.0
  0
LINE
  5
2A9
  8
SIZE
  6
BYBLOCK
 62
    30
 10
378.8006829999998
 20
353.0
 30
0.0
 11
378.8006829999998
 21
0.0
 31
0.0
  0
LINE
  5
2AA
  8
SIZE
  6
BYBLOCK
 62
    30
 10
378.8006829999998
 20
-353.0
 30
0.0
 11
378.8006829999998
 21
0.0
 31
0.0
  0
TEXT
  5
2AB
  8
SIZE
  6
BYBLOCK
 62
    30
 10
346.8006829999998
 20
-68.57142900000001
 30
0.0
 40
64.0
  1
710
 50
90.0
 41
0.9
  0
LINE
  5
2AC
  8
SIZE
  6
BYBLOCK
 62
    30
 10
39.99999999999991
 20
325.0
 30
0.0
 11
283.696327
 21
325.0
 31
0.0
  0
LINE
  5
2AD
  8
SIZE
  6
BYBLOCK
 62
    30
 10
39.99999999999991
 20
-325.0
 30
0.0
 11
283.696327
 21
-325.0
 31
0.0
  0
LINE
  5
2AE
  8
SIZE
  6
BYBLOCK
 62
    30
 10
253.696327
 20
323.0
 30
0.0
 11
253.696327
 21
0.0
 31
0.0
  0
LINE
  5
2AF
  8
SIZE
  6
BYBLOCK
 62
    30
 10
253.696327
 20
-323.0
 30
0.0
 11
253.696327
 21
0.0
 31
0.0
  0
TEXT
  5
2B0
  8
SIZE
  6
BYBLOCK
 62
    30
 10
221.6963269999999
 20
-74.05714300000002
 30
0.0
 40
64.0
  1
650
 50
90.0
 41
0.9
  0
LINE
  5
2B1
  8
SIZE
  6
BYBLOCK
 62
    30
 10
0.0
 20
375.0
 30
0.0
 11
0.0
 21
673.462925
 31
0.0
  0
LINE
  5
2B2
  8
SIZE
  6
BYBLOCK
 62
    30
 10
-326.9999999999999
 20
92.0
 30
0.0
 11
-326.9999999999999
 21
673.462925
 31
0.0
  0
LINE
  5
2B3
  8
SIZE
  6
BYBLOCK
 62
    30
 10
-2.0
 20
643.462925
 30
0.0
 11
-163.4999999999999
 21
643.462925
 31
0.0
  0
LINE
  5
2B4
  8
SIZE
  6
BYBLOCK
 62
    30
 10
-324.9999999999999
 20
643.462925
 30
0.0
 11
-163.4999999999999
 21
643.462925
 31
0.0
  0
TEXT
  5
2B5
  8
SIZE
  6
BYBLOCK
 62
    30
 10
-237.557143
 20
675.462925
 30
0.0
 40
64.0
  1
327
 41
0.9
  0
LINE
  5
2B6
  8
SIZE
  6
BYBLOCK
 62
    30
 10
0.0
 20
375.0
 30
0.0
 11
0.0
 21
579.590559
 31
0.0
  0
LINE
  5
2B7
  8
SIZE
  6
BYBLOCK
 62
    30
 10
-93.0000000000001
 20
372.5
 30
0.0
 11
-93.0000000000001
 21
579.590559
 31
0.0
  0
LINE
  5
2B8
  8
SIZE
  6
BYBLOCK
 62
    30
 10
-95.0
 20
549.5905589999998
 30
0.0
 11
-96.99999999999999
 21
549.5905589999998
 31
0.0
  0
LINE
  5
2B9
  8
SIZE
  6
BYBLOCK
 62
    30
 10
1.999999999999915
 20
549.5905589999998
 30
0.0
 11
4.0
 21
549.5905589999998
 31
0.0
  0
LINE
  5
2BA
  8
SIZE
  6
BYBLOCK
 62
    30
 10
-93.0000000000001
 20
549.5905589999998
 30
0.0
 11
0.0
 21
549.5905589999998
 31
0.0
  0
TEXT
  5
2BB
  8
SIZE
  6
BYBLOCK
 62
    30
 10
27.550218
 20
581.5905589999998
 30
0.0
 40
64.0
  1
93
 41
0.9
  0
LINE
  5
2BC
  8
SIZE
  6
BYBLOCK
 62
    30
 10
0.0
 20
375.0
 30
0.0
 11
0.0
 21
457.422112
 31
0.0
  0
LINE
  5
2BD
  8
SIZE
  6
BYBLOCK
 62
    30
 10
-10.0
 20
368.0
 30
0.0
 11
-10.0
 21
457.422112
 31
0.0
  0
LINE
  5
2BE
  8
SIZE
  6
BYBLOCK
 62
    30
 10
-12.00000000000009
 20
427.4221119999999
 30
0.0
 11
-14.00000000000009
 21
427.4221119999999
 31
0.0
  0
LINE
  5
2BF
  8
SIZE
  6
BYBLOCK
 62
    30
 10
1.999999999999915
 20
427.4221119999999
 30
0.0
 11
4.0
 21
427.4221119999999
 31
0.0
  0
LINE
  5
2C0
  8
SIZE
  6
BYBLOCK
 62
    30
 10
-10.0
 20
427.4221119999999
 30
0.0
 11
0.0
 21
427.4221119999999
 31
0.0
  0
TEXT
  5
2C1
  8
SIZE
  6
BYBLOCK
 62
    30
 10
35.799531
 20
459.422112
 30
0.0
 40
64.0
  1
10
 41
0.9
  0
CIRCLE
  5
2C2
  8
SIZE
  6
CONTINUOUS
 62
    30
 10
0.0
 20
427.4221119999999
 30
0.0
 40
6.0
  0
CIRCLE
  5
2C3
  8
SIZE
  6
CONTINUOUS
 62
    30
 10
-10.0
 20
427.4221119999999
 30
0.0
 40
6.0
  0
CIRCLE
  5
2C4
  8
SIZE
  6
CONTINUOUS
 62
    30
 10
0.0
 20
549.5905589999998
 30
0.0
 40
6.0
  0
CIRCLE
  5
2C5
  8
SIZE
  6
CONTINUOUS
 62
    30
 10
-93.0000000000001
 20
549.5905589999998
 30
0.0
 40
6.0
  0
CIRCLE
  5
2C6
  8
SIZE
  6
CONTINUOUS
 62
    30
 10
-326.9999999999999
 20
643.462925
 30
0.0
 40
6.0
  0
CIRCLE
  5
2C7
  8
SIZE
  6
CONTINUOUS
 62
    30
 10
0.0
 20
643.462925
 30
0.0
 40
6.0
  0
CIRCLE
  5
2C8
  8
SIZE
  6
CONTINUOUS
 62
    30
 10
253.696327
 20
-325.0
 30
0.0
 40
6.0
  0
CIRCLE
  5
2C9
  8
SIZE
  6
CONTINUOUS
 62
    30
 10
253.696327
 20
325.0
 30
0.0
 40
6.0
  0
CIRCLE
  5
2CA
  8
SIZE
  6
CONTINUOUS
 62
    30
 10
378.8006829999998
 20
-355.0
 30
0.0
 40
6.0
  0
CIRCLE
  5
2CB
  8
SIZE
  6
CONTINUOUS
 62
    30
 10
378.8006829999998
 20
355.0
 30
0.0
 40
6.0
  0
CIRCLE
  5
2CC
  8
SIZE
  6
CONTINUOUS
 62
    30
 10
-439.5903129999998
 20
-82.0
 30
0.0
 40
6.0
  0
CIRCLE
  5
2CD
  8
SIZE
  6
CONTINUOUS
 62
    30
 10
-439.5903129999998
 20
82.0
 30
0.0
 40
6.0
  0
CIRCLE
  5
2CE
  8
SIZE
  6
CONTINUOUS
 62
    30
 10
-567.3010099999997
 20
-352.4999999999998
 30
0.0
 40
6.0
  0
CIRCLE
  5
2CF
  8
SIZE
  6
CONTINUOUS
 62
    30
 10
-567.3010099999997
 20
352.4999999999998
 30
0.0
 40
6.0
  0
LINE
  5
2D5
  8
NOTE
  6
CONTINUOUS
 62
     4
 10
-40.00000000000009
 20
-295.0
 30
0.0
 11
0.0
 21
-295.0
 31
0.0
  0
LINE
  5
2D6
  8
NOTE
  6
CONTINUOUS
 62
     4
 10
-20.0
 20
-275.0
 30
0.0
 11
-20.0
 21
-315.0
 31
0.0
  0
LINE
  5
2DC
  8
NOTE
  6
CONTINUOUS
 62
     4
 10
-20.0
 20
-325.0
 30
0.0
 11
20.0
 21
-325.0
 31
0.0
  0
LINE
  5
2DD
  8
NOTE
  6
CONTINUOUS
 62
     4
 10
0.0
 20
-305.0
 30
0.0
 11
0.0
 21
-345.0
 31
0.0
  0
LINE
  5
2DE
  8
NOTE
  6
CONTINUOUS
 62
     4
 10
-20.0
 20
325.0
 30
0.0
 11
20.0
 21
325.0
 31
0.0
  0
LINE
  5
2DF
  8
NOTE
  6
CONTINUOUS
 62
     4
 10
0.0
 20
345.0
 30
0.0
 11
0.0
 21
305.0
 31
0.0
  0
ARC
  5
36E
  8
DETAIL
  6
CONTINUOUS
 62
     5
 10
196.2999209999998
 20
88.04074699999963
 30
0.0
 40
363.6750579999999
 50
185.2337839999992
 51
217.2984250000029
  0
ARC
  5
371
  8
DETAIL
  6
CONTINUOUS
 62
     5
 10
-333.4699929999997
 20
-48.70608900000018
 30
0.0
 40
301.540096
 50
37.11056400000091
 51
51.97419500000189
  0
ARC
  5
372
  8
DETAIL
  6
CONTINUOUS
 62
     5
 10
-163.5795639999999
 20
163.3642159999997
 30
0.0
 40
30.0
 50
58.07741300000052
 51
90.0
  0
ARC
  5
373
  8
DETAIL
  6
CONTINUOUS
 62
     5
 10
-80.440746
 20
201.0429479999995
 30
0.0
 40
93.132537
 50
125.9749360000029
 51
184.7293780000022
  0
LINE
  5
374
  8
DETAIL
  6
CONTINUOUS
 62
     5
 10
-173.2561899999999
 20
193.3642159999997
 30
0.0
 11
-163.5795639999999
 21
193.3642159999997
 31
0.0
  0
ARC
  5
375
  8
DETAIL
  6
CONTINUOUS
 62
     5
 10
23.76646799999989
 20
143.4863979999996
 30
0.0
 40
209.311455
 50
205.0486870000021
 51
236.0920750000011
  0
ARC
  5
376
  8
DETAIL
  6
CONTINUOUS
 62
     5
 10
312.4923279999998
 20
-296.444959
 30
0.0
 40
481.395774
 50
154.4048580000015
 51
177.0329369999982
  0
ARC
  5
377
  8
DETAIL
  6
CONTINUOUS
 62
     5
 10
106.0928669999998
 20
-313.2691369999998
 30
0.0
 40
277.5083169999999
 50
137.3916199999979
 51
171.3488730000005
  0
TEXT
  5
38E
  8
ETC
  6
CONTINUOUS
 62
    61
 10
351.6205430112248
 20
698.4651937308524
 30
0.0
 40
64.0
  1
EG-60FTXB3_4
 41
0.9
  0
TEXT
  5
38F
  8
ETC
  6
CONTINUOUS
 62
    61
 10
343.0228670112248
 20
592.8005537308524
 30
0.0
 40
64.0
  1
産業扇
 41
0.9
  0
TEXT
  5
390
  8
ETC
  6
CONTINUOUS
 62
    61
 10
475.9244089600404
 20
508.9013432066219
 30
0.0
 40
50.0
  1
EG-60FTXB3
 41
0.9
  0
LINE
  5
391
  8
NOTE
  6
CONTINUOUS
 62
     4
 10
18.61762699999991
 20
-360.403163
 30
0.0
 11
0.0
 21
-325.0
 31
0.0
  0
LINE
  5
392
  8
NOTE
  6
CONTINUOUS
 62
     4
 10
0.0
 20
-325.0
 30
0.0
 11
33.82491899999999
 21
-346.3512259999998
 31
0.0
  0
LINE
  5
393
  8
NOTE
  6
CONTINUOUS
 62
     4
 10
-5.288223999999985
 20
-257.803715
 30
0.0
 11
-20.0
 21
-295.0
 31
0.0
  0
LINE
  5
394
  8
NOTE
  6
CONTINUOUS
 62
     4
 10
-20.0
 20
-295.0
 30
0.0
 11
11.3389139999999
 21
-270.14296
 31
0.0
  0
ENDSEC
  0
EOF
