  0
SECTION
  2
HEADER
  9
$ACADVER
  1
AC1009
  9
$DWGCODEPAGE
  3
dos932
  9
$INSBASE
 10
0.0
 20
0.0
 30
0.0
  9
$EXTMIN
 10
-627.6626421344281
 20
-645.67564770774516
 30
-0.0000000000112498
  9
$EXTMAX
 10
1170.126354508247
 20
351.51673137619582
 30
0.0000000000002956
  9
$LIMMIN
 10
-2970.0
 20
-2100.0
  9
$LIMMAX
 10
2970.0
 20
2100.0
  9
$ORTHOMODE
 70
     1
  9
$REGENMODE
 70
     1
  9
$FILLMODE
 70
     1
  9
$QTEXTMODE
 70
     0
  9
$MIRRTEXT
 70
     0
  9
$LTSCALE
 40
20.0
  9
$ATTMODE
 70
     1
  9
$TEXTSIZE
 40
64.0
  9
$TRACEWID
 40
0.05
  9
$TEXTSTYLE
  7
STANDARD
  9
$CLAYER
  8
SIZE
  9
$CELTYPE
  6
CONTINUOUS
  9
$CECOLOR
 62
     7
  9
$DIMSCALE
 40
1.0
  9
$DIMASZ
 40
12.0
  9
$DIMEXO
 40
20.0
  9
$DIMDLI
 40
200.0
  9
$DIMRND
 40
0.0
  9
$DIMDLE
 40
0.0
  9
$DIMEXE
 40
20.0
  9
$DIMTP
 40
0.0
  9
$DIMTM
 40
0.0
  9
$DIMTXT
 40
64.0
  9
$DIMCEN
 40
0.09
  9
$DIMTSZ
 40
0.0
  9
$DIMTOL
 70
     0
  9
$DIMLIM
 70
     0
  9
$DIMTIH
 70
     0
  9
$DIMTOH
 70
     0
  9
$DIMSE1
 70
     0
  9
$DIMSE2
 70
     0
  9
$DIMTAD
 70
     1
  9
$DIMZIN
 70
     8
  9
$DIMBLK
  1

  9
$DIMASO
 70
     1
  9
$DIMSHO
 70
     0
  9
$DIMPOST
  1

  9
$DIMAPOST
  1

  9
$DIMALT
 70
     0
  9
$DIMALTD
 70
     2
  9
$DIMALTF
 40
25.399999999999999
  9
$DIMLFAC
 40
1.0
  9
$DIMTOFL
 70
     1
  9
$DIMTVP
 40
0.0
  9
$DIMTIX
 70
     1
  9
$DIMSOXD
 70
     0
  9
$DIMSAH
 70
     0
  9
$DIMBLK1
  1

  9
$DIMBLK2
  1

  9
$DIMSTYLE
  2
STANDARD
  9
$DIMCLRD
 70
     7
  9
$DIMCLRE
 70
     7
  9
$DIMCLRT
 70
     7
  9
$DIMTFAC
 40
1.0
  9
$DIMGAP
 40
25.0
  9
$LUNITS
 70
     2
  9
$LUPREC
 70
     4
  9
$SKETCHINC
 40
0.1
  9
$FILLETRAD
 40
3.0
  9
$AUNITS
 70
     1
  9
$AUPREC
 70
     3
  9
$MENU
  1
ACAD
  9
$ELEVATION
 40
0.0
  9
$PELEVATION
 40
0.0
  9
$THICKNESS
 40
0.0
  9
$LIMCHECK
 70
     0
  9
$CHAMFERA
 40
0.0
  9
$CHAMFERB
 40
0.0
  9
$SKPOLY
 70
     0
  9
$TDCREATE
 40
2453019.62301037
  9
$TDUPDATE
 40
2453425.106551412
  9
$TDINDWG
 40
1.7180946875
  9
$TDUSRTIMER
 40
1.7180946875
  9
$USRTIMER
 70
     1
  9
$ANGBASE
 50
0.0
  9
$ANGDIR
 70
     0
  9
$PDMODE
 70
     3
  9
$PDSIZE
 40
-2.0
  9
$PLINEWID
 40
0.0
  9
$SPLFRAME
 70
     0
  9
$SPLINETYPE
 70
     6
  9
$SPLINESEGS
 70
     8
  9
$SURFTAB1
 70
     6
  9
$SURFTAB2
 70
     6
  9
$SURFTYPE
 70
     6
  9
$SURFU
 70
     6
  9
$SURFV
 70
     6
  9
$UCSNAME
  2

  9
$UCSORG
 10
0.0
 20
0.0
 30
0.0
  9
$UCSXDIR
 10
1.0
 20
0.0
 30
0.0
  9
$UCSYDIR
 10
0.0
 20
1.0
 30
0.0
  9
$PUCSNAME
  2

  9
$PUCSORG
 10
0.0
 20
0.0
 30
0.0
  9
$PUCSXDIR
 10
1.0
 20
0.0
 30
0.0
  9
$PUCSYDIR
 10
0.0
 20
1.0
 30
0.0
  9
$USERI1
 70
     0
  9
$USERI2
 70
     0
  9
$USERI3
 70
     0
  9
$USERI4
 70
     0
  9
$USERI5
 70
     0
  9
$USERR1
 40
20.0
  9
$USERR2
 40
0.0
  9
$USERR3
 40
0.0
  9
$USERR4
 40
0.0
  9
$USERR5
 40
0.0
  9
$WORLDVIEW
 70
     1
  9
$SHADEDGE
 70
     3
  9
$SHADEDIF
 70
    70
  9
$TILEMODE
 70
     1
  9
$MAXACTVP
 70
    48
  9
$PINSBASE
 10
0.0
 20
0.0
 30
0.0
  9
$PLIMCHECK
 70
     0
  9
$PEXTMIN
 10
-100000000000000000000.0
 20
-100000000000000000000.0
 30
-100000000000000000000.0
  9
$PEXTMAX
 10
100000000000000000000.0
 20
100000000000000000000.0
 30
100000000000000000000.0
  9
$PLIMMIN
 10
0.0
 20
0.0
  9
$PLIMMAX
 10
12.0
 20
9.0
  9
$UNITMODE
 70
     0
  9
$VISRETAIN
 70
     0
  9
$PLINEGEN
 70
     0
  9
$PSLTSCALE
 70
     0
  9
$TREEDEPTH
 70
  3020
  9
$ATTDIA
 70
     0
  9
$ATTREQ
 70
     1
  9
$BLIPMODE
 70
     1
  9
$COORDS
 70
     1
  9
$DRAGMODE
 70
     2
  9
$OSMODE
 70
     0
  9
$HANDLING
 70
     0
  9
$HANDSEED
  5
F070
  0
ENDSEC
  0
SECTION
  2
TABLES
  0
TABLE
  2
LTYPE
 70
     2
  0
LTYPE
  2
CONTINUOUS
 70
     0
  3
実線
 72
    65
 73
     0
 40
0.0
  0
LTYPE
  2
DASHDOT
 70
     0
  3
____ _ ____ _ ____ _ ____ _ ____ _ ____ _ ____
 72
    65
 73
     4
 40
5.5
 49
4.0
 49
-0.6
 49
0.3
 49
-0.6
  0
ENDTAB
  0
TABLE
  2
LAYER
 70
    12
  0
LAYER
  2
0
 70
     0
 62
     7
  6
CONTINUOUS
  0
LAYER
  2
BASIS
 70
     0
 62
     6
  6
DASHDOT
  0
LAYER
  2
OUTLINE
 70
     0
 62
     3
  6
CONTINUOUS
  0
LAYER
  2
DETAIL
 70
     0
 62
     5
  6
CONTINUOUS
  0
LAYER
  2
SIZE
 70
     0
 62
    30
  6
CONTINUOUS
  0
LAYER
  2
ARRANGE
 70
     0
 62
     1
  6
CONTINUOUS
  0
LAYER
  2
DEFPOINTS
 70
     0
 62
     7
  6
CONTINUOUS
  0
LAYER
  2
ETC
 70
     0
 62
    61
  6
CONTINUOUS
  0
LAYER
  2
FIX
 70
     0
 62
    11
  6
CONTINUOUS
  0
LAYER
  2
NOTE
 70
     0
 62
     4
  6
CONTINUOUS
  0
LAYER
  2
SERVICESPACE
 70
    64
 62
     2
  6
DASHDOT
  0
LAYER
  2
SYMBOLLINE
 70
    64
 62
    15
  6
CONTINUOUS
  0
ENDTAB
  0
TABLE
  2
STYLE
 70
     1
  0
STYLE
  2
STANDARD
 70
     0
 40
64.0
 41
0.9
 50
0.0
 71
     0
 42
64.0
  3
SIMPLEX.shx
  4
BIGFONT.shx
  0
ENDTAB
  0
TABLE
  2
APPID
 70
    19
  0
APPID
  2
ACAD
 70
     0
  0
APPID
  2
AUTOCAD_POSTSCRIPT_FIGURE
 70
     0
  0
APPID
  2
ACAD_EXEMPT_FROM_CAD_STANDARDS
 70
     0
  0
APPID
  2
ACAD_PSEXT
 70
     0
  0
APPID
  2
ACAUTHENVIRON
 70
     0
  0
APPID
  2
GENIUS_GENOENT_13
 70
     0
  0
APPID
  2
GENIUS_GENCFG_13
 70
     0
  0
APPID
  2
GENIUS_GENCFG0_13
 70
     0
  0
APPID
  2
GENIUS_GENCFG1_13
 70
     0
  0
APPID
  2
GENIUS_GENCFG2_13
 70
     0
  0
APPID
  2
GENIUS_GENCFG3_13
 70
     0
  0
APPID
  2
GENIUS_GENCFG4_13
 70
     0
  0
APPID
  2
GENIUS_GEVCFG0_13
 70
     0
  0
APPID
  2
CONTENTBLOCKICON
 70
     0
  0
APPID
  2
CONTENTBLOCKDESCRIPTION
 70
     0
  0
APPID
  2
ACAD_NAV_VCDISPLAY
 70
     0
  0
APPID
  2
ACAD_MLEADERVER
 70
     0
  0
APPID
  2
ACDBDYNAMICBLOCKTRUENAME
 70
     0
  0
APPID
  2
ACDBDYNAMICBLOCKGUID
 70
     0
  0
ENDTAB
  0
TABLE
  2
DIMSTYLE
 70
     1
  0
DIMSTYLE
  2
STANDARD
 70
     0
  3

  4

  5
_ORIGIN
  6

  7

 40
1.0
 41
12.0
 42
20.0
 43
200.0
 44
20.0
 45
0.0
 46
0.0
 47
0.0
 48
0.0
140
64.0
141
0.09
142
0.0
143
25.399999999999999
144
1.0
145
0.0
146
1.0
147
25.0
 71
     0
 72
     0
 73
     0
 74
     0
 75
     0
 76
     0
 77
     1
 78
     8
170
     0
171
     2
172
     1
173
     0
174
     1
175
     0
176
     7
177
     7
178
     7
  0
ENDTAB
  0
TABLE
  2
VIEW
 70
     1
  0
VIEW
  2
ALL
 70
     0
 40
4282.6198079999986
 10
0.0
 20
41.309904000000003
 41
5940.0
 11
0.0
 21
0.0
 31
1.0
 12
0.0
 22
0.0
 32
0.0
 42
50.0
 43
0.0
 44
0.0
 50
0.0
 71
     0
  0
ENDTAB
  0
TABLE
  2
UCS
 70
     0
  0
ENDTAB
  0
TABLE
  2
VPORT
 70
     1
  0
VPORT
  2
*ACTIVE
 70
     0
 10
0.0
 20
0.0
 11
1.0
 21
1.0
 12
271.23185618690962
 22
-147.0794581657747
 13
0.0
 23
0.0
 14
1.0
 24
1.0
 15
0.0
 25
0.0
 16
0.0
 26
0.0
 36
1.0
 17
0.0
 27
0.0
 37
0.0
 40
1021.0885591387359
 41
1.767337807606264
 42
50.0
 43
0.0
 44
0.0
 50
0.0
 51
0.0
 71
     0
 72
  1000
 73
     1
 74
     3
 75
     0
 76
     0
 77
     0
 78
     0
  0
ENDTAB
  0
ENDSEC
  0
SECTION
  2
BLOCKS
  0
BLOCK
  8
0
  2
_ORIGIN
 70
     0
 10
0.0
 20
0.0
 30
0.0
  3
_ORIGIN
  1
_ORIGIN
  0
CIRCLE
  8
SIZE
  6
CONTINUOUS
 62
    30
 10
0.0
 20
0.0
 30
0.0
 40
0.5
  0
LINE
  8
SIZE
  6
CONTINUOUS
 62
    30
 10
0.0
 20
0.0
 30
0.0
 11
-1.0
 21
0.0
 31
0.0
  0
ENDBLK
  8
0
  0
ENDSEC
  0
SECTION
  2
ENTITIES
  0
CIRCLE
  8
ARRANGE
  6
CONTINUOUS
 62
     1
 10
0.0
 20
0.0
 30
0.0
 40
40.0
  0
LINE
  8
DETAIL
  6
CONTINUOUS
 62
     5
 10
355.00000000000051
 20
-137.0
 30
0.0
 11
355.00000000000051
 21
-132.0
 31
0.0
  0
LINE
  8
DETAIL
  6
CONTINUOUS
 62
     5
 10
350.00520382000008
 20
-0.0000000000009095
 30
0.0
 11
350.00520382000008
 21
-1.5000000000009091
 31
0.0
  0
LINE
  8
DETAIL
  6
CONTINUOUS
 62
     5
 10
350.00000000000051
 20
-132.0
 30
0.0
 11
350.00000000000051
 21
-3.0000000000009091
 31
0.0
  0
LINE
  8
DETAIL
  6
CONTINUOUS
 62
     5
 10
307.75322442339979
 20
-142.00000000000361
 30
0.0
 11
307.75322442339979
 21
-145.00000000000361
 31
0.0
  0
LINE
  8
DETAIL
  6
CONTINUOUS
 62
     5
 10
297.97628894539997
 20
-148.80000000000649
 30
0.0
 11
297.97628894539997
 21
-145.20000000000439
 31
0.0
  0
LINE
  8
DETAIL
  6
CONTINUOUS
 62
     5
 10
293.79690351240009
 20
-147.50000000000361
 30
0.0
 11
293.79690351240009
 21
-142.00000000000361
 31
0.0
  0
LINE
  8
DETAIL
  6
CONTINUOUS
 62
     5
 10
292.97628894539997
 20
-149.0000000000073
 30
0.0
 11
292.97628894539997
 21
-147.50000000000361
 31
0.0
  0
LINE
  8
DETAIL
  6
CONTINUOUS
 62
     5
 10
287.29690351240009
 20
-142.00000000000361
 30
0.0
 11
287.29690351240009
 21
-147.50000000000361
 31
0.0
  0
LINE
  8
DETAIL
  6
CONTINUOUS
 62
     5
 10
280.79690351240009
 20
-142.00000000000361
 30
0.0
 11
280.79690351240009
 21
-147.50000000000361
 31
0.0
  0
LINE
  8
DETAIL
  6
CONTINUOUS
 62
     5
 10
274.11064790440008
 20
-148.80000000000649
 30
0.0
 11
274.11064790440008
 21
-145.20000000000439
 31
0.0
  0
LINE
  8
DETAIL
  6
CONTINUOUS
 62
     5
 10
270.46248173040021
 20
-149.0000000000073
 30
0.0
 11
270.46248173040021
 21
-247.89946229900491
 31
0.0
  0
LINE
  8
DETAIL
  6
CONTINUOUS
 62
     5
 10
269.11064790440008
 20
-149.0000000000073
 30
0.0
 11
269.11064790440008
 21
-145.00000000000361
 31
0.0
  0
LINE
  8
DETAIL
  6
CONTINUOUS
 62
     5
 10
292.25735931300011
 20
-3.0000000000009091
 30
0.0
 11
292.25735931300011
 21
-0.0000000000009095
 31
0.0
  0
LINE
  8
DETAIL
  6
CONTINUOUS
 62
     5
 10
264.11064790440008
 20
-148.80000000000649
 30
0.0
 11
264.11064790440008
 21
-145.20000000000439
 31
0.0
  0
LINE
  8
DETAIL
  6
CONTINUOUS
 62
     5
 10
254.3337124263999
 20
-142.00000000000361
 30
0.0
 11
254.3337124263999
 21
-145.00000000000361
 31
0.0
  0
LINE
  8
DETAIL
  6
CONTINUOUS
 62
     5
 10
-74.5
 20
-357.99995660799868
 30
0.0
 11
74.5
 21
-357.99995660799868
 31
0.0
  0
LINE
  8
DETAIL
  6
CONTINUOUS
 62
     5
 10
83.200000000000273
 20
-329.49995660799868
 30
0.0
 11
82.0
 21
-329.49995660799868
 31
0.0
  0
LINE
  8
DETAIL
  6
CONTINUOUS
 62
     5
 10
94.200000000000273
 20
-327.49995660800232
 30
0.0
 11
85.200000000000273
 21
-327.49995660800232
 31
0.0
  0
LINE
  8
DETAIL
  6
CONTINUOUS
 62
     5
 10
94.200000000000273
 20
-324.69574564899989
 30
0.0
 11
97.206321594000201
 21
-324.69574564899989
 31
0.0
  0
LINE
  8
DETAIL
  6
CONTINUOUS
 62
     5
 10
76.442087733000335
 20
-321.89995660800378
 30
0.0
 11
241.83118765439991
 21
-321.89995660800741
 31
0.0
  0
LINE
  8
DETAIL
  6
CONTINUOUS
 62
     5
 10
-76.44208773399987
 20
-321.89995660800378
 30
0.0
 11
-241.74868817239391
 21
-321.89995660800832
 31
0.0
  0
LINE
  8
DETAIL
  6
CONTINUOUS
 62
     5
 10
-100.36785931899981
 20
-312.28670795400279
 30
0.0
 11
-96.537637103999714
 21
-315.17345930000192
 31
0.0
  0
LINE
  8
DETAIL
  6
CONTINUOUS
 62
     5
 10
-88.792143649000081
 20
-312.28670795400279
 30
0.0
 11
-84.961921433000043
 21
-315.17345930000192
 31
0.0
  0
LINE
  8
DETAIL
  6
CONTINUOUS
 62
     5
 10
96.455137620000187
 20
-315.17345930000192
 30
0.0
 11
100.2853598360002
 21
-312.28670795400279
 31
0.0
  0
LINE
  8
DETAIL
  6
CONTINUOUS
 62
     5
 10
84.964470974000051
 20
-315.17345930000192
 30
0.0
 11
88.7946931890001
 21
-312.28670795400279
 31
0.0
  0
LINE
  8
DETAIL
  6
CONTINUOUS
 62
     5
 10
-96.537637103999714
 20
-315.17345930000192
 30
0.0
 11
-93.610756423000112
 21
-315.17345930000192
 31
0.0
  0
LINE
  8
DETAIL
  6
CONTINUOUS
 62
     5
 10
-84.961921433000043
 20
-315.17345930000192
 30
0.0
 11
-82.035040752999976
 21
-315.17345930000192
 31
0.0
  0
LINE
  8
DETAIL
  6
CONTINUOUS
 62
     5
 10
96.455137620000187
 20
-315.17345930000192
 30
0.0
 11
93.528256940000119
 21
-315.17345930000192
 31
0.0
  0
LINE
  8
DETAIL
  6
CONTINUOUS
 62
     5
 10
84.964470974000051
 20
-315.17345930000192
 30
0.0
 11
82.037590292999994
 21
-315.17345930000192
 31
0.0
  0
LINE
  8
DETAIL
  6
CONTINUOUS
 62
     5
 10
-96.537637103999714
 20
-303.62645391600199
 30
0.0
 11
-93.610756423000112
 21
-303.62645391600199
 31
0.0
  0
LINE
  8
DETAIL
  6
CONTINUOUS
 62
     5
 10
-84.961921433000043
 20
-303.62645391700238
 30
0.0
 11
-82.035040752999976
 21
-303.62645391700238
 31
0.0
  0
LINE
  8
DETAIL
  6
CONTINUOUS
 62
     5
 10
96.455137620000187
 20
-303.62645391600199
 30
0.0
 11
93.528256940000119
 21
-303.62645391600199
 31
0.0
  0
LINE
  8
DETAIL
  6
CONTINUOUS
 62
     5
 10
84.964470974000051
 20
-303.62645391600199
 30
0.0
 11
82.037590292999994
 21
-303.62645391600199
 31
0.0
  0
LINE
  8
DETAIL
  6
CONTINUOUS
 62
     5
 10
74.581681361000392
 20
-297.39995660800008
 30
0.0
 11
64.981681361000028
 21
-297.39995660800008
 31
0.0
  0
LINE
  8
DETAIL
  6
CONTINUOUS
 62
     5
 10
-64.981681362000018
 20
-297.39995660800008
 30
0.0
 11
-74.581681361999927
 21
-297.39995660800008
 31
0.0
  0
LINE
  8
DETAIL
  6
CONTINUOUS
 62
     5
 10
77.301477001999956
 20
-296.89995660800378
 30
0.0
 11
239.82032534239991
 21
-296.89995660800741
 31
0.0
  0
LINE
  8
DETAIL
  6
CONTINUOUS
 62
     5
 10
-77.301477001999956
 20
-296.89995660800378
 30
0.0
 11
-239.82032534339439
 21
-296.89995660800832
 31
0.0
  0
LINE
  8
DETAIL
  6
CONTINUOUS
 62
     5
 10
101.3252804140002
 20
-293.39995660800378
 30
0.0
 11
-101.32528041399971
 21
-293.39995660800378
 31
0.0
  0
LINE
  8
DETAIL
  6
CONTINUOUS
 62
     5
 10
101.3252804140002
 20
-290.39995660800008
 30
0.0
 11
-101.32528041399971
 21
-290.39995660800008
 31
0.0
  0
LINE
  8
DETAIL
  6
CONTINUOUS
 62
     5
 10
105.18200607200011
 20
-296.89995660800378
 30
0.0
 11
105.18200607200011
 21
-296.39995660800008
 31
0.0
  0
LINE
  8
DETAIL
  6
CONTINUOUS
 62
     5
 10
103.2536432430002
 20
-296.89995660800378
 30
0.0
 11
103.2536432430002
 21
-296.39995660800008
 31
0.0
  0
LINE
  8
DETAIL
  6
CONTINUOUS
 62
     5
 10
100.2853598360002
 20
-312.28670795400279
 30
0.0
 11
100.2853598360002
 21
-306.51320526200112
 31
0.0
  0
LINE
  8
DETAIL
  6
CONTINUOUS
 62
     5
 10
96.0
 20
-290.39995660800008
 30
0.0
 11
96.0
 21
-286.39995660800008
 31
0.0
  0
LINE
  8
DETAIL
  6
CONTINUOUS
 62
     5
 10
94.550000000000182
 20
-286.39995660800008
 30
0.0
 11
94.550000000000182
 21
-283.19995660800299
 31
0.0
  0
LINE
  8
DETAIL
  6
CONTINUOUS
 62
     5
 10
94.200000000000273
 20
-321.89995660800378
 30
0.0
 11
94.200000000000273
 21
-327.49982251499932
 31
0.0
  0
LINE
  8
DETAIL
  6
CONTINUOUS
 62
     5
 10
95.999877848000324
 20
-286.39995660800008
 30
0.0
 11
-95.999877847999869
 21
-286.39995660800008
 31
0.0
  0
LINE
  8
DETAIL
  6
CONTINUOUS
 62
     5
 10
-94.549999999999727
 20
-283.19995660800299
 30
0.0
 11
-86.449999999999818
 21
-283.19995660800299
 31
0.0
  0
LINE
  8
DETAIL
  6
CONTINUOUS
 62
     5
 10
86.450000000000273
 20
-283.19995660800299
 30
0.0
 11
94.550000000000182
 21
-283.19995660800299
 31
0.0
  0
LINE
  8
DETAIL
  6
CONTINUOUS
 62
     5
 10
-74.781681361999745
 20
-281.39995660800008
 30
0.0
 11
-64.781681361999745
 21
-281.39995660800008
 31
0.0
  0
LINE
  8
DETAIL
  6
CONTINUOUS
 62
     5
 10
64.78168136100021
 20
-281.39995660800008
 30
0.0
 11
74.78168136100021
 21
-281.39995660800008
 31
0.0
  0
LINE
  8
DETAIL
  6
CONTINUOUS
 62
     5
 10
-91.994698136999887
 20
-280.39995660800008
 30
0.0
 11
-89.005301863999648
 21
-280.39995660800008
 31
0.0
  0
LINE
  8
DETAIL
  6
CONTINUOUS
 62
     5
 10
89.005301863000113
 20
-280.39995660800008
 30
0.0
 11
91.994698136000352
 21
-280.39995660800008
 31
0.0
  0
LINE
  8
DETAIL
  6
CONTINUOUS
 62
     5
 10
-72.781681361999745
 20
-279.39995660800378
 30
0.0
 11
-66.781681361999745
 21
-279.39995660800378
 31
0.0
  0
LINE
  8
DETAIL
  6
CONTINUOUS
 62
     5
 10
66.78168136100021
 20
-279.39995660800378
 30
0.0
 11
72.78168136100021
 21
-279.39995660800378
 31
0.0
  0
LINE
  8
DETAIL
  6
CONTINUOUS
 62
     5
 10
-294.71995752939762
 20
-146.91944341547881
 30
0.0
 11
-293.71440402939788
 21
-147.49999999947701
 31
0.0
  0
LINE
  8
DETAIL
  6
CONTINUOUS
 62
     5
 10
92.522437298000114
 20
-286.39995660800008
 30
0.0
 11
92.522437298000114
 21
-283.19995660800299
 31
0.0
  0
LINE
  8
DETAIL
  6
CONTINUOUS
 62
     5
 10
92.0
 20
-283.19995660800299
 30
0.0
 11
92.0
 21
-280.39995660800008
 31
0.0
  0
LINE
  8
DETAIL
  6
CONTINUOUS
 62
     5
 10
89.0
 20
-283.19995660800299
 30
0.0
 11
89.0
 21
-280.39995660800008
 31
0.0
  0
LINE
  8
DETAIL
  6
CONTINUOUS
 62
     5
 10
88.7946931890001
 20
-312.28670795400279
 30
0.0
 11
88.7946931890001
 21
-306.51320526200112
 31
0.0
  0
LINE
  8
DETAIL
  6
CONTINUOUS
 62
     5
 10
88.477562700999897
 20
-286.39995660800008
 30
0.0
 11
88.477562700999897
 21
-283.19995660800299
 31
0.0
  0
LINE
  8
DETAIL
  6
CONTINUOUS
 62
     5
 10
86.450000000000273
 20
-286.39995660800008
 30
0.0
 11
86.450000000000273
 21
-283.19995660800299
 31
0.0
  0
LINE
  8
DETAIL
  6
CONTINUOUS
 62
     5
 10
84.200000000000273
 20
-321.89995660800378
 30
0.0
 11
84.200000000000273
 21
-328.49995660800232
 31
0.0
  0
LINE
  8
DETAIL
  6
CONTINUOUS
 62
     5
 10
82.0
 20
-350.49995660799868
 30
0.0
 11
82.0
 21
-321.89995660800378
 31
0.0
  0
LINE
  8
DETAIL
  6
CONTINUOUS
 62
     5
 10
81.700000000000273
 20
-281.89995660800378
 30
0.0
 11
81.700000000000273
 21
-225.0
 31
0.0
  0
LINE
  8
DETAIL
  6
CONTINUOUS
 62
     5
 10
74.920844189000036
 20
-318.89995660800008
 30
0.0
 11
74.920844189000036
 21
-299.89995660800008
 31
0.0
  0
LINE
  8
DETAIL
  6
CONTINUOUS
 62
     5
 10
74.78168136100021
 20
-297.19995660799941
 30
0.0
 11
74.78168136100021
 21
-293.59995660800092
 31
0.0
  0
LINE
  8
DETAIL
  6
CONTINUOUS
 62
     5
 10
74.78168136100021
 20
-286.39995660800008
 30
0.0
 11
74.78168136100021
 21
-281.39995660800008
 31
0.0
  0
LINE
  8
DETAIL
  6
CONTINUOUS
 62
     5
 10
74.143954403999942
 20
-297.39995660800008
 30
0.0
 11
74.143954403999942
 21
-318.89995660800008
 31
0.0
  0
LINE
  8
DETAIL
  6
CONTINUOUS
 62
     5
 10
72.78168136100021
 20
-281.39995660800008
 30
0.0
 11
72.78168136100021
 21
-279.39995660800378
 31
0.0
  0
LINE
  8
DETAIL
  6
CONTINUOUS
 62
     5
 10
69.78168136100021
 20
-297.39995660800008
 30
0.0
 11
69.78168136100021
 21
-293.39995660800378
 31
0.0
  0
LINE
  8
DETAIL
  6
CONTINUOUS
 62
     5
 10
69.78168136100021
 20
-286.39995660800008
 30
0.0
 11
69.78168136100021
 21
-281.39995660800378
 31
0.0
  0
LINE
  8
DETAIL
  6
CONTINUOUS
 62
     5
 10
66.78168136100021
 20
-281.39995660800008
 30
0.0
 11
66.78168136100021
 21
-279.39995660800378
 31
0.0
  0
LINE
  8
DETAIL
  6
CONTINUOUS
 62
     5
 10
64.78168136100021
 20
-297.19995660799941
 30
0.0
 11
64.78168136100021
 21
-293.59995660800092
 31
0.0
  0
LINE
  8
DETAIL
  6
CONTINUOUS
 62
     5
 10
64.78168136100021
 20
-286.39995660800008
 30
0.0
 11
64.78168136100021
 21
-281.39995660800008
 31
0.0
  0
LINE
  8
DETAIL
  6
CONTINUOUS
 62
     5
 10
88.7946931890001
 20
-306.51320526200112
 30
0.0
 11
84.964470974000051
 21
-303.62645391600199
 31
0.0
  0
LINE
  8
DETAIL
  6
CONTINUOUS
 62
     5
 10
100.2853598360002
 20
-306.51320526200112
 30
0.0
 11
96.455137620000187
 21
-303.62645391600199
 31
0.0
  0
LINE
  8
DETAIL
  6
CONTINUOUS
 62
     5
 10
-84.961921433000043
 20
-303.62645391700238
 30
0.0
 11
-88.792143649000081
 21
-306.51320526200112
 31
0.0
  0
LINE
  8
DETAIL
  6
CONTINUOUS
 62
     5
 10
-96.537637103999714
 20
-303.62645391600199
 30
0.0
 11
-100.36785931899981
 21
-306.51320526200112
 31
0.0
  0
LINE
  8
DETAIL
  6
CONTINUOUS
 62
     5
 10
0.5
 20
-132.0
 30
0.0
 11
0.5
 21
-0.0000000000009095
 31
0.0
  0
LINE
  8
BASIS
  6
DASHDOT
 62
     6
 10
0.0
 20
-373.8253001030007
 30
0.0
 11
0.0
 21
15.97904075300085
 31
0.0
  0
LINE
  8
DETAIL
  6
CONTINUOUS
 62
     5
 10
-0.5
 20
-132.0
 30
0.0
 11
-0.5
 21
-0.0000000000009095
 31
0.0
  0
LINE
  8
DETAIL
  6
CONTINUOUS
 62
     5
 10
-64.781681361999745
 20
-297.19995660799941
 30
0.0
 11
-64.781681361999745
 21
-293.59995660800092
 31
0.0
  0
LINE
  8
DETAIL
  6
CONTINUOUS
 62
     5
 10
-64.781681361999745
 20
-286.39995660800008
 30
0.0
 11
-64.781681361999745
 21
-281.39995660800008
 31
0.0
  0
LINE
  8
DETAIL
  6
CONTINUOUS
 62
     5
 10
297.77628894540021
 20
-149.0000000000073
 30
0.0
 11
291.54195563740001
 21
-149.0000000000073
 31
0.0
  0
LINE
  8
DETAIL
  6
CONTINUOUS
 62
     5
 10
273.91064790439992
 20
-149.0000000000073
 30
0.0
 11
264.31064790440001
 21
-149.0000000000073
 31
0.0
  0
LINE
  8
DETAIL
  6
CONTINUOUS
 62
     5
 10
-291.54195563739768
 20
-148.99999999948071
 30
0.0
 11
-297.69378946339788
 21
-148.99999999948071
 31
0.0
  0
LINE
  8
DETAIL
  6
CONTINUOUS
 62
     5
 10
293.79690351240009
 20
-147.50000000000361
 30
0.0
 11
280.79690351240009
 21
-147.50000000000361
 31
0.0
  0
LINE
  8
DETAIL
  6
CONTINUOUS
 62
     5
 10
-280.71473591239783
 20
-147.49999999947701
 30
0.0
 11
-293.71407214739747
 21
-147.49999999947701
 31
0.0
  0
LINE
  8
DETAIL
  6
CONTINUOUS
 62
     5
 10
307.75322442339979
 20
-145.00000000000361
 30
0.0
 11
293.79690351240009
 21
-145.00000000000361
 31
0.0
  0
LINE
  8
DETAIL
  6
CONTINUOUS
 62
     5
 10
280.79690351240009
 20
-145.00000000000361
 30
0.0
 11
254.3337124263999
 21
-145.00000000000361
 31
0.0
  0
LINE
  8
DETAIL
  6
CONTINUOUS
 62
     5
 10
-294.71995752939762
 20
-144.99999999947701
 30
0.0
 11
-307.67072494139802
 21
-144.99999999947701
 31
0.0
  0
LINE
  8
DETAIL
  6
CONTINUOUS
 62
     5
 10
350.00000000000051
 20
-142.0
 30
0.0
 11
-350.0
 21
-142.0
 31
0.0
  0
LINE
  8
DETAIL
  6
CONTINUOUS
 62
     5
 10
-66.781681361999745
 20
-281.39995660800008
 30
0.0
 11
-66.781681361999745
 21
-279.39995660800378
 31
0.0
  0
LINE
  8
DETAIL
  6
CONTINUOUS
 62
     5
 10
-69.781681361999745
 20
-297.39995660800008
 30
0.0
 11
-69.781681361999745
 21
-293.39995660800378
 31
0.0
  0
LINE
  8
DETAIL
  6
CONTINUOUS
 62
     5
 10
-69.781681361999745
 20
-286.39995660800008
 30
0.0
 11
-69.781681361999745
 21
-281.39995660800008
 31
0.0
  0
LINE
  8
DETAIL
  6
CONTINUOUS
 62
     5
 10
-72.781681361999745
 20
-281.39995660800008
 30
0.0
 11
-72.781681361999745
 21
-279.39995660800378
 31
0.0
  0
LINE
  8
DETAIL
  6
CONTINUOUS
 62
     5
 10
-74.143954404999931
 20
-297.39995660800008
 30
0.0
 11
-74.143954404999931
 21
-318.89995660800008
 31
0.0
  0
LINE
  8
DETAIL
  6
CONTINUOUS
 62
     5
 10
-74.781681361999745
 20
-297.19995660799941
 30
0.0
 11
-74.781681361999745
 21
-293.59995660800092
 31
0.0
  0
LINE
  8
DETAIL
  6
CONTINUOUS
 62
     5
 10
-74.781681361999745
 20
-286.39995660800008
 30
0.0
 11
-74.781681361999745
 21
-281.39995660800008
 31
0.0
  0
LINE
  8
DETAIL
  6
CONTINUOUS
 62
     5
 10
-75.003343673000018
 20
-318.89995660800008
 30
0.0
 11
-75.003343673000018
 21
-299.89995660800008
 31
0.0
  0
LINE
  8
DETAIL
  6
CONTINUOUS
 62
     5
 10
-82.0
 20
-350.49995660799868
 30
0.0
 11
-82.0
 21
-321.89995660800378
 31
0.0
  0
LINE
  8
DETAIL
  6
CONTINUOUS
 62
     5
 10
-81.699999999999818
 20
-281.89995660800378
 30
0.0
 11
-81.699999999999818
 21
-225.0
 31
0.0
  0
LINE
  8
DETAIL
  6
CONTINUOUS
 62
     5
 10
355.00000000000051
 20
-132.0
 30
0.0
 11
-355.0
 21
-132.0
 31
0.0
  0
LINE
  8
DETAIL
  6
CONTINUOUS
 62
     5
 10
-86.449999999999818
 20
-286.39995660800008
 30
0.0
 11
-86.449999999999818
 21
-283.19995660800299
 31
0.0
  0
LINE
  8
DETAIL
  6
CONTINUOUS
 62
     5
 10
-88.477562701999886
 20
-286.39995660800008
 30
0.0
 11
-88.477562701999886
 21
-283.19995660800299
 31
0.0
  0
LINE
  8
DETAIL
  6
CONTINUOUS
 62
     5
 10
-88.792143649000081
 20
-306.51320526200112
 30
0.0
 11
-88.792143649000081
 21
-312.28670795400279
 31
0.0
  0
LINE
  8
DETAIL
  6
CONTINUOUS
 62
     5
 10
-89.0
 20
-283.19995660800299
 30
0.0
 11
-89.0
 21
-280.39995660800008
 31
0.0
  0
LINE
  8
DETAIL
  6
CONTINUOUS
 62
     5
 10
-92.0
 20
-283.19995660800299
 30
0.0
 11
-92.0
 21
-280.39995660800008
 31
0.0
  0
LINE
  8
DETAIL
  6
CONTINUOUS
 62
     5
 10
-92.522437299000103
 20
-286.39995660800008
 30
0.0
 11
-92.522437299000103
 21
-283.19995660800299
 31
0.0
  0
LINE
  8
DETAIL
  6
CONTINUOUS
 62
     5
 10
-94.549999999999727
 20
-286.39995660800008
 30
0.0
 11
-94.549999999999727
 21
-283.19995660800299
 31
0.0
  0
LINE
  8
DETAIL
  6
CONTINUOUS
 62
     5
 10
-96.0
 20
-290.39995660800008
 30
0.0
 11
-96.0
 21
-286.39995660800008
 31
0.0
  0
LINE
  8
DETAIL
  6
CONTINUOUS
 62
     5
 10
-100.36785931899981
 20
-306.51320526200112
 30
0.0
 11
-100.36785931899981
 21
-312.28670795400279
 31
0.0
  0
LINE
  8
DETAIL
  6
CONTINUOUS
 62
     5
 10
-103.2536432429997
 20
-296.89995660800378
 30
0.0
 11
-103.2536432429997
 21
-296.39995660800008
 31
0.0
  0
LINE
  8
DETAIL
  6
CONTINUOUS
 62
     5
 10
-105.18200607199969
 20
-296.89995660800378
 30
0.0
 11
-105.18200607199969
 21
-296.39995660800008
 31
0.0
  0
LINE
  8
DETAIL
  6
CONTINUOUS
 62
     5
 10
350.00000000000051
 20
-3.0000000000009091
 30
0.0
 11
348.94454364800049
 21
-3.0000000000009091
 31
0.0
  0
LINE
  8
DETAIL
  6
CONTINUOUS
 62
     5
 10
295.05545635099998
 20
-3.0000000000009091
 30
0.0
 11
292.25735931300011
 21
-3.0000000000009091
 31
0.0
  0
LINE
  8
DETAIL
  6
CONTINUOUS
 62
     5
 10
-292.25735931300011
 20
-3.0000000000009091
 30
0.0
 11
-295.05545635200002
 21
-3.0000000000009091
 31
0.0
  0
LINE
  8
DETAIL
  6
CONTINUOUS
 62
     5
 10
-348.94454364900002
 20
-3.0000000000009091
 30
0.0
 11
-350.0
 21
-3.0000000000009091
 31
0.0
  0
LINE
  8
DETAIL
  6
CONTINUOUS
 62
     5
 10
-0.5
 20
-2.0000000000009091
 30
0.0
 11
0.5
 21
-2.0000000000009091
 31
0.0
  0
LINE
  8
DETAIL
  6
CONTINUOUS
 62
     5
 10
296.11611652300007
 20
-1.5000000000009091
 30
0.0
 11
350.00520382000008
 21
-1.5000000000009091
 31
0.0
  0
LINE
  8
DETAIL
  6
CONTINUOUS
 62
     5
 10
-296.11611652399961
 20
-1.5000000000009091
 30
0.0
 11
-350.00520381999968
 21
-1.5000000000009091
 31
0.0
  0
LINE
  8
DETAIL
  6
CONTINUOUS
 62
     5
 10
-350.00520381999968
 20
-0.0000000000009095
 30
0.0
 11
-296.11611652399961
 21
-0.0000000000009095
 31
0.0
  0
LINE
  8
DETAIL
  6
CONTINUOUS
 62
     5
 10
-292.25735931300011
 20
-0.0000000000009095
 30
0.0
 11
-0.5
 21
-0.0000000000009095
 31
0.0
  0
LINE
  8
DETAIL
  6
CONTINUOUS
 62
     5
 10
350.00520382000008
 20
-0.0000000000009095
 30
0.0
 11
296.11611652300007
 21
-0.0000000000009095
 31
0.0
  0
LINE
  8
DETAIL
  6
CONTINUOUS
 62
     5
 10
292.25735931300011
 20
-0.0000000000009095
 30
0.0
 11
0.5
 21
-0.0000000000009095
 31
0.0
  0
LINE
  8
DETAIL
  6
CONTINUOUS
 62
     5
 10
-279.70885053039768
 20
-146.91944341547881
 30
0.0
 11
-280.71440402939788
 21
-147.49999999947701
 31
0.0
  0
LINE
  8
DETAIL
  6
CONTINUOUS
 62
     5
 10
-292.25735931300011
 20
-3.0000000000009091
 30
0.0
 11
-292.25735931300011
 21
-0.0000000000009095
 31
0.0
  0
LINE
  8
DETAIL
  6
CONTINUOUS
 62
     5
 10
-270.46248173039982
 20
-247.89946229900491
 30
0.0
 11
-270.46248173039982
 21
-148.0000000000073
 31
0.0
  0
LINE
  8
DETAIL
  6
CONTINUOUS
 62
     5
 10
-279.70885053039768
 20
-141.99999999947701
 30
0.0
 11
-279.70885053039768
 21
-146.91944341547881
 31
0.0
  0
LINE
  8
DETAIL
  6
CONTINUOUS
 62
     5
 10
-283.46162728039781
 20
-141.99999999947701
 30
0.0
 11
-283.46162728039781
 21
-147.4999999994734
 31
0.0
  0
LINE
  8
DETAIL
  6
CONTINUOUS
 62
     5
 10
-289.61359280840003
 20
-147.5000000000073
 30
0.0
 11
-289.61359280840003
 21
-247.89946229900491
 31
0.0
  0
LINE
  8
DETAIL
  6
CONTINUOUS
 62
     5
 10
-290.96718077939789
 20
-141.99999999947701
 30
0.0
 11
-290.96718077939789
 21
-147.4999999994734
 31
0.0
  0
LINE
  8
DETAIL
  6
CONTINUOUS
 62
     5
 10
-291.54195563740001
 20
-147.5000000000073
 30
0.0
 11
-291.5419556373995
 21
-247.89946229900491
 31
0.0
  0
LINE
  8
DETAIL
  6
CONTINUOUS
 62
     5
 10
-292.89378946339781
 20
-148.99999999948071
 30
0.0
 11
-292.89378946339781
 21
-147.49999999947701
 31
0.0
  0
LINE
  8
DETAIL
  6
CONTINUOUS
 62
     5
 10
-294.71995752939762
 20
-141.99999999947701
 30
0.0
 11
-294.71995752939762
 21
-146.91944341547881
 31
0.0
  0
LINE
  8
DETAIL
  6
CONTINUOUS
 62
     5
 10
-297.89378946339781
 20
-148.79999999948001
 30
0.0
 11
-297.89378946339781
 21
-145.1999999994778
 31
0.0
  0
LINE
  8
DETAIL
  6
CONTINUOUS
 62
     5
 10
-307.67072494139802
 20
-141.99999999947701
 30
0.0
 11
-307.67072494139802
 21
-144.99999999947701
 31
0.0
  0
LINE
  8
DETAIL
  6
CONTINUOUS
 62
     5
 10
-350.0
 20
-132.0
 30
0.0
 11
-350.0
 21
-3.0000000000009091
 31
0.0
  0
LINE
  8
DETAIL
  6
CONTINUOUS
 62
     5
 10
-350.00520381999968
 20
-0.0000000000009095
 30
0.0
 11
-350.00520381999968
 21
-1.5000000000009091
 31
0.0
  0
LINE
  8
DETAIL
  6
CONTINUOUS
 62
     5
 10
-355.0
 20
-137.0
 30
0.0
 11
-355.0
 21
-132.0
 31
0.0
  0
ARC
  8
DETAIL
  6
CONTINUOUS
 62
     5
 10
239.81955729640001
 20
-283.73997533500187
 30
0.0
 40
38.159981281
 50
270.0011531929083
 51
272.89536028629749
  0
ARC
  8
DETAIL
  6
CONTINUOUS
 62
     5
 10
74.5
 20
-350.49995660799868
 30
0.0
 40
7.5
 50
270.0
 51
0.0
  0
ARC
  8
DETAIL
  6
CONTINUOUS
 62
     5
 10
86.200000000000273
 20
-281.89995660800378
 30
0.0
 40
4.5
 50
180.0
 51
270.0
  0
ARC
  8
DETAIL
  6
CONTINUOUS
 62
     5
 10
83.200000000000273
 20
-328.49995660800232
 30
0.0
 40
1.0
 50
270.0
 51
0.0
  0
ARC
  8
DETAIL
  6
CONTINUOUS
 62
     5
 10
85.200000000000273
 20
-328.49995660800232
 30
0.0
 40
1.0
 50
90.0
 51
180.0
  0
ARC
  8
DETAIL
  6
CONTINUOUS
 62
     5
 10
64.981681361000028
 20
-297.19995660799941
 30
0.0
 40
0.2
 50
180.00000000010431
 51
270.0
  0
ARC
  8
DETAIL
  6
CONTINUOUS
 62
     5
 10
74.581681361000392
 20
-297.19995660799941
 30
0.0
 40
0.2
 50
270.00000000010431
 51
0.0
  0
ARC
  8
DETAIL
  6
CONTINUOUS
 62
     5
 10
74.581681361000392
 20
-293.59995660800092
 30
0.0
 40
0.2
 50
0.0
 51
89.999999999895778
  0
ARC
  8
DETAIL
  6
CONTINUOUS
 62
     5
 10
64.981681361000028
 20
-293.59995660800092
 30
0.0
 40
0.2
 50
90.0
 51
180.00000000010431
  0
ARC
  8
DETAIL
  6
CONTINUOUS
 62
     5
 10
-239.81955729639409
 20
-283.73997533500278
 30
0.0
 40
38.159981281
 50
267.10463971370251
 51
269.99884680709181
  0
ARC
  8
DETAIL
  6
CONTINUOUS
 62
     5
 10
-74.5
 20
-350.49995660799868
 30
0.0
 40
7.5
 50
180.0
 51
270.0
  0
ARC
  8
DETAIL
  6
CONTINUOUS
 62
     5
 10
-86.199999999999818
 20
-281.89995660800378
 30
0.0
 40
4.5
 50
270.0
 51
0.0
  0
ARC
  8
DETAIL
  6
CONTINUOUS
 62
     5
 10
-74.581681361999927
 20
-297.19995660799941
 30
0.0
 40
0.2
 50
180.00000000010431
 51
270.0
  0
ARC
  8
DETAIL
  6
CONTINUOUS
 62
     5
 10
-64.981681362000018
 20
-297.19995660799941
 30
0.0
 40
0.2
 50
270.00000000010431
 51
0.0
  0
ARC
  8
DETAIL
  6
CONTINUOUS
 62
     5
 10
-64.981681362000018
 20
-293.59995660800092
 30
0.0
 40
0.2
 50
0.0
 51
89.999999999895778
  0
ARC
  8
DETAIL
  6
CONTINUOUS
 62
     5
 10
-74.581681361999927
 20
-293.59995660800092
 30
0.0
 40
0.2
 50
90.0
 51
180.00000000010431
  0
ARC
  8
DETAIL
  6
CONTINUOUS
 62
     5
 10
350.00000000000051
 20
-137.0
 30
0.0
 40
5.0
 50
270.0
 51
0.0
  0
ARC
  8
DETAIL
  6
CONTINUOUS
 62
     5
 10
347.0
 20
-3.0000000000009091
 30
0.0
 40
3.0
 50
0.0
 51
28.077765280211299
  0
ARC
  8
DETAIL
  6
CONTINUOUS
 62
     5
 10
297.77628894540021
 20
-148.80000000000649
 30
0.0
 40
0.2
 50
270.00000000010431
 51
0.0
  0
ARC
  8
DETAIL
  6
CONTINUOUS
 62
     5
 10
297.77628894540021
 20
-145.20000000000439
 30
0.0
 40
0.2
 50
0.0
 51
89.999999999895778
  0
ARC
  8
DETAIL
  6
CONTINUOUS
 62
     5
 10
264.31064790440001
 20
-148.80000000000649
 30
0.0
 40
0.2
 50
180.00000000010431
 51
270.0
  0
ARC
  8
DETAIL
  6
CONTINUOUS
 62
     5
 10
273.91064790439992
 20
-148.80000000000649
 30
0.0
 40
0.2
 50
270.00000000010431
 51
0.0
  0
ARC
  8
DETAIL
  6
CONTINUOUS
 62
     5
 10
264.31064790440001
 20
-145.20000000000439
 30
0.0
 40
0.2
 50
90.0
 51
180.00000000010431
  0
ARC
  8
DETAIL
  6
CONTINUOUS
 62
     5
 10
273.91064790439992
 20
-145.20000000000439
 30
0.0
 40
0.2
 50
0.0
 51
89.999999999895778
  0
ARC
  8
DETAIL
  6
CONTINUOUS
 62
     5
 10
-350.0
 20
-137.0
 30
0.0
 40
5.0
 50
180.0
 51
270.0
  0
ARC
  8
DETAIL
  6
CONTINUOUS
 62
     5
 10
-347.0
 20
-3.0000000000009091
 30
0.0
 40
3.0
 50
151.92223471978869
 51
180.0
  0
ARC
  8
DETAIL
  6
CONTINUOUS
 62
     5
 10
-281.58551024039798
 20
-144.69529046847771
 30
0.0
 40
2.8047095440000001
 50
270.00554296498558
 51
272.94743713528692
  0
ARC
  8
DETAIL
  6
CONTINUOUS
 62
     5
 10
-292.8432977213979
 20
-144.6953140034793
 30
0.0
 40
2.8046860090000001
 50
267.05255766100839
 51
269.99445501720288
  0
ARC
  8
DETAIL
  6
CONTINUOUS
 62
     5
 10
-297.69378946339788
 20
-148.79999999948001
 30
0.0
 40
0.2
 50
180.00000000010431
 51
270.00000000010431
  0
ARC
  8
DETAIL
  6
CONTINUOUS
 62
     5
 10
-297.69378946339788
 20
-145.1999999994778
 30
0.0
 40
0.2
 50
90.0
 51
180.00000000010431
  0
LINE
  8
DETAIL
  6
CONTINUOUS
 62
     5
 10
93.528256940000119
 20
-315.17345930000192
 30
0.0
 11
89.698034724000081
 21
-312.28670795400279
 31
0.0
  0
LINE
  8
DETAIL
  6
CONTINUOUS
 62
     5
 10
89.698034724000081
 20
-312.28670795400279
 30
0.0
 11
89.698034724000081
 21
-306.51320526200112
 31
0.0
  0
LINE
  8
DETAIL
  6
CONTINUOUS
 62
     5
 10
89.698034724000081
 20
-306.51320526200112
 30
0.0
 11
93.528256940000119
 21
-303.62645391600199
 31
0.0
  0
LINE
  8
DETAIL
  6
CONTINUOUS
 62
     5
 10
78.2073680780004
 20
-312.28670795400279
 30
0.0
 11
82.037590292999994
 21
-315.17345930000192
 31
0.0
  0
LINE
  8
DETAIL
  6
CONTINUOUS
 62
     5
 10
82.037590292999994
 20
-303.62645391600199
 30
0.0
 11
78.2073680780004
 21
-306.51320526200112
 31
0.0
  0
LINE
  8
DETAIL
  6
CONTINUOUS
 62
     5
 10
78.2073680780004
 20
-306.51320526200112
 30
0.0
 11
78.2073680780004
 21
-312.28670795400279
 31
0.0
  0
LINE
  8
DETAIL
  6
CONTINUOUS
 62
     5
 10
-82.035040752999976
 20
-315.17345930000192
 30
0.0
 11
-78.204818537999927
 21
-312.28670795400279
 31
0.0
  0
LINE
  8
DETAIL
  6
CONTINUOUS
 62
     5
 10
-78.204818537999927
 20
-312.28670795400279
 30
0.0
 11
-78.204818537999927
 21
-306.51320526200112
 31
0.0
  0
LINE
  8
DETAIL
  6
CONTINUOUS
 62
     5
 10
-78.204818537999927
 20
-306.51320526200112
 30
0.0
 11
-82.035040752999976
 21
-303.62645391600199
 31
0.0
  0
LINE
  8
DETAIL
  6
CONTINUOUS
 62
     5
 10
-93.610756423000112
 20
-315.17345930000192
 30
0.0
 11
-89.780534207999608
 21
-312.28670795400279
 31
0.0
  0
LINE
  8
DETAIL
  6
CONTINUOUS
 62
     5
 10
-89.780534207999608
 20
-312.28670795400279
 30
0.0
 11
-89.780534207999608
 21
-306.51320526200112
 31
0.0
  0
LINE
  8
DETAIL
  6
CONTINUOUS
 62
     5
 10
-89.780534207999608
 20
-306.51320526200112
 30
0.0
 11
-93.610756423000112
 21
-303.62645391600199
 31
0.0
  0
ARC
  8
DETAIL
  6
CONTINUOUS
 62
     5
 10
239.8108644736144
 20
-275.91617926271653
 30
0.0
 40
46.028137966857138
 50
272.51570448906648
 51
328.76687302305442
  0
ARC
  8
DETAIL
  6
CONTINUOUS
 62
     5
 10
181.45290131758469
 20
-249.0606898635815
 30
0.0
 40
110.0951785070007
 50
332.56699904554091
 51
0.6043377476033499
  0
ARC
  8
DETAIL
  6
CONTINUOUS
 62
     5
 10
237.22236533915611
 20
-275.03583153390719
 30
0.0
 40
47.090205585602753
 50
275.61665577093248
 51
329.43923004717698
  0
ARC
  8
DETAIL
  6
CONTINUOUS
 62
     5
 10
178.2559271210603
 20
-248.9947176511287
 30
0.0
 40
111.36305173449681
 50
333.33069959806181
 51
0.5635129416530448
  0
ARC
  8
DETAIL
  6
CONTINUOUS
 62
     5
 10
-239.63626349558351
 20
-275.61339667483838
 30
0.0
 40
46.334738247475073
 50
211.44132036321599
 51
267.38695004818231
  0
ARC
  8
DETAIL
  6
CONTINUOUS
 62
     5
 10
-178.80132842803229
 20
-248.42829516713749
 30
0.0
 40
112.7418675016673
 50
179.7312444507472
 51
207.09741875410759
  0
ARC
  8
DETAIL
  6
CONTINUOUS
 62
     5
 10
-237.49803519754369
 20
-275.17598304059169
 30
0.0
 40
46.78157267749738
 50
210.58463026601859
 51
267.15650363007268
  0
ARC
  8
DETAIL
  6
CONTINUOUS
 62
     5
 10
-175.4332256294465
 20
-248.3403003559288
 30
0.0
 40
114.1812181898255
 50
179.77878828705181
 51
206.32699917129921
  0
ARC
  8
DETAIL
  6
CONTINUOUS
 62
     5
 10
-218.29879917105379
 20
-249.36041443000519
 30
0.0
 40
52.184137046433101
 50
178.39573222137531
 51
245.64336174639089
  0
ARC
  8
DETAIL
  6
CONTINUOUS
 62
     5
 10
218.38129865406111
 20
-249.36041443000789
 30
0.0
 40
52.18413704642888
 50
294.35663825360911
 51
1.604267778676759
  0
ARC
  8
DETAIL
  6
CONTINUOUS
 62
     5
 10
77.232100642671412
 20
-318.91453547567471
 30
0.0
 40
3.0881806512569732
 50
179.72951365726021
 51
255.17792544845531
  0
ARC
  8
DETAIL
  6
CONTINUOUS
 62
     5
 10
78.165739284263964
 20
-318.79445888513601
 30
0.0
 40
3.2466096083136091
 50
181.86213904848341
 51
253.04530005719971
  0
ARC
  8
DETAIL
  6
CONTINUOUS
 62
     5
 10
-77.232100642670048
 20
-318.91453547567471
 30
0.0
 40
3.0881806512569732
 50
284.82207455154469
 51
0.2704863427397747
  0
ARC
  8
DETAIL
  6
CONTINUOUS
 62
     5
 10
-78.04040594872049
 20
-318.97512284137059
 30
0.0
 40
3.0379923023658701
 50
285.68719515057148
 51
1.4177611502506009
  0
ARC
  8
DETAIL
  6
CONTINUOUS
 62
     5
 10
-77.742182801628132
 20
-299.6177929697842
 30
0.0
 40
2.7533354483688122
 50
354.11796400412379
 51
80.789475101383275
  0
ARC
  8
DETAIL
  6
CONTINUOUS
 62
     5
 10
77.829182211764419
 20
-299.76328281904352
 30
0.0
 40
2.9115476604787638
 50
100.44232102866491
 51
182.69056563146631
  0
ARC
  8
DETAIL
  6
CONTINUOUS
 62
     5
 10
-99.758059528696322
 20
-295.6468745081047
 30
0.0
 40
5.4759774245160129
 50
106.6305496256673
 51
187.90463595671861
  0
ARC
  8
DETAIL
  6
CONTINUOUS
 62
     5
 10
-100.5416699711318
 20
-296.02341555819288
 30
0.0
 40
2.7379887124529589
 50
106.63054962917541
 51
187.90463595319409
  0
ARC
  8
DETAIL
  6
CONTINUOUS
 62
     5
 10
99.758059528695412
 20
-295.6468745081047
 30
0.0
 40
5.4759774245160129
 50
352.09536404328139
 51
73.369450374332715
  0
ARC
  8
DETAIL
  6
CONTINUOUS
 62
     5
 10
100.5416699711309
 20
-296.02341555819288
 30
0.0
 40
2.7379887124529589
 50
352.09536404680603
 51
73.369450370824637
  0
ARC
  8
DETAIL
  6
CONTINUOUS
 62
     5
 10
95.69233564483784
 20
-301.8089635401584
 30
0.0
 40
22.936803368208238
 50
273.78466508547638
 51
298.84498022842962
  0
ARC
  8
DETAIL
  6
CONTINUOUS
 62
     5
 10
-277.54063486555827
 20
-148.3102214017199
 30
0.0
 40
7.0849480677583792
 50
2.5095542423970638
 51
62.955260188752327
  0
ARC
  8
DETAIL
  6
CONTINUOUS
 62
     5
 10
-296.41233541784783
 20
-2.8344583887555932
 30
0.0
 40
1.3669399490802361
 50
353.04419018000118
 51
77.484589196728649
  0
ARC
  8
DETAIL
  6
CONTINUOUS
 62
     5
 10
-296.70725063526152
 20
-2.6679949390618281
 30
0.0
 40
2.73269766574293
 50
353.02169424959487
 51
77.507085127108169
  0
ARC
  8
DETAIL
  6
CONTINUOUS
 62
     5
 10
296.41233541784823
 20
-2.8344583887555932
 30
0.0
 40
1.3669399490802361
 50
102.51541080327139
 51
186.95580981999879
  0
ARC
  8
DETAIL
  6
CONTINUOUS
 62
     5
 10
296.70725063526152
 20
-2.6679949390618281
 30
0.0
 40
2.73269766574293
 50
102.4929148728918
 51
186.9783057504051
  0
ARC
  8
DETAIL
  6
CONTINUOUS
 62
     5
 10
-350.30142271512841
 20
-2.8344583887555932
 30
0.0
 40
1.366939949357723
 50
353.04419018141829
 51
77.48458914433786
  0
ARC
  8
DETAIL
  6
CONTINUOUS
 62
     5
 10
350.30142271512841
 20
-2.8344583887555932
 30
0.0
 40
1.366939949357723
 50
102.5154108556622
 51
186.9558098185816
  0
LINE
  8
SIZE
  6
CONTINUOUS
 62
    30
 10
-370.00520381999979
 20
-0.0000000000009127
 30
0.0
 11
-558.32170324173228
 21
-0.000000000000943
 31
0.0
  0
LINE
  8
SIZE
  6
CONTINUOUS
 62
    30
 10
-94.500000000000028
 20
-357.9999566079988
 30
0.0
 11
-558.32170324173217
 21
-357.99995660799891
 31
0.0
  0
LINE
  8
SIZE
  6
CONTINUOUS
 62
    30
 10
-538.32170324173228
 20
-12.00000000000094
 30
0.0
 11
-538.32170324173217
 21
-345.99995660799891
 31
0.0
  0
CIRCLE
  8
SIZE
  6
CONTINUOUS
 62
    30
 10
-538.32170324173228
 20
-0.0000000000009398
 30
0.0
 40
6.0
  0
LINE
  8
SIZE
  6
CONTINUOUS
 62
    30
 10
-538.32170324173228
 20
-0.0000000000009398
 30
0.0
 11
-538.32170324173228
 21
-12.00000000000094
 31
0.0
  0
CIRCLE
  8
SIZE
  6
CONTINUOUS
 62
    30
 10
-538.32170324173217
 20
-357.99995660799891
 30
0.0
 40
6.0
  0
LINE
  8
SIZE
  6
CONTINUOUS
 62
    30
 10
-538.32170324173217
 20
-357.99995660799891
 30
0.0
 11
-538.32170324173217
 21
-345.99995660799891
 31
0.0
  0
TEXT
  8
SIZE
  6
CONTINUOUS
 62
    30
 10
-563.32170324173217
 20
-259.35197830399966
 30
0.0
 40
64.0
  1
358
 50
90.0
 41
0.9
 51
0.0
  7
STANDARD
 71
     0
 72
     1
 11
-563.32170324173217
 21
-178.99997830399971
 31
0.0
210
0.0
220
0.0
230
1.0
  0
POINT
  8
DEFPOINTS
  6
CONTINUOUS
 62
    30
 10
-350.00520381999979
 20
-0.0000000000009095
 30
0.0
  0
POINT
  8
DEFPOINTS
  6
CONTINUOUS
 62
    30
 10
-74.500000000000028
 20
-357.9999566079988
 30
0.0
  0
POINT
  8
DEFPOINTS
  6
CONTINUOUS
 62
    30
 10
-538.32170324173217
 20
-357.99995660799891
 30
0.0
  0
CIRCLE
  8
FIX
  6
CONTINUOUS
 62
    11
 10
-325.0
 20
-0.0000000000009095
 30
0.0
 40
7.5
  0
CIRCLE
  8
FIX
  6
CONTINUOUS
 62
    11
 10
325.0
 20
-0.0000000000009095
 30
0.0
 40
7.5
  0
LINE
  8
BASIS
  6
DASHDOT
 62
     6
 10
345.0
 20
-0.0000000000009095
 30
0.0
 11
305.0
 21
-0.0000000000009095
 31
0.0
  0
LINE
  8
BASIS
  6
DASHDOT
 62
     6
 10
325.0
 20
-20.000000000000909
 30
0.0
 11
325.0
 21
19.999999999999091
 31
0.0
  0
LINE
  8
BASIS
  6
DASHDOT
 62
     6
 10
-305.0
 20
-0.0000000000009095
 30
0.0
 11
-345.0
 21
-0.0000000000009095
 31
0.0
  0
LINE
  8
BASIS
  6
DASHDOT
 62
     6
 10
-325.0
 20
-20.000000000000909
 30
0.0
 11
-325.0
 21
19.999999999999091
 31
0.0
  0
LINE
  8
SIZE
  6
CONTINUOUS
 62
    30
 10
-355.0
 20
-112.0
 30
0.0
 11
-355.0
 21
230.61925908577811
 31
0.0
  0
LINE
  8
SIZE
  6
CONTINUOUS
 62
    30
 10
355.00000000000051
 20
-112.0
 30
0.0
 11
355.00000000000051
 21
230.61925908577811
 31
0.0
  0
LINE
  8
SIZE
  6
CONTINUOUS
 62
    30
 10
-343.0
 20
210.61925908577811
 30
0.0
 11
343.00000000000051
 21
210.61925908577811
 31
0.0
  0
CIRCLE
  8
SIZE
  6
CONTINUOUS
 62
    30
 10
-355.0
 20
210.61925908577811
 30
0.0
 40
6.0
  0
LINE
  8
SIZE
  6
CONTINUOUS
 62
    30
 10
-355.0
 20
210.61925908577811
 30
0.0
 11
-343.0
 21
210.61925908577811
 31
0.0
  0
CIRCLE
  8
SIZE
  6
CONTINUOUS
 62
    30
 10
355.00000000000051
 20
210.61925908577811
 30
0.0
 40
6.0
  0
LINE
  8
SIZE
  6
CONTINUOUS
 62
    30
 10
355.00000000000051
 20
210.61925908577811
 30
0.0
 11
343.00000000000051
 21
210.61925908577811
 31
0.0
  0
TEXT
  8
SIZE
  6
CONTINUOUS
 62
    30
 10
-75.167999999999779
 20
235.61925908577808
 30
0.0
 40
64.0
  1
710
 50
0.0
 41
0.9
 51
0.0
  7
STANDARD
 71
     0
 72
     1
 11
0.0000000000002274
 21
235.61925908577808
 31
0.0
210
0.0
220
0.0
230
1.0
  0
POINT
  8
DEFPOINTS
  6
CONTINUOUS
 62
    30
 10
-355.0
 20
-132.0
 30
0.0
  0
POINT
  8
DEFPOINTS
  6
CONTINUOUS
 62
    30
 10
355.00000000000051
 20
-132.0
 30
0.0
  0
POINT
  8
DEFPOINTS
  6
CONTINUOUS
 62
    30
 10
355.00000000000051
 20
210.61925908577811
 30
0.0
  0
LINE
  8
SIZE
  6
CONTINUOUS
 62
    30
 10
-325.0
 20
39.999999999999091
 30
0.0
 11
-325.0
 21
115.1937910425613
 31
0.0
  0
LINE
  8
SIZE
  6
CONTINUOUS
 62
    30
 10
325.0
 20
39.999999999999091
 30
0.0
 11
325.0
 21
115.1937910425613
 31
0.0
  0
LINE
  8
SIZE
  6
CONTINUOUS
 62
    30
 10
-313.0
 20
95.193791042561315
 30
0.0
 11
313.0
 21
95.193791042561315
 31
0.0
  0
CIRCLE
  8
SIZE
  6
CONTINUOUS
 62
    30
 10
-325.0
 20
95.193791042561315
 30
0.0
 40
6.0
  0
LINE
  8
SIZE
  6
CONTINUOUS
 62
    30
 10
-325.0
 20
95.193791042561315
 30
0.0
 11
-313.0
 21
95.193791042561315
 31
0.0
  0
CIRCLE
  8
SIZE
  6
CONTINUOUS
 62
    30
 10
325.0
 20
95.193791042561315
 30
0.0
 40
6.0
  0
LINE
  8
SIZE
  6
CONTINUOUS
 62
    30
 10
325.0
 20
95.193791042561315
 30
0.0
 11
313.0
 21
95.193791042561315
 31
0.0
  0
TEXT
  8
SIZE
  6
CONTINUOUS
 62
    30
 10
-80.927999999999997
 20
120.19379104256129
 30
0.0
 40
64.0
  1
650
 50
0.0
 41
0.9
 51
0.0
  7
STANDARD
 71
     0
 72
     1
 11
0.0
 21
120.19379104256129
 31
0.0
210
0.0
220
0.0
230
1.0
  0
POINT
  8
DEFPOINTS
  6
CONTINUOUS
 62
    30
 10
-325.0
 20
19.999999999999091
 30
0.0
  0
POINT
  8
DEFPOINTS
  6
CONTINUOUS
 62
    30
 10
325.0
 20
19.999999999999091
 30
0.0
  0
POINT
  8
DEFPOINTS
  6
CONTINUOUS
 62
    30
 10
325.0
 20
95.193791042561315
 30
0.0
  0
LINE
  8
SIZE
  6
CONTINUOUS
 62
    30
 10
352.49999999800639
 20
-245.0
 30
0.0
 11
352.49999999800639
 21
-645.45004792348846
 31
0.0
  0
LINE
  8
SIZE
  6
CONTINUOUS
 62
    30
 10
-352.39999999980961
 20
-245.0
 30
0.0
 11
-352.39999999980961
 21
-645.45004792348846
 31
0.0
  0
LINE
  8
SIZE
  6
CONTINUOUS
 62
    30
 10
340.49999999800639
 20
-625.45004792348846
 30
0.0
 11
-340.39999999980961
 21
-625.45004792348846
 31
0.0
  0
CIRCLE
  8
SIZE
  6
CONTINUOUS
 62
    30
 10
352.49999999800639
 20
-625.45004792348846
 30
0.0
 40
6.0
  0
LINE
  8
SIZE
  6
CONTINUOUS
 62
    30
 10
352.49999999800639
 20
-625.45004792348846
 30
0.0
 11
340.49999999800639
 21
-625.45004792348846
 31
0.0
  0
CIRCLE
  8
SIZE
  6
CONTINUOUS
 62
    30
 10
-352.39999999980961
 20
-625.45004792348846
 30
0.0
 40
6.0
  0
LINE
  8
SIZE
  6
CONTINUOUS
 62
    30
 10
-352.39999999980961
 20
-625.45004792348846
 30
0.0
 11
-340.39999999980961
 21
-625.45004792348846
 31
0.0
  0
TEXT
  8
SIZE
  6
CONTINUOUS
 62
    30
 10
-115.43800000090158
 20
-600.45004792348846
 30
0.0
 40
64.0
  1
φ705
 50
0.0
 41
0.9
 51
0.0
  7
STANDARD
 71
     0
 72
     1
 11
0.0499999990984179
 21
-600.45004792348846
 31
0.0
210
0.0
220
0.0
230
1.0
  0
POINT
  8
DEFPOINTS
  6
CONTINUOUS
 62
    30
 10
352.49999999800639
 20
-225.0
 30
0.0
  0
POINT
  8
DEFPOINTS
  6
CONTINUOUS
 62
    30
 10
-352.39999999980961
 20
-225.0
 30
0.0
  0
POINT
  8
DEFPOINTS
  6
CONTINUOUS
 62
    30
 10
-352.39999999980961
 20
-625.45004792348846
 30
0.0
  0
POINT
  8
ARRANGE
  6
CONTINUOUS
 62
     1
 10
0.0
 20
0.0
 30
0.0
 50
90.0
  0
LINE
  8
SIZE
  6
CONTINUOUS
 62
    30
 10
-375.00000000000011
 20
-132.00000000000011
 30
0.0
 11
-435.79316834125672
 21
-132.00000000000011
 31
0.0
  0
LINE
  8
SIZE
  6
CONTINUOUS
 62
    30
 10
-370.00520381999979
 20
-0.0000000000009127
 30
0.0
 11
-435.79316834125677
 21
-0.0000000000009233
 31
0.0
  0
LINE
  8
SIZE
  6
CONTINUOUS
 62
    30
 10
-415.79316834125677
 20
-120.0000000000001
 30
0.0
 11
-415.79316834125677
 21
-12.00000000000092
 31
0.0
  0
LINE
  8
SIZE
  6
CONTINUOUS
 62
    30
 10
-415.79316834125677
 20
-0.0000000000009201
 30
0.0
 11
-415.79316834125677
 21
199.14285714285629
 31
0.0
  0
CIRCLE
  8
SIZE
  6
CONTINUOUS
 62
    30
 10
-415.79316834125672
 20
-132.00000000000011
 30
0.0
 40
6.0
  0
LINE
  8
SIZE
  6
CONTINUOUS
 62
    30
 10
-415.79316834125672
 20
-132.00000000000011
 30
0.0
 11
-415.79316834125672
 21
-120.00000000000011
 31
0.0
  0
CIRCLE
  8
SIZE
  6
CONTINUOUS
 62
    30
 10
-415.79316834125677
 20
-0.0000000000009201
 30
0.0
 40
6.0
  0
LINE
  8
SIZE
  6
CONTINUOUS
 62
    30
 10
-415.79316834125677
 20
-0.0000000000009201
 30
0.0
 11
-415.79316834125677
 21
-12.00000000000092
 31
0.0
  0
TEXT
  8
SIZE
  6
CONTINUOUS
 62
    30
 10
-440.79316834125672
 20
30.979428571427761
 30
0.0
 40
64.0
  1
132
 50
90.0
 41
0.9
 51
0.0
  7
STANDARD
 71
     0
 72
     1
 11
-440.79316834125672
 21
105.57142857142775
 31
0.0
210
0.0
220
0.0
230
1.0
  0
POINT
  8
DEFPOINTS
  6
CONTINUOUS
 62
    30
 10
-355.00000000000011
 20
-132.00000000000011
 30
0.0
  0
POINT
  8
DEFPOINTS
  6
CONTINUOUS
 62
    30
 10
-350.00520381999979
 20
-0.0000000000009095
 30
0.0
  0
POINT
  8
DEFPOINTS
  6
CONTINUOUS
 62
    30
 10
-415.79316834125677
 20
-0.0000000000009201
 30
0.0
  0
LINE
  8
SIZE
  6
CONTINUOUS
 62
    30
 10
-82.0
 20
-370.49995660799868
 30
0.0
 11
-82.000000000000014
 21
-504.81667092621501
 31
0.0
  0
LINE
  8
SIZE
  6
CONTINUOUS
 62
    30
 10
82.0
 20
-370.49995660799868
 30
0.0
 11
81.999999999999986
 21
-504.81667092621501
 31
0.0
  0
LINE
  8
SIZE
  6
CONTINUOUS
 62
    30
 10
-70.000000000000014
 20
-484.81667092621501
 30
0.0
 11
69.999999999999986
 21
-484.81667092621501
 31
0.0
  0
LINE
  8
SIZE
  6
CONTINUOUS
 62
    30
 10
81.999999999999986
 20
-484.81667092621501
 30
0.0
 11
336.0
 21
-484.81667092621501
 31
0.0
  0
CIRCLE
  8
SIZE
  6
CONTINUOUS
 62
    30
 10
-82.000000000000014
 20
-484.81667092621501
 30
0.0
 40
6.0
  0
LINE
  8
SIZE
  6
CONTINUOUS
 62
    30
 10
-82.000000000000014
 20
-484.81667092621501
 30
0.0
 11
-70.000000000000014
 21
-484.81667092621501
 31
0.0
  0
CIRCLE
  8
SIZE
  6
CONTINUOUS
 62
    30
 10
81.999999999999986
 20
-484.81667092621501
 30
0.0
 40
6.0
  0
LINE
  8
SIZE
  6
CONTINUOUS
 62
    30
 10
81.999999999999986
 20
-484.81667092621501
 30
0.0
 11
69.999999999999986
 21
-484.81667092621501
 31
0.0
  0
TEXT
  8
SIZE
  6
CONTINUOUS
 62
    30
 10
105.27200000000001
 20
-459.81667092621501
 30
0.0
 40
64.0
  1
φ164
 50
0.0
 41
0.9
 51
0.0
  7
STANDARD
 71
     0
 72
     1
 11
215.0
 21
-459.81667092621501
 31
0.0
210
0.0
220
0.0
230
1.0
  0
POINT
  8
DEFPOINTS
  6
CONTINUOUS
 62
    30
 10
-82.0
 20
-350.49995660799868
 30
0.0
  0
POINT
  8
DEFPOINTS
  6
CONTINUOUS
 62
    30
 10
82.0
 20
-350.49995660799868
 30
0.0
  0
POINT
  8
DEFPOINTS
  6
CONTINUOUS
 62
    30
 10
81.999999999999986
 20
-484.81667092621501
 30
0.0
  0
LINE
  8
DETAIL
  6
CONTINUOUS
 62
     5
 10
-270.46248173039982
 20
-225.0
 30
0.0
 11
270.46248173040021
 21
-225.0
 31
0.0
  0
LINE
  8
DETAIL
  6
CONTINUOUS
 62
     5
 10
-270.46248173039982
 20
-223.800000000002
 30
0.0
 11
270.46248173040021
 21
-223.80000000000109
 31
0.0
  0
LINE
  8
DETAIL
  6
CONTINUOUS
 62
     5
 10
289.61359280840003
 20
-147.5000000000073
 30
0.0
 11
289.61359280840003
 21
-247.89946229900491
 31
0.0
  0
LINE
  8
DETAIL
  6
CONTINUOUS
 62
     5
 10
291.54195563740001
 20
-147.5000000000073
 30
0.0
 11
291.54195563740001
 21
-247.89946229900491
 31
0.0
  0
LINE
  8
SIZE
  6
CONTINUOUS
 62
    30
 10
-375.00000000000011
 20
-132.00000000000011
 30
0.0
 11
-435.79316834125501
 21
-132.00000000000011
 31
0.0
  0
LINE
  8
SIZE
  6
CONTINUOUS
 62
    30
 10
-372.39999999980972
 20
-225.00000000000011
 30
0.0
 11
-435.79316834125501
 21
-225.00000000000011
 31
0.0
  0
LINE
  8
SIZE
  6
CONTINUOUS
 62
    30
 10
-415.79316834125501
 20
-120.0000000000001
 30
0.0
 11
-415.79316834125501
 21
-108.0000000000001
 31
0.0
  0
LINE
  8
SIZE
  6
CONTINUOUS
 62
    30
 10
-415.79316834125501
 20
-237.00000000000011
 30
0.0
 11
-415.79316834125501
 21
-249.00000000000011
 31
0.0
  0
LINE
  8
SIZE
  6
CONTINUOUS
 62
    30
 10
-415.79316834125501
 20
-132.00000000000011
 30
0.0
 11
-415.79316834125501
 21
-225.00000000000011
 31
0.0
  0
CIRCLE
  8
SIZE
  6
CONTINUOUS
 62
    30
 10
-415.79316834125501
 20
-132.00000000000011
 30
0.0
 40
6.0
  0
LINE
  8
SIZE
  6
CONTINUOUS
 62
    30
 10
-415.79316834125501
 20
-132.00000000000011
 30
0.0
 11
-415.79316834125501
 21
-120.00000000000011
 31
0.0
  0
CIRCLE
  8
SIZE
  6
CONTINUOUS
 62
    30
 10
-415.79316834125501
 20
-225.00000000000011
 30
0.0
 40
6.0
  0
LINE
  8
SIZE
  6
CONTINUOUS
 62
    30
 10
-415.79316834125501
 20
-225.00000000000011
 30
0.0
 11
-415.79316834125501
 21
-237.00000000000011
 31
0.0
  0
TEXT
  8
SIZE
  6
CONTINUOUS
 62
    30
 10
-440.7931683412549
 20
-232.06799999999993
 30
0.0
 40
64.0
  1
93
 50
90.0
 41
0.9
 51
0.0
  7
STANDARD
 71
     0
 72
     1
 11
-440.7931683412549
 21
-178.49999999999994
 31
0.0
210
0.0
220
0.0
230
1.0
  0
POINT
  8
DEFPOINTS
  6
CONTINUOUS
 62
    30
 10
-355.00000000000011
 20
-132.00000000000011
 30
0.0
  0
POINT
  8
DEFPOINTS
  6
CONTINUOUS
 62
    30
 10
-352.39999999980972
 20
-225.00000000000011
 30
0.0
  0
POINT
  8
DEFPOINTS
  6
CONTINUOUS
 62
    30
 10
-415.79316834125501
 20
-225.00000000000011
 30
0.0
  0
LINE
  8
DETAIL
  6
CONTINUOUS
 62
     5
 10
-352.39999999980961
 20
-225.0
 30
0.0
 11
-352.39999999980961
 21
-223.80000000000109
 31
0.0
  0
LINE
  8
DETAIL
  6
CONTINUOUS
 62
     5
 10
352.49999999800639
 20
-225.0
 30
0.0
 11
291.54195563740001
 21
-225.0
 31
0.0
  0
LINE
  8
DETAIL
  6
CONTINUOUS
 62
     5
 10
-291.54195563740001
 20
-225.0
 30
0.0
 11
-352.39999999980961
 21
-225.0
 31
0.0
  0
LINE
  8
DETAIL
  6
CONTINUOUS
 62
     5
 10
352.39999999979409
 20
-223.80000000000109
 30
0.0
 11
291.54195563740001
 21
-223.80000000000291
 31
0.0
  0
LINE
  8
DETAIL
  6
CONTINUOUS
 62
     5
 10
-291.54195563740001
 20
-223.80000000000109
 30
0.0
 11
-352.39999999980961
 21
-223.80000000000109
 31
0.0
  0
LINE
  8
DETAIL
  6
CONTINUOUS
 62
     5
 10
352.39999999780679
 20
-223.80000000000109
 30
0.0
 11
352.49999999800639
 21
-223.80000000000109
 31
0.0
  0
LINE
  8
DETAIL
  6
CONTINUOUS
 62
     5
 10
352.49999999800639
 20
-225.0
 30
0.0
 11
352.49999999800639
 21
-223.80000000000109
 31
0.0
  0
ARC
  8
DETAIL
  6
CONTINUOUS
 62
     5
 10
352.41466297294119
 20
-189.6852336988286
 30
0.0
 40
34.11476945234125
 50
179.8568497933604
 51
269.97537352550989
  0
LINE
  8
OUTLINE
  6
CONTINUOUS
 62
     3
 10
-350.00520382000008
 20
-0.000000000001819
 30
0.0
 11
-350.00520382000008
 21
-1.500000000001819
 31
0.0
  0
ARC
  8
OUTLINE
  6
CONTINUOUS
 62
     3
 10
-350.30142271512949
 20
-2.834458388759181
 30
0.0
 40
1.3669399493600953
 50
62.296489694732088
 51
77.484589144314441
  0
ARC
  8
OUTLINE
  6
CONTINUOUS
 62
     3
 10
-347.0
 20
-3.0000000000016334
 30
0.0
 40
2.9999999999999765
 50
152.70356911105148
 51
180.0
  0
LINE
  8
OUTLINE
  6
CONTINUOUS
 62
     3
 10
-350.0
 20
-3.000000000001819
 30
0.0
 11
-350.0
 21
-132.0
 31
0.0
  0
LINE
  8
OUTLINE
  6
CONTINUOUS
 62
     3
 10
-350.0
 20
-132.0
 30
0.0
 11
-355.0
 21
-132.0
 31
0.0
  0
LINE
  8
OUTLINE
  6
CONTINUOUS
 62
     3
 10
-355.0
 20
-132.0
 30
0.0
 11
-355.0
 21
-137.0
 31
0.0
  0
ARC
  8
OUTLINE
  6
CONTINUOUS
 62
     3
 10
-350.0
 20
-137.0
 30
0.0
 40
4.9999999999999991
 50
180.0
 51
270.0
  0
LINE
  8
OUTLINE
  6
CONTINUOUS
 62
     3
 10
-350.0
 20
-142.0
 30
0.0
 11
-333.29999999639949
 21
-142.0
 31
0.0
  0
ARC
  8
OUTLINE
  6
CONTINUOUS
 62
     3
 10
-333.29999999639898
 20
-156.99999999999952
 30
0.0
 40
14.999999999999512
 50
0.0
 51
90.0
  0
LINE
  8
OUTLINE
  6
CONTINUOUS
 62
     3
 10
-318.29999999639949
 20
-157.0
 30
0.0
 11
-318.29999999639949
 21
-189.77046739752041
 31
0.0
  0
ARC
  8
OUTLINE
  6
CONTINUOUS
 62
     3
 10
-352.41466297294079
 20
-189.68523369882826
 30
0.0
 40
34.114769452341172
 50
269.85667624712482
 51
359.85684979361054
  0
LINE
  8
OUTLINE
  6
CONTINUOUS
 62
     3
 10
-352.50000000349968
 20
-223.79989641704381
 30
0.0
 11
-352.50000000349968
 21
-225.0
 31
0.0
  0
LINE
  8
OUTLINE
  6
CONTINUOUS
 62
     3
 10
-352.50000000349968
 20
-225.0
 30
0.0
 11
-291.54195563740001
 21
-225.0
 31
0.0
  0
LINE
  8
OUTLINE
  6
CONTINUOUS
 62
     3
 10
-291.54195563740001
 20
-225.0
 30
0.0
 11
-291.54195563740001
 21
-247.89946229883211
 31
0.0
  0
ARC
  8
OUTLINE
  6
CONTINUOUS
 62
     3
 10
-181.45290131772742
 20
-249.06068986361436
 30
0.0
 40
110.09517850685847
 50
179.39566225228282
 51
207.43300095449649
  0
ARC
  8
OUTLINE
  6
CONTINUOUS
 62
     3
 10
-239.81086447361443
 20
-275.91617926271618
 30
0.0
 40
46.028137966857457
 50
211.23312697693291
 51
267.48429551094569
  0
LINE
  8
OUTLINE
  6
CONTINUOUS
 62
     3
 10
-241.83118765438209
 20
-321.89995660800741
 30
0.0
 11
-106.7580008439836
 21
-321.8999566080056
 31
0.0
  0
ARC
  8
OUTLINE
  6
CONTINUOUS
 62
     3
 10
-95.692335644838934
 20
-301.808963540158
 30
0.0
 40
22.936803368208498
 50
241.15501977164308
 51
266.21533491453818
  0
LINE
  8
OUTLINE
  6
CONTINUOUS
 62
     3
 10
-97.206321593999746
 20
-324.69574564899989
 30
0.0
 11
-94.200000000000728
 21
-324.69574564899989
 31
0.0
  0
LINE
  8
OUTLINE
  6
CONTINUOUS
 62
     3
 10
-94.200000000000728
 20
-324.69574564899989
 30
0.0
 11
-94.200000000000728
 21
-327.49995660800232
 31
0.0
  0
LINE
  8
OUTLINE
  6
CONTINUOUS
 62
     3
 10
-94.200000000000728
 20
-327.49995660800232
 30
0.0
 11
-85.200000000000728
 21
-327.49995660800232
 31
0.0
  0
ARC
  8
OUTLINE
  6
CONTINUOUS
 62
     3
 10
-85.200000000000713
 20
-328.49995660800232
 30
0.0
 40
0.9999999999999804
 50
0.0
 51
90.0
  0
ARC
  8
OUTLINE
  6
CONTINUOUS
 62
     3
 10
-83.200000000000742
 20
-328.49995660800232
 30
0.0
 40
0.9999999999999804
 50
180.0
 51
270.0
  0
LINE
  8
OUTLINE
  6
CONTINUOUS
 62
     3
 10
-83.200000000000728
 20
-329.49995660800232
 30
0.0
 11
-82.0
 21
-329.49995660799868
 31
0.0
  0
LINE
  8
OUTLINE
  6
CONTINUOUS
 62
     3
 10
-82.0
 20
-329.49995660799868
 30
0.0
 11
-82.0
 21
-350.49995660799868
 31
0.0
  0
ARC
  8
OUTLINE
  6
CONTINUOUS
 62
     3
 10
-74.499999999999957
 20
-350.49995660799863
 30
0.0
 40
7.500000000000048
 50
180.0
 51
270.0
  0
LINE
  8
OUTLINE
  6
CONTINUOUS
 62
     3
 10
-74.5
 20
-357.99995660799868
 30
0.0
 11
74.5
 21
-357.99995660799868
 31
0.0
  0
ARC
  8
OUTLINE
  6
CONTINUOUS
 62
     3
 10
74.499999999999957
 20
-350.49995660799863
 30
0.0
 40
7.500000000000048
 50
270.0
 51
0.0
  0
LINE
  8
OUTLINE
  6
CONTINUOUS
 62
     3
 10
82.0
 20
-350.49995660799868
 30
0.0
 11
82.0
 21
-321.89995660800378
 31
0.0
  0
LINE
  8
OUTLINE
  6
CONTINUOUS
 62
     3
 10
82.0
 20
-321.89995660800378
 30
0.0
 11
241.74868817237979
 21
-321.89995660800918
 31
0.0
  0
ARC
  8
OUTLINE
  6
CONTINUOUS
 62
     3
 10
239.63626349558186
 20
-275.6133966748389
 30
0.0
 40
46.334738247475954
 50
272.61304995178216
 51
328.55867963674814
  0
ARC
  8
OUTLINE
  6
CONTINUOUS
 62
     3
 10
178.80132842766088
 20
-248.42829516704182
 30
0.0
 40
112.74186750203816
 50
332.90258124594266
 51
0.2687555489297893
  0
LINE
  8
OUTLINE
  6
CONTINUOUS
 62
     3
 10
291.54195563740001
 20
-247.89946229953421
 30
0.0
 11
291.54195563740001
 21
-225.0
 31
0.0
  0
LINE
  8
OUTLINE
  6
CONTINUOUS
 62
     3
 10
291.54195563740001
 20
-225.0
 30
0.0
 11
352.5
 21
-225.0
 31
0.0
  0
LINE
  8
OUTLINE
  6
CONTINUOUS
 62
     3
 10
352.5
 20
-225.0
 30
0.0
 11
352.5
 21
-223.79989641705291
 31
0.0
  0
ARC
  8
OUTLINE
  6
CONTINUOUS
 62
     3
 10
352.4146629729409
 20
-189.6852336988284
 30
0.0
 40
34.11476945234137
 50
179.85684979356267
 51
270.14332374699734
  0
LINE
  8
OUTLINE
  6
CONTINUOUS
 62
     3
 10
318.29999999639949
 20
-189.60000000010771
 30
0.0
 11
318.29999999639949
 21
-157.0
 31
0.0
  0
ARC
  8
OUTLINE
  6
CONTINUOUS
 62
     3
 10
333.29999999639961
 20
-157.00000000000009
 30
0.0
 40
15.000000000000096
 50
90.0
 51
180.0
  0
LINE
  8
OUTLINE
  6
CONTINUOUS
 62
     3
 10
333.29999999639949
 20
-142.0
 30
0.0
 11
350.0
 21
-142.0
 31
0.0
  0
ARC
  8
OUTLINE
  6
CONTINUOUS
 62
     3
 10
350.0
 20
-137.0
 30
0.0
 40
4.9999999999999991
 50
270.0
 51
0.0
  0
LINE
  8
OUTLINE
  6
CONTINUOUS
 62
     3
 10
355.0
 20
-137.0
 30
0.0
 11
355.0
 21
-132.0
 31
0.0
  0
LINE
  8
OUTLINE
  6
CONTINUOUS
 62
     3
 10
355.0
 20
-132.0
 30
0.0
 11
350.0
 21
-132.0
 31
0.0
  0
LINE
  8
OUTLINE
  6
CONTINUOUS
 62
     3
 10
350.0
 20
-132.0
 30
0.0
 11
350.0
 21
-3.000000000001819
 31
0.0
  0
ARC
  8
OUTLINE
  6
CONTINUOUS
 62
     3
 10
346.99999999999875
 20
-2.9999999999947256
 30
0.0
 40
3.0000000000012497
 50
0.0
 51
27.296430888826819
  0
ARC
  8
OUTLINE
  6
CONTINUOUS
 62
     3
 10
350.30142271512619
 20
-2.834458388751588
 30
0.0
 40
1.3669399493521508
 50
102.51541085565452
 51
117.70351030515474
  0
LINE
  8
OUTLINE
  6
CONTINUOUS
 62
     3
 10
350.00520381999922
 20
-1.500000000001819
 30
0.0
 11
350.00520381999922
 21
-0.000000000001819
 31
0.0
  0
LINE
  8
OUTLINE
  6
CONTINUOUS
 62
     3
 10
350.00520381999922
 20
-0.000000000001819
 30
0.0
 11
296.11611652399552
 21
-0.000000000001819
 31
0.0
  0
ARC
  8
OUTLINE
  6
CONTINUOUS
 62
     3
 10
296.70725063526129
 20
-2.6679949390627122
 30
0.0
 40
2.7326976657428728
 50
102.49291487298029
 51
186.97830575040859
  0
LINE
  8
OUTLINE
  6
CONTINUOUS
 62
     3
 10
293.99479617999992
 20
-3.000000000001819
 30
0.0
 11
292.25735931300011
 21
-3.000000000001819
 31
0.0
  0
LINE
  8
OUTLINE
  6
CONTINUOUS
 62
     3
 10
292.25735931300011
 20
-3.000000000001819
 30
0.0
 11
292.25735931300011
 21
-0.000000000001819
 31
0.0
  0
LINE
  8
OUTLINE
  6
CONTINUOUS
 62
     3
 10
292.25735931300011
 20
-0.000000000001819
 30
0.0
 11
0.5
 21
-0.000000000001819
 31
0.0
  0
LINE
  8
OUTLINE
  6
CONTINUOUS
 62
     3
 10
0.5
 20
-0.000000000001819
 30
0.0
 11
0.5
 21
-2.000000000001819
 31
0.0
  0
LINE
  8
OUTLINE
  6
CONTINUOUS
 62
     3
 10
0.5
 20
-2.000000000001819
 30
0.0
 11
-0.5
 21
-2.000000000001819
 31
0.0
  0
LINE
  8
OUTLINE
  6
CONTINUOUS
 62
     3
 10
-0.5
 20
-2.000000000001819
 30
0.0
 11
-0.5
 21
-0.000000000001819
 31
0.0
  0
LINE
  8
OUTLINE
  6
CONTINUOUS
 62
     3
 10
-0.5
 20
-0.000000000001819
 30
0.0
 11
-292.25735931300011
 21
-0.000000000001819
 31
0.0
  0
LINE
  8
OUTLINE
  6
CONTINUOUS
 62
     3
 10
-292.25735931300011
 20
-0.000000000001819
 30
0.0
 11
-292.25735931300011
 21
-3.000000000001819
 31
0.0
  0
LINE
  8
OUTLINE
  6
CONTINUOUS
 62
     3
 10
-292.25735931300011
 20
-3.000000000001819
 30
0.0
 11
-293.99479618000078
 21
-3.000000000001819
 31
0.0
  0
ARC
  8
OUTLINE
  6
CONTINUOUS
 62
     3
 10
-296.7072506352618
 20
-2.6679949390623015
 30
0.0
 40
2.732697665742581
 50
353.02169424958197
 51
77.507085127007372
  0
LINE
  8
OUTLINE
  6
CONTINUOUS
 62
     3
 10
-296.11611652399552
 20
-0.000000000001819
 30
0.0
 11
-350.00520382000008
 21
-0.000000000001819
 31
0.0
  0
LINE
  8
DETAIL
  6
CONTINUOUS
 62
     5
 10
-318.29999999639949
 20
-189.60000000000039
 30
0.0
 11
-318.29999999639949
 21
-157.0
 31
0.0
  0
ARC
  8
DETAIL
  6
CONTINUOUS
 62
     5
 10
-352.41466297294119
 20
-189.6852336988286
 30
0.0
 40
34.11476945234125
 50
270.02462647459441
 51
0.1431502066396174
  0
ARC
  8
DETAIL
  6
CONTINUOUS
 62
     5
 10
-333.29999999639949
 20
-157.0
 30
0.0
 40
15.0
 50
0.0
 51
90.0
  0
TEXT
  8
ETC
  6
CONTINUOUS
 62
    61
 10
456.5878359424155
 20
287.35541065149567
 30
0.0
 40
64.0
  1
EG-60FTXC2-Q_1
 41
0.9
  0
TEXT
  8
ETC
  6
CONTINUOUS
 62
    61
 10
452.4018419424151
 20
169.40010063666429
 30
0.0
 40
64.0
  1
有圧換気扇
 41
0.9
  0
TEXT
  8
ETC
  6
CONTINUOUS
 62
    61
 10
503.10324019097112
 20
61.251327750439501
 30
0.0
 40
40.0
  1
EG-60FTXC2-Q
 50
0.0
 41
0.9
 51
0.0
  7
STANDARD
 71
     0
 11
0.0
 21
0.0
 31
0.0
210
0.0
220
0.0
230
1.0
  0
TEXT
  8
ETC
  6
CONTINUOUS
 62
    61
 10
503.10324019097112
 20
-4.7486722495604994
 30
0.0
 40
40.0
  1
EG-60FTXC2-FQ
 50
0.0
 41
0.9
 51
0.0
  7
STANDARD
 71
     0
 11
0.0
 21
0.0
 31
0.0
210
0.0
220
0.0
230
1.0
  0
LINE
  8
DETAIL
  6
CONTINUOUS
 62
     5
 10
318.29999999639949
 20
-189.60000000000039
 30
0.0
 11
318.29999999639949
 21
-157.0
 31
0.0
  0
ARC
  8
DETAIL
  6
CONTINUOUS
 62
     5
 10
333.29999999639949
 20
-157.0
 30
0.0
 40
15.0
 50
90.000000000000014
 51
180.0
  0
TEXT
  8
NOTE
  6
CONTINUOUS
 62
     4
 10
455.2178951056776
 20
-140.07577730340972
 30
0.0
 40
64.0
  1
4-φ15
 50
0.0
 41
0.9
 51
0.0
  7
STANDARD
 71
     0
 11
0.0
 21
0.0
 31
0.0
210
0.0
220
0.0
230
1.0
  0
LINE
  8
NOTE
  6
CONTINUOUS
 62
     4
 10
455.12789510567751
 20
-152.8757773034099
 30
0.0
 11
724.01789510567733
 21
-152.8757773034099
 31
0.0
  0
LINE
  8
NOTE
  6
CONTINUOUS
 62
     4
 10
336.01279499504847
 20
-29.040244982559773
 30
0.0
 11
325.0
 21
-0.0000000000009095
 31
0.0
  0
LINE
  8
NOTE
  6
CONTINUOUS
 62
     4
 10
325.0
 20
-0.0000000000009095
 30
0.0
 11
349.05751232481992
 21
-19.643156136201032
 31
0.0
  0
LINE
  8
NOTE
  6
CONTINUOUS
 62
     4
 10
325.0
 20
-0.0000000000009095
 30
0.0
 11
360.07030731986839
 21
-48.683401118759896
 31
0.0
  0
LINE
  8
NOTE
  6
CONTINUOUS
 62
     4
 10
360.07030731986839
 20
-48.683401118759917
 30
0.0
 11
435.12789510567751
 21
-152.8757773034099
 31
0.0
  0
LINE
  8
NOTE
  6
CONTINUOUS
 62
     4
 10
435.12789510567751
 20
-152.8757773034099
 30
0.0
 11
455.12789510567751
 21
-152.8757773034099
 31
0.0
  0
ENDSEC
  0
EOF
