  0
SECTION
  2
HEADER
  9
$ACADVER
  1
AC1009
  9
$DWGCODEPAGE
  3
dos932
  9
$INSBASE
 10
0.0
 20
0.0
 30
0.0
  9
$EXTMIN
 10
-635.36680474105196
 20
-490.9057500666313
 30
-0.0000000000000058
  9
$EXTMAX
 10
1214.0853999695789
 20
639.26697585180773
 30
0.0000000000000104
  9
$LIMMIN
 10
-2970.0
 20
-2100.0
  9
$LIMMAX
 10
2970.0
 20
2100.0
  9
$ORTHOMODE
 70
     1
  9
$REGENMODE
 70
     1
  9
$FILLMODE
 70
     1
  9
$QTEXTMODE
 70
     0
  9
$MIRRTEXT
 70
     0
  9
$LTSCALE
 40
20.0
  9
$ATTMODE
 70
     1
  9
$TEXTSIZE
 40
64.0
  9
$TRACEWID
 40
0.05
  9
$TEXTSTYLE
  7
STANDARD
  9
$CLAYER
  8
SIZE
  9
$CELTYPE
  6
CONTINUOUS
  9
$CECOLOR
 62
     7
  9
$DIMSCALE
 40
1.0
  9
$DIMASZ
 40
12.0
  9
$DIMEXO
 40
20.0
  9
$DIMDLI
 40
200.0
  9
$DIMRND
 40
0.0
  9
$DIMDLE
 40
0.0
  9
$DIMEXE
 40
20.0
  9
$DIMTP
 40
0.0
  9
$DIMTM
 40
0.0
  9
$DIMTXT
 40
64.0
  9
$DIMCEN
 40
0.09
  9
$DIMTSZ
 40
0.0
  9
$DIMTOL
 70
     0
  9
$DIMLIM
 70
     0
  9
$DIMTIH
 70
     0
  9
$DIMTOH
 70
     0
  9
$DIMSE1
 70
     0
  9
$DIMSE2
 70
     0
  9
$DIMTAD
 70
     1
  9
$DIMZIN
 70
     8
  9
$DIMBLK
  1

  9
$DIMASO
 70
     1
  9
$DIMSHO
 70
     0
  9
$DIMPOST
  1

  9
$DIMAPOST
  1

  9
$DIMALT
 70
     0
  9
$DIMALTD
 70
     2
  9
$DIMALTF
 40
25.399999999999999
  9
$DIMLFAC
 40
1.0
  9
$DIMTOFL
 70
     1
  9
$DIMTVP
 40
0.0
  9
$DIMTIX
 70
     1
  9
$DIMSOXD
 70
     0
  9
$DIMSAH
 70
     0
  9
$DIMBLK1
  1

  9
$DIMBLK2
  1

  9
$DIMSTYLE
  2
STANDARD
  9
$DIMCLRD
 70
     7
  9
$DIMCLRE
 70
     7
  9
$DIMCLRT
 70
     7
  9
$DIMTFAC
 40
1.0
  9
$DIMGAP
 40
25.0
  9
$LUNITS
 70
     2
  9
$LUPREC
 70
     4
  9
$SKETCHINC
 40
0.1
  9
$FILLETRAD
 40
3.0
  9
$AUNITS
 70
     1
  9
$AUPREC
 70
     3
  9
$MENU
  1
ACAD
  9
$ELEVATION
 40
0.0
  9
$PELEVATION
 40
0.0
  9
$THICKNESS
 40
0.0
  9
$LIMCHECK
 70
     0
  9
$CHAMFERA
 40
0.0
  9
$CHAMFERB
 40
0.0
  9
$SKPOLY
 70
     0
  9
$TDCREATE
 40
2453019.62301037
  9
$TDUPDATE
 40
2453425.106582465
  9
$TDINDWG
 40
1.8462312616
  9
$TDUSRTIMER
 40
1.8462312616
  9
$USRTIMER
 70
     1
  9
$ANGBASE
 50
0.0
  9
$ANGDIR
 70
     0
  9
$PDMODE
 70
     3
  9
$PDSIZE
 40
-2.0
  9
$PLINEWID
 40
0.0
  9
$SPLFRAME
 70
     0
  9
$SPLINETYPE
 70
     6
  9
$SPLINESEGS
 70
     8
  9
$SURFTAB1
 70
     6
  9
$SURFTAB2
 70
     6
  9
$SURFTYPE
 70
     6
  9
$SURFU
 70
     6
  9
$SURFV
 70
     6
  9
$UCSNAME
  2

  9
$UCSORG
 10
0.0
 20
0.0
 30
0.0
  9
$UCSXDIR
 10
1.0
 20
0.0
 30
0.0
  9
$UCSYDIR
 10
0.0
 20
1.0
 30
0.0
  9
$PUCSNAME
  2

  9
$PUCSORG
 10
0.0
 20
0.0
 30
0.0
  9
$PUCSXDIR
 10
1.0
 20
0.0
 30
0.0
  9
$PUCSYDIR
 10
0.0
 20
1.0
 30
0.0
  9
$USERI1
 70
     0
  9
$USERI2
 70
     0
  9
$USERI3
 70
     0
  9
$USERI4
 70
     0
  9
$USERI5
 70
     0
  9
$USERR1
 40
20.0
  9
$USERR2
 40
0.0
  9
$USERR3
 40
0.0
  9
$USERR4
 40
0.0
  9
$USERR5
 40
0.0
  9
$WORLDVIEW
 70
     1
  9
$SHADEDGE
 70
     3
  9
$SHADEDIF
 70
    70
  9
$TILEMODE
 70
     1
  9
$MAXACTVP
 70
    48
  9
$PINSBASE
 10
0.0
 20
0.0
 30
0.0
  9
$PLIMCHECK
 70
     0
  9
$PEXTMIN
 10
-100000000000000000000.0
 20
-100000000000000000000.0
 30
-100000000000000000000.0
  9
$PEXTMAX
 10
100000000000000000000.0
 20
100000000000000000000.0
 30
100000000000000000000.0
  9
$PLIMMIN
 10
0.0
 20
0.0
  9
$PLIMMAX
 10
12.0
 20
9.0
  9
$UNITMODE
 70
     0
  9
$VISRETAIN
 70
     0
  9
$PLINEGEN
 70
     0
  9
$PSLTSCALE
 70
     0
  9
$TREEDEPTH
 70
  3020
  9
$ATTDIA
 70
     0
  9
$ATTREQ
 70
     1
  9
$BLIPMODE
 70
     1
  9
$COORDS
 70
     1
  9
$DRAGMODE
 70
     2
  9
$OSMODE
 70
     0
  9
$HANDLING
 70
     0
  9
$HANDSEED
  5
F7B8
  0
ENDSEC
  0
SECTION
  2
TABLES
  0
TABLE
  2
LTYPE
 70
     2
  0
LTYPE
  2
CONTINUOUS
 70
     0
  3
実線
 72
    65
 73
     0
 40
0.0
  0
LTYPE
  2
DASHDOT
 70
     0
  3
____ _ ____ _ ____ _ ____ _ ____ _ ____ _ ____
 72
    65
 73
     4
 40
5.5
 49
4.0
 49
-0.6
 49
0.3
 49
-0.6
  0
ENDTAB
  0
TABLE
  2
LAYER
 70
    12
  0
LAYER
  2
0
 70
     0
 62
     7
  6
CONTINUOUS
  0
LAYER
  2
BASIS
 70
     0
 62
     6
  6
DASHDOT
  0
LAYER
  2
OUTLINE
 70
     0
 62
     3
  6
CONTINUOUS
  0
LAYER
  2
DETAIL
 70
     0
 62
     5
  6
CONTINUOUS
  0
LAYER
  2
SIZE
 70
     0
 62
    30
  6
CONTINUOUS
  0
LAYER
  2
ARRANGE
 70
     0
 62
     1
  6
CONTINUOUS
  0
LAYER
  2
DEFPOINTS
 70
     0
 62
     7
  6
CONTINUOUS
  0
LAYER
  2
ETC
 70
     0
 62
    61
  6
CONTINUOUS
  0
LAYER
  2
FIX
 70
     0
 62
    11
  6
CONTINUOUS
  0
LAYER
  2
NOTE
 70
     0
 62
     4
  6
CONTINUOUS
  0
LAYER
  2
SERVICESPACE
 70
    64
 62
     2
  6
DASHDOT
  0
LAYER
  2
SYMBOLLINE
 70
    64
 62
    15
  6
CONTINUOUS
  0
ENDTAB
  0
TABLE
  2
STYLE
 70
     1
  0
STYLE
  2
STANDARD
 70
     0
 40
64.0
 41
0.9
 50
0.0
 71
     0
 42
64.0
  3
SIMPLEX.shx
  4
BIGFONT.shx
  0
ENDTAB
  0
TABLE
  2
APPID
 70
    20
  0
APPID
  2
ACAD
 70
     0
  0
APPID
  2
AUTOCAD_POSTSCRIPT_FIGURE
 70
     0
  0
APPID
  2
ACAD_EXEMPT_FROM_CAD_STANDARDS
 70
     0
  0
APPID
  2
ACAD_PSEXT
 70
     0
  0
APPID
  2
ACAUTHENVIRON
 70
     0
  0
APPID
  2
GENIUS_GENOENT_13
 70
     0
  0
APPID
  2
GENIUS_GENCFG_13
 70
     0
  0
APPID
  2
GENIUS_GENCFG0_13
 70
     0
  0
APPID
  2
GENIUS_GENCFG1_13
 70
     0
  0
APPID
  2
GENIUS_GENCFG2_13
 70
     0
  0
APPID
  2
GENIUS_GENCFG3_13
 70
     0
  0
APPID
  2
GENIUS_GENCFG4_13
 70
     0
  0
APPID
  2
GENIUS_GEVCFG0_13
 70
     0
  0
APPID
  2
CONTENTBLOCKICON
 70
     0
  0
APPID
  2
CONTENTBLOCKDESCRIPTION
 70
     0
  0
APPID
  2
ACAD_NAV_VCDISPLAY
 70
     0
  0
APPID
  2
ACAD_MLEADERVER
 70
     0
  0
APPID
  2
ACDBDYNAMICBLOCKTRUENAME
 70
     0
  0
APPID
  2
ACDBDYNAMICBLOCKGUID
 70
     0
  0
APPID
  2
ACAD_DSTYLE_DIMRADIAL_EXTENSION
 70
     0
  0
ENDTAB
  0
TABLE
  2
DIMSTYLE
 70
     1
  0
DIMSTYLE
  2
STANDARD
 70
     0
  3

  4

  5
_ORIGIN
  6

  7

 40
1.0
 41
12.0
 42
20.0
 43
200.0
 44
20.0
 45
0.0
 46
0.0
 47
0.0
 48
0.0
140
64.0
141
0.09
142
0.0
143
25.399999999999999
144
1.0
145
0.0
146
1.0
147
25.0
 71
     0
 72
     0
 73
     0
 74
     0
 75
     0
 76
     0
 77
     1
 78
     8
170
     0
171
     2
172
     1
173
     0
174
     1
175
     0
176
     7
177
     7
178
     7
  0
ENDTAB
  0
TABLE
  2
VIEW
 70
     1
  0
VIEW
  2
ALL
 70
     0
 40
4282.6198079999986
 10
0.0
 20
41.309904000000003
 41
5940.0
 11
0.0
 21
0.0
 31
1.0
 12
0.0
 22
0.0
 32
0.0
 42
50.0
 43
0.0
 44
0.0
 50
0.0
 71
     0
  0
ENDTAB
  0
TABLE
  2
UCS
 70
     0
  0
ENDTAB
  0
TABLE
  2
VPORT
 70
     1
  0
VPORT
  2
*ACTIVE
 70
     0
 10
0.0
 20
0.0
 11
1.0
 21
1.0
 12
289.35929761426343
 22
74.180612892588215
 13
0.0
 23
0.0
 14
1.0
 24
1.0
 15
0.0
 25
0.0
 16
0.0
 26
0.0
 36
1.0
 17
0.0
 27
0.0
 37
0.0
 40
854.26539834248513
 41
2.056631892697466
 42
50.0
 43
0.0
 44
0.0
 50
0.0
 51
0.0
 71
     0
 72
  1000
 73
     1
 74
     3
 75
     0
 76
     0
 77
     0
 78
     0
  0
ENDTAB
  0
ENDSEC
  0
SECTION
  2
BLOCKS
  0
BLOCK
  8
0
  2
_ORIGIN
 70
     0
 10
0.0
 20
0.0
 30
0.0
  3
_ORIGIN
  1
_ORIGIN
  0
CIRCLE
  8
SIZE
  6
CONTINUOUS
 62
    30
 10
0.0
 20
0.0
 30
0.0
 40
0.5
  0
LINE
  8
SIZE
  6
CONTINUOUS
 62
    30
 10
0.0
 20
0.0
 30
0.0
 11
-1.0
 21
0.0
 31
0.0
  0
ENDBLK
  8
0
  0
ENDSEC
  0
SECTION
  2
ENTITIES
  0
LINE
  8
DETAIL
  6
CONTINUOUS
 62
     5
 10
345.0
 20
-355.00000000000023
 30
0.0
 11
-345.0
 21
-355.00000000000023
 31
0.0
  0
LINE
  8
DETAIL
  6
CONTINUOUS
 62
     5
 10
355.0
 20
345.0
 30
0.0
 11
355.0
 21
-345.00000000000023
 31
0.0
  0
LINE
  8
BASIS
  6
DASHDOT
 62
     6
 10
0.0
 20
374.19834019000001
 30
0.0
 11
0.0
 21
-374.19834019000018
 31
0.0
  0
LINE
  8
DETAIL
  6
CONTINUOUS
 62
     5
 10
216.75436161201921
 20
-212.79475844617491
 30
0.0
 11
129.30249473155621
 21
-125.34289156544629
 31
0.0
  0
LINE
  8
DETAIL
  6
CONTINUOUS
 62
     5
 10
212.61608269235239
 20
-216.9296288674245
 30
0.0
 11
119.1782726807014
 21
-123.4918188552742
 31
0.0
  0
LINE
  8
DETAIL
  6
CONTINUOUS
 62
     5
 10
152.95822084189689
 20
156.9178240091255
 30
0.0
 11
85.555309647033027
 21
89.514912814573336
 31
0.0
  0
LINE
  8
DETAIL
  6
CONTINUOUS
 62
     5
 10
-355.0
 20
-345.00000000000023
 30
0.0
 11
-355.0
 21
345.0
 31
0.0
  0
LINE
  8
DETAIL
  6
CONTINUOUS
 62
     5
 10
-345.0
 20
355.0
 30
0.0
 11
345.0
 21
355.0
 31
0.0
  0
ARC
  8
DETAIL
  6
CONTINUOUS
 62
     5
 10
345.0
 20
-345.00000000000023
 30
0.0
 40
10.0
 50
270.0
 51
0.0
  0
ARC
  8
DETAIL
  6
CONTINUOUS
 62
     5
 10
345.0
 20
345.0
 30
0.0
 40
10.0
 50
0.0
 51
90.0
  0
ARC
  8
DETAIL
  6
CONTINUOUS
 62
     5
 10
-345.0
 20
-345.00000000000023
 30
0.0
 40
10.0
 50
180.0
 51
270.0
  0
ARC
  8
DETAIL
  6
CONTINUOUS
 62
     5
 10
-345.0
 20
345.0
 30
0.0
 40
10.0
 50
90.0
 51
180.0
  0
LINE
  8
BASIS
  6
DASHDOT
 62
     6
 10
374.19834019000342
 20
0.0
 30
0.0
 11
-374.19834018999973
 21
0.0
 31
0.0
  0
LINE
  8
DETAIL
  6
CONTINUOUS
 62
     5
 10
152.3317916329388
 20
148.01824546116791
 30
0.0
 11
89.687702718394576
 21
85.374156546914037
 31
0.0
  0
LINE
  8
SIZE
  6
CONTINUOUS
 62
    30
 10
-355.0
 20
365.0
 30
0.0
 11
-355.0
 21
549.2959305681984
 31
0.0
  0
LINE
  8
SIZE
  6
CONTINUOUS
 62
    30
 10
355.0
 20
365.0
 30
0.0
 11
355.0
 21
549.2959305681984
 31
0.0
  0
LINE
  8
SIZE
  6
CONTINUOUS
 62
    30
 10
-343.0
 20
529.2959305681984
 30
0.0
 11
343.0
 21
529.2959305681984
 31
0.0
  0
CIRCLE
  8
SIZE
  6
CONTINUOUS
 62
    30
 10
-355.0
 20
529.2959305681984
 30
0.0
 40
6.0
  0
LINE
  8
SIZE
  6
CONTINUOUS
 62
    30
 10
-355.0
 20
529.2959305681984
 30
0.0
 11
-343.0
 21
529.2959305681984
 31
0.0
  0
CIRCLE
  8
SIZE
  6
CONTINUOUS
 62
    30
 10
355.0
 20
529.2959305681984
 30
0.0
 40
6.0
  0
LINE
  8
SIZE
  6
CONTINUOUS
 62
    30
 10
355.0
 20
529.2959305681984
 30
0.0
 11
343.0
 21
529.2959305681984
 31
0.0
  0
TEXT
  8
SIZE
  6
CONTINUOUS
 62
    30
 10
-75.168000000000006
 20
554.2959305681984
 30
0.0
 40
64.0
  1
710
 50
0.0
 41
0.9
 51
0.0
  7
STANDARD
 71
     0
 72
     1
 11
0.0
 21
554.2959305681984
 31
0.0
210
0.0
220
0.0
230
1.0
  0
POINT
  8
DEFPOINTS
  6
CONTINUOUS
 62
    30
 10
-355.0
 20
345.0
 30
0.0
  0
POINT
  8
DEFPOINTS
  6
CONTINUOUS
 62
    30
 10
355.0
 20
345.0
 30
0.0
  0
POINT
  8
DEFPOINTS
  6
CONTINUOUS
 62
    30
 10
355.0
 20
529.2959305681984
 30
0.0
  0
ARC
  8
DETAIL
  6
CONTINUOUS
 62
     5
 10
163.28943390937729
 20
89.15678099738534
 30
0.0
 40
217.1755547114798
 50
243.32377900349491
 51
304.47480281614992
  0
ARC
  8
DETAIL
  6
CONTINUOUS
 62
     5
 10
-104.99298874119999
 20
170.60282218854721
 30
0.0
 40
258.31396729668728
 50
329.43832522276858
 51
16.701449156905468
  0
ARC
  8
DETAIL
  6
CONTINUOUS
 62
     5
 10
151.98304991458639
 20
247.6404231555355
 30
0.0
 40
9.961227244180682
 50
163.831579228838
 51
196.33789190331879
  0
ARC
  8
DETAIL
  6
CONTINUOUS
 62
     5
 10
-4.4326796913082944
 20
-185.9911884337948
 30
0.0
 40
217.1755547114798
 50
123.323779003474
 51
184.4748028161309
  0
ARC
  8
DETAIL
  6
CONTINUOUS
 62
     5
 10
188.60682876830469
 20
-29.698336920554311
 30
0.0
 40
223.01925173568739
 50
204.74159188156699
 51
258.8964564610863
  0
ARC
  8
DETAIL
  6
CONTINUOUS
 62
     5
 10
-158.85675421807261
 20
96.834407436409037
 30
0.0
 40
217.1755547114798
 50
3.323779003484173
 51
64.474802816107655
  0
ARC
  8
DETAIL
  6
CONTINUOUS
 62
     5
 10
-122.4417048785062
 20
-144.29220546305601
 30
0.0
 40
218.44315338644839
 50
84.10865255066129
 51
139.30886791513711
  0
ARC
  8
OUTLINE
  6
CONTINUOUS
 62
     3
 10
345.0
 20
345.0
 30
0.0
 40
9.9999999999999982
 50
0.0
 51
90.0
  0
LINE
  8
OUTLINE
  6
CONTINUOUS
 62
     3
 10
345.0
 20
355.0
 30
0.0
 11
-345.0
 21
355.0
 31
0.0
  0
ARC
  8
OUTLINE
  6
CONTINUOUS
 62
     3
 10
-345.0
 20
345.0
 30
0.0
 40
9.9999999999999982
 50
90.0
 51
180.0
  0
LINE
  8
OUTLINE
  6
CONTINUOUS
 62
     3
 10
-355.0
 20
345.0
 30
0.0
 11
-355.0
 21
-345.00000000000023
 31
0.0
  0
ARC
  8
OUTLINE
  6
CONTINUOUS
 62
     3
 10
-345.0
 20
-345.00000000000023
 30
0.0
 40
9.9999999999999982
 50
180.0
 51
270.0
  0
LINE
  8
OUTLINE
  6
CONTINUOUS
 62
     3
 10
-345.0
 20
-355.00000000000023
 30
0.0
 11
345.0
 21
-355.00000000000023
 31
0.0
  0
ARC
  8
OUTLINE
  6
CONTINUOUS
 62
     3
 10
345.0
 20
-345.00000000000023
 30
0.0
 40
9.9999999999999982
 50
270.0
 51
0.0
  0
LINE
  8
OUTLINE
  6
CONTINUOUS
 62
     3
 10
355.0
 20
-345.00000000000023
 30
0.0
 11
355.0
 21
345.0
 31
0.0
  0
LINE
  8
SIZE
  6
CONTINUOUS
 62
    30
 10
-364.99999999999829
 20
325.00000000000011
 30
0.0
 11
-443.57712768209728
 21
325.00000000000011
 31
0.0
  0
LINE
  8
SIZE
  6
CONTINUOUS
 62
    30
 10
-365.00000000000188
 20
-324.99999999999648
 30
0.0
 11
-443.57712768209723
 21
-324.99999999999648
 31
0.0
  0
LINE
  8
SIZE
  6
CONTINUOUS
 62
    30
 10
-423.57712768209728
 20
313.00000000000011
 30
0.0
 11
-423.57712768209723
 21
-312.99999999999648
 31
0.0
  0
CIRCLE
  8
SIZE
  6
CONTINUOUS
 62
    30
 10
-423.57712768209728
 20
325.00000000000011
 30
0.0
 40
6.0
  0
LINE
  8
SIZE
  6
CONTINUOUS
 62
    30
 10
-423.57712768209728
 20
325.00000000000011
 30
0.0
 11
-423.57712768209728
 21
313.00000000000011
 31
0.0
  0
CIRCLE
  8
SIZE
  6
CONTINUOUS
 62
    30
 10
-423.57712768209723
 20
-324.99999999999648
 30
0.0
 40
6.0
  0
LINE
  8
SIZE
  6
CONTINUOUS
 62
    30
 10
-423.57712768209723
 20
-324.99999999999648
 30
0.0
 11
-423.57712768209723
 21
-312.99999999999648
 31
0.0
  0
TEXT
  8
SIZE
  6
CONTINUOUS
 62
    30
 10
-448.57712768209711
 20
-80.927999999998036
 30
0.0
 40
64.0
  1
650
 50
90.0
 41
0.9
 51
0.0
  7
STANDARD
 71
     0
 72
     1
 11
-448.57712768209711
 21
0.0000000000019636
 31
0.0
210
0.0
220
0.0
230
1.0
  0
POINT
  8
DEFPOINTS
  6
CONTINUOUS
 62
    30
 10
-344.99999999999829
 20
325.00000000000011
 30
0.0
  0
POINT
  8
DEFPOINTS
  6
CONTINUOUS
 62
    30
 10
-345.00000000000188
 20
-324.99999999999648
 30
0.0
  0
POINT
  8
DEFPOINTS
  6
CONTINUOUS
 62
    30
 10
-423.57712768209723
 20
-324.99999999999648
 30
0.0
  0
LINE
  8
SIZE
  6
CONTINUOUS
 62
    30
 10
-365.00000000000011
 20
355.00000000000011
 30
0.0
 11
-566.31519754367002
 21
355.00000000000011
 31
0.0
  0
LINE
  8
SIZE
  6
CONTINUOUS
 62
    30
 10
-365.00000000000011
 20
-355.00000000000028
 30
0.0
 11
-566.3151975436698
 21
-355.0000000000004
 31
0.0
  0
LINE
  8
SIZE
  6
CONTINUOUS
 62
    30
 10
-546.31519754367002
 20
343.00000000000011
 30
0.0
 11
-546.3151975436698
 21
-343.0000000000004
 31
0.0
  0
CIRCLE
  8
SIZE
  6
CONTINUOUS
 62
    30
 10
-546.31519754367002
 20
355.00000000000011
 30
0.0
 40
6.0
  0
LINE
  8
SIZE
  6
CONTINUOUS
 62
    30
 10
-546.31519754367002
 20
355.00000000000011
 30
0.0
 11
-546.31519754367002
 21
343.00000000000011
 31
0.0
  0
CIRCLE
  8
SIZE
  6
CONTINUOUS
 62
    30
 10
-546.3151975436698
 20
-355.0000000000004
 30
0.0
 40
6.0
  0
LINE
  8
SIZE
  6
CONTINUOUS
 62
    30
 10
-546.3151975436698
 20
-355.0000000000004
 30
0.0
 11
-546.3151975436698
 21
-343.0000000000004
 31
0.0
  0
TEXT
  8
SIZE
  6
CONTINUOUS
 62
    30
 10
-571.3151975436698
 20
-75.168000000000021
 30
0.0
 40
64.0
  1
710
 50
90.0
 41
0.9
 51
0.0
  7
STANDARD
 71
     0
 72
     1
 11
-571.3151975436698
 21
-0.0000000000000184
 31
0.0
210
0.0
220
0.0
230
1.0
  0
POINT
  8
DEFPOINTS
  6
CONTINUOUS
 62
    30
 10
-345.00000000000011
 20
355.00000000000011
 30
0.0
  0
POINT
  8
DEFPOINTS
  6
CONTINUOUS
 62
    30
 10
-345.00000000000011
 20
-355.00000000000028
 30
0.0
  0
POINT
  8
DEFPOINTS
  6
CONTINUOUS
 62
    30
 10
-546.3151975436698
 20
-355.0000000000004
 30
0.0
  0
LINE
  8
SIZE
  6
CONTINUOUS
 62
    30
 10
-324.99999999999818
 20
365.0
 30
0.0
 11
-324.99999999999818
 21
441.4343540982868
 31
0.0
  0
LINE
  8
SIZE
  6
CONTINUOUS
 62
    30
 10
324.99999999999818
 20
364.99999999999608
 30
0.0
 11
324.99999999999818
 21
441.4343540982868
 31
0.0
  0
LINE
  8
SIZE
  6
CONTINUOUS
 62
    30
 10
-312.99999999999818
 20
421.4343540982868
 30
0.0
 11
312.99999999999818
 21
421.4343540982868
 31
0.0
  0
CIRCLE
  8
SIZE
  6
CONTINUOUS
 62
    30
 10
-324.99999999999818
 20
421.4343540982868
 30
0.0
 40
6.0
  0
LINE
  8
SIZE
  6
CONTINUOUS
 62
    30
 10
-324.99999999999818
 20
421.4343540982868
 30
0.0
 11
-312.99999999999818
 21
421.4343540982868
 31
0.0
  0
CIRCLE
  8
SIZE
  6
CONTINUOUS
 62
    30
 10
324.99999999999818
 20
421.4343540982868
 30
0.0
 40
6.0
  0
LINE
  8
SIZE
  6
CONTINUOUS
 62
    30
 10
324.99999999999818
 20
421.4343540982868
 30
0.0
 11
312.99999999999818
 21
421.4343540982868
 31
0.0
  0
TEXT
  8
SIZE
  6
CONTINUOUS
 62
    30
 10
-80.927999999999997
 20
446.4343540982868
 30
0.0
 40
64.0
  1
650
 50
0.0
 41
0.9
 51
0.0
  7
STANDARD
 71
     0
 72
     1
 11
0.0
 21
446.4343540982868
 31
0.0
210
0.0
220
0.0
230
1.0
  0
POINT
  8
DEFPOINTS
  6
CONTINUOUS
 62
    30
 10
-324.99999999999818
 20
345.0
 30
0.0
  0
POINT
  8
DEFPOINTS
  6
CONTINUOUS
 62
    30
 10
324.99999999999818
 20
344.99999999999608
 30
0.0
  0
POINT
  8
DEFPOINTS
  6
CONTINUOUS
 62
    30
 10
324.99999999999818
 20
421.4343540982868
 30
0.0
  0
POINT
  8
ARRANGE
  6
CONTINUOUS
 62
     1
 10
0.0
 20
0.0
 30
0.0
 50
180.0
  0
CIRCLE
  8
ARRANGE
  6
CONTINUOUS
 62
     1
 10
0.0
 20
0.0
 30
0.0
 40
40.0
  0
ARC
  8
DETAIL
  6
CONTINUOUS
 62
     5
 10
151.69015302531349
 20
247.49462138681611
 30
0.0
 40
9.7230409292814191
 50
56.66855083913395
 51
162.52565170856951
  0
ARC
  8
DETAIL
  6
CONTINUOUS
 62
     5
 10
138.4915529083419
 20
-255.11483671727589
 30
0.0
 40
9.7230409292814226
 50
296.66855083911128
 51
42.525651708580689
  0
ARC
  8
DETAIL
  6
CONTINUOUS
 62
     5
 10
-290.18170593364721
 20
7.6202153304593594
 30
0.0
 40
9.7230409292814226
 50
176.66855083913751
 51
282.52565170857741
  0
LINE
  8
DETAIL
  6
CONTINUOUS
 62
     5
 10
308.44974746799738
 20
323.55025253199977
 30
0.0
 11
323.55025253099848
 21
308.44974746899987
 31
0.0
  0
LINE
  8
DETAIL
  6
CONTINUOUS
 62
     5
 10
335.49999999999818
 20
313.39949493699987
 30
0.0
 11
335.49999999999818
 21
327.5
 31
0.0
  0
LINE
  8
DETAIL
  6
CONTINUOUS
 62
     5
 10
327.49999999999818
 20
335.5
 30
0.0
 11
313.3994949359967
 21
335.5
 31
0.0
  0
ARC
  8
DETAIL
  6
CONTINUOUS
 62
     5
 10
327.49999999999818
 20
327.5
 30
0.0
 40
8.0000000000000018
 50
0.0
 51
90.0
  0
ARC
  8
DETAIL
  6
CONTINUOUS
 62
     5
 10
313.3994949359967
 20
328.5
 30
0.0
 40
7.0000000000000018
 50
90.0
 51
224.99999999999079
  0
ARC
  8
DETAIL
  6
CONTINUOUS
 62
     5
 10
328.49999999999818
 20
313.39949493699987
 30
0.0
 40
7.0000000000000018
 50
224.99999999999079
 51
0.0
  0
CIRCLE
  8
DETAIL
  6
CONTINUOUS
 62
     5
 10
324.99999999999818
 20
325.0
 30
0.0
 40
7.5000000000000018
  0
CIRCLE
  8
FIX
  6
CONTINUOUS
 62
    11
 10
324.99999999999818
 20
325.0
 30
0.0
 40
7.5000000000000018
  0
LINE
  8
BASIS
  6
DASHDOT
 62
     6
 10
324.99999999999818
 20
305.0
 30
0.0
 11
324.99999999999818
 21
345.0
 31
0.0
  0
LINE
  8
BASIS
  6
DASHDOT
 62
     6
 10
344.99999999999818
 20
325.0
 30
0.0
 11
304.99999999999818
 21
325.0
 31
0.0
  0
LINE
  8
DETAIL
  6
CONTINUOUS
 62
     5
 10
323.55025253200171
 20
-308.44974746799562
 30
0.0
 11
308.44974746900152
 21
-323.55025253099672
 31
0.0
  0
LINE
  8
DETAIL
  6
CONTINUOUS
 62
     5
 10
313.39949493700169
 20
-335.49999999999642
 30
0.0
 11
327.50000000000182
 21
-335.49999999999642
 31
0.0
  0
LINE
  8
DETAIL
  6
CONTINUOUS
 62
     5
 10
335.50000000000182
 20
-327.49999999999642
 30
0.0
 11
335.50000000000182
 21
-313.39949493599488
 31
0.0
  0
ARC
  8
DETAIL
  6
CONTINUOUS
 62
     5
 10
327.50000000000182
 20
-327.49999999999642
 30
0.0
 40
8.0000000000000053
 50
270.0
 51
0.0
  0
ARC
  8
DETAIL
  6
CONTINUOUS
 62
     5
 10
328.50000000000182
 20
-313.39949493599488
 30
0.0
 40
7.0000000000000053
 50
0.0
 51
135.0
  0
ARC
  8
DETAIL
  6
CONTINUOUS
 62
     5
 10
313.39949493700169
 20
-328.49999999999642
 30
0.0
 40
7.0000000000000053
 50
135.0
 51
270.0
  0
CIRCLE
  8
DETAIL
  6
CONTINUOUS
 62
     5
 10
325.00000000000182
 20
-324.99999999999642
 30
0.0
 40
7.5000000000000053
  0
CIRCLE
  8
FIX
  6
CONTINUOUS
 62
    11
 10
325.00000000000182
 20
-324.99999999999642
 30
0.0
 40
7.5000000000000053
  0
LINE
  8
BASIS
  6
DASHDOT
 62
     6
 10
305.00000000000182
 20
-324.99999999999642
 30
0.0
 11
345.00000000000182
 21
-324.99999999999642
 31
0.0
  0
LINE
  8
BASIS
  6
DASHDOT
 62
     6
 10
325.00000000000182
 20
-344.99999999999642
 30
0.0
 11
325.00000000000182
 21
-304.99999999999642
 31
0.0
  0
LINE
  8
DETAIL
  6
CONTINUOUS
 62
     5
 10
-308.4497474679938
 20
-323.55025253200029
 30
0.0
 11
-323.55025253099478
 21
-308.44974746900022
 31
0.0
  0
LINE
  8
DETAIL
  6
CONTINUOUS
 62
     5
 10
-335.49999999999449
 20
-313.39949493700033
 30
0.0
 11
-335.49999999999449
 21
-327.50000000000051
 31
0.0
  0
LINE
  8
DETAIL
  6
CONTINUOUS
 62
     5
 10
-327.49999999999449
 20
-335.50000000000051
 30
0.0
 11
-313.39949493599312
 21
-335.50000000000051
 31
0.0
  0
ARC
  8
DETAIL
  6
CONTINUOUS
 62
     5
 10
-327.49999999999449
 20
-327.50000000000051
 30
0.0
 40
8.0000000000000036
 50
180.0
 51
270.0
  0
ARC
  8
DETAIL
  6
CONTINUOUS
 62
     5
 10
-313.39949493599312
 20
-328.50000000000023
 30
0.0
 40
7.0000000000000044
 50
270.0
 51
44.999999999990777
  0
ARC
  8
DETAIL
  6
CONTINUOUS
 62
     5
 10
-328.49999999999449
 20
-313.39949493700033
 30
0.0
 40
7.0000000000000044
 50
44.999999999990777
 51
180.0
  0
CIRCLE
  8
DETAIL
  6
CONTINUOUS
 62
     5
 10
-324.99999999999449
 20
-325.00000000000051
 30
0.0
 40
7.5000000000000044
  0
CIRCLE
  8
FIX
  6
CONTINUOUS
 62
    11
 10
-324.99999999999449
 20
-325.00000000000051
 30
0.0
 40
7.5000000000000044
  0
LINE
  8
BASIS
  6
DASHDOT
 62
     6
 10
-324.99999999999449
 20
-305.00000000000051
 30
0.0
 11
-324.99999999999449
 21
-345.00000000000051
 31
0.0
  0
LINE
  8
BASIS
  6
DASHDOT
 62
     6
 10
-344.99999999999449
 20
-325.00000000000051
 30
0.0
 11
-304.99999999999449
 21
-325.00000000000051
 31
0.0
  0
LINE
  8
DETAIL
  6
CONTINUOUS
 62
     5
 10
-323.55025253199801
 20
308.44974746799539
 30
0.0
 11
-308.44974746899828
 21
323.55025253099637
 31
0.0
  0
LINE
  8
DETAIL
  6
CONTINUOUS
 62
     5
 10
-313.39949493699811
 20
335.49999999999608
 30
0.0
 11
-327.49999999999818
 21
335.49999999999608
 31
0.0
  0
LINE
  8
DETAIL
  6
CONTINUOUS
 62
     5
 10
-335.49999999999818
 20
327.49999999999608
 30
0.0
 11
-335.49999999999818
 21
313.39949493599471
 31
0.0
  0
ARC
  8
DETAIL
  6
CONTINUOUS
 62
     5
 10
-327.49999999999818
 20
327.49999999999608
 30
0.0
 40
8.0000000000000053
 50
90.0
 51
180.0
  0
ARC
  8
DETAIL
  6
CONTINUOUS
 62
     5
 10
-328.49999999999818
 20
313.39949493599471
 30
0.0
 40
7.0000000000000053
 50
180.0
 51
315.0
  0
ARC
  8
DETAIL
  6
CONTINUOUS
 62
     5
 10
-313.39949493699811
 20
328.49999999999608
 30
0.0
 40
7.0000000000000053
 50
315.0
 51
90.0
  0
CIRCLE
  8
DETAIL
  6
CONTINUOUS
 62
     5
 10
-324.99999999999818
 20
324.99999999999608
 30
0.0
 40
7.5000000000000053
  0
CIRCLE
  8
FIX
  6
CONTINUOUS
 62
    11
 10
-324.99999999999818
 20
324.99999999999608
 30
0.0
 40
7.5000000000000053
  0
LINE
  8
BASIS
  6
DASHDOT
 62
     6
 10
-304.99999999999818
 20
324.99999999999608
 30
0.0
 11
-344.99999999999818
 21
324.99999999999608
 31
0.0
  0
LINE
  8
BASIS
  6
DASHDOT
 62
     6
 10
-324.99999999999818
 20
344.99999999999608
 30
0.0
 11
-324.99999999999818
 21
304.99999999999608
 31
0.0
  0
CIRCLE
  8
DETAIL
  6
CONTINUOUS
 62
     5
 10
0.0
 20
0.0
 30
0.0
 40
305.0
  0
ARC
  8
DETAIL
  6
CONTINUOUS
 62
     5
 10
0.0
 20
0.0
 30
0.0
 40
300.00000000000091
 50
222.56694863834991
 51
298.55495965041348
  0
ARC
  8
DETAIL
  6
CONTINUOUS
 62
     5
 10
0.0
 20
0.0
 30
0.0
 40
300.00000000000091
 50
342.5669486383519
 51
58.554959650419804
  0
ARC
  8
DETAIL
  6
CONTINUOUS
 62
     5
 10
0.0
 20
0.0
 30
0.0
 40
300.00000000000091
 50
102.5669486383516
 51
178.55495965039611
  0
CIRCLE
  8
DETAIL
  6
CONTINUOUS
 62
     5
 10
0.0
 20
0.0
 30
0.0
 40
123.8250000000009
  0
LINE
  8
SIZE
  6
CONTINUOUS
 62
    30
 10
557.81352607008455
 20
-263.74068089845912
 30
0.0
 11
282.0613610612491
 21
-133.36187084874209
 31
0.0
  0
LINE
  8
SIZE
  6
CONTINUOUS
 62
    30
 10
-282.06136106124819
 20
133.3618708487414
 30
0.0
 11
-292.90987494821923
 21
138.491173573693
 31
0.0
  0
TEXT
  8
SIZE
  6
CONTINUOUS
 62
    30
 10
350.46407492979131
 20
-138.04990712448293
 30
0.0
 40
64.0
  1
φ600
 50
334.69467450103235
 41
0.9
 51
0.0
  7
STANDARD
 71
     0
 72
     1
 11
455.39090124457562
 21
-187.6605230802146
 31
0.0
210
0.0
220
0.0
230
1.0
  0
LINE
  8
SIZE
  6
CONTINUOUS
 62
    30
 10
-271.2128471742771
 20
128.2325681237898
 30
0.0
 11
271.21284717427801
 21
-128.2325681237906
 31
0.0
  0
CIRCLE
  8
SIZE
  6
CONTINUOUS
 62
    30
 10
-271.2128471742771
 20
128.2325681237898
 30
0.0
 40
6.0
  0
LINE
  8
SIZE
  6
CONTINUOUS
 62
    30
 10
-271.2128471742771
 20
128.2325681237898
 30
0.0
 11
-282.06136106124819
 21
133.3618708487414
 31
0.0
  0
CIRCLE
  8
SIZE
  6
CONTINUOUS
 62
    30
 10
271.21284717427801
 20
-128.2325681237906
 30
0.0
 40
6.0
  0
LINE
  8
SIZE
  6
CONTINUOUS
 62
    30
 10
271.21284717427801
 20
-128.2325681237906
 30
0.0
 11
282.0613610612491
 21
-133.3618708487422
 31
0.0
  0
ARC
  8
SIZE
  6
CONTINUOUS
 62
    30
 10
0.0000000000004562
 20
-0.000000000000365
 30
0.0
 40
300.00000000000091
 50
330.87495586682678
 51
338.74723000414292
  0
POINT
  8
DEFPOINTS
  6
CONTINUOUS
 62
    30
 10
271.21284717427801
 20
-128.2325681237906
 30
0.0
  0
POINT
  8
DEFPOINTS
  6
CONTINUOUS
 62
    30
 10
-271.2128471742771
 20
128.2325681237898
 30
0.0
  0
LINE
  8
SIZE
  6
CONTINUOUS
 62
    30
 10
617.04362069730576
 20
72.42853607055099
 30
0.0
 11
314.83849002368089
 21
36.955719443803098
 31
0.0
  0
LINE
  8
SIZE
  6
CONTINUOUS
 62
    30
 10
-314.83849002368038
 20
-36.955719443802757
 30
0.0
 11
-326.75666630217933
 21
-38.354674123063432
 31
0.0
  0
TEXT
  8
SIZE
  6
CONTINUOUS
 62
    30
 10
386.33646103902538
 20
70.519782582491729
 30
0.0
 40
64.0
  1
φ610
 50
6.6947398472412374
 41
0.9
 51
0.0
  7
STANDARD
 71
     0
 72
     1
 11
495.31626492961959
 21
83.311824169651317
 31
0.0
210
0.0
220
0.0
230
1.0
  0
LINE
  8
SIZE
  6
CONTINUOUS
 62
    30
 10
-302.92031374518137
 20
-35.556764764542088
 30
0.0
 11
302.92031374518189
 21
35.556764764542443
 31
0.0
  0
CIRCLE
  8
SIZE
  6
CONTINUOUS
 62
    30
 10
-302.92031374518137
 20
-35.556764764542088
 30
0.0
 40
6.0
  0
LINE
  8
SIZE
  6
CONTINUOUS
 62
    30
 10
-302.92031374518137
 20
-35.556764764542088
 30
0.0
 11
-314.83849002368032
 21
-36.955719443802749
 31
0.0
  0
CIRCLE
  8
SIZE
  6
CONTINUOUS
 62
    30
 10
302.92031374518189
 20
35.556764764542443
 30
0.0
 40
6.0
  0
LINE
  8
SIZE
  6
CONTINUOUS
 62
    30
 10
302.92031374518189
 20
35.556764764542443
 30
0.0
 11
314.83849002368083
 21
36.955719443803112
 31
0.0
  0
POINT
  8
DEFPOINTS
  6
CONTINUOUS
 62
    30
 10
302.92031374518189
 20
35.556764764542443
 30
0.0
  0
POINT
  8
DEFPOINTS
  6
CONTINUOUS
 62
    30
 10
-302.92031374518137
 20
-35.556764764542088
 30
0.0
  0
LINE
  8
DETAIL
  6
CONTINUOUS
 62
     5
 10
-246.05546970204341
 20
-355.00000000000051
 30
0.0
 11
-246.05546970204389
 21
-406.91598050769488
 31
0.0
  0
LINE
  8
DETAIL
  6
CONTINUOUS
 62
     5
 10
-256.05546970204392
 20
-355.00000000000051
 30
0.0
 11
-256.05546970204392
 21
-406.91598050769488
 31
0.0
  0
LINE
  8
DETAIL
  6
CONTINUOUS
 62
     5
 10
-246.05546970204389
 20
-406.91598050769488
 30
0.0
 11
-256.05546970204392
 21
-406.91598050769488
 31
0.0
  0
TEXT
  8
ETC
  6
CONTINUOUS
 62
    61
 10
476.07591671300219
 20
575.12369327414262
 30
0.0
 40
64.0
  1
EG-60FTXC2-Q_3
 41
0.9
  0
TEXT
  8
ETC
  6
CONTINUOUS
 62
    61
 10
471.88992271300191
 20
457.16838325931138
 30
0.0
 40
64.0
  1
有圧換気扇
 41
0.9
  0
TEXT
  8
ETC
  6
CONTINUOUS
 62
    61
 10
522.59132096155781
 20
349.01961037308621
 30
0.0
 40
40.0
  1
EG-60FTXC2-Q
 50
0.0
 41
0.9
 51
0.0
  7
STANDARD
 71
     0
 11
0.0
 21
0.0
 31
0.0
210
0.0
220
0.0
230
1.0
  0
TEXT
  8
ETC
  6
CONTINUOUS
 62
    61
 10
522.59132096155781
 20
283.01961037308621
 30
0.0
 40
40.0
  1
EG-60FTXC2-FQ
 50
0.0
 41
0.9
 51
0.0
  7
STANDARD
 71
     0
 11
0.0
 21
0.0
 31
0.0
210
0.0
220
0.0
230
1.0
  0
TEXT
  8
NOTE
  6
CONTINUOUS
 62
     4
 10
396.38635559004661
 20
-473.19421081440942
 30
0.0
 40
64.0
  1
4-φ15
 50
0.0
 41
0.9
 51
0.0
  7
STANDARD
 71
     0
 11
0.0
 21
0.0
 31
0.0
210
0.0
220
0.0
230
1.0
  0
LINE
  8
NOTE
  6
CONTINUOUS
 62
     4
 10
396.29635559004652
 20
-485.99421081440943
 30
0.0
 11
665.18635559004633
 21
-485.99421081440943
 31
0.0
  0
LINE
  8
NOTE
  6
CONTINUOUS
 62
     4
 10
326.44842549911516
 20
-356.02449912284317
 30
0.0
 11
325.00000000000182
 21
-324.99999999999642
 31
0.0
  0
LINE
  8
NOTE
  6
CONTINUOUS
 62
     4
 10
325.00000000000182
 20
-324.99999999999642
 30
0.0
 11
341.7666622363505
 21
-351.14376636412612
 31
0.0
  0
LINE
  8
NOTE
  6
CONTINUOUS
 62
     4
 10
325.00000000000182
 20
-324.99999999999642
 30
0.0
 11
343.2150877354639
 21
-382.16826548697281
 31
0.0
  0
LINE
  8
NOTE
  6
CONTINUOUS
 62
     4
 10
343.21508773546401
 20
-382.16826548697281
 30
0.0
 11
376.29635559004652
 21
-485.99421081440943
 31
0.0
  0
LINE
  8
NOTE
  6
CONTINUOUS
 62
     4
 10
376.29635559004652
 20
-485.99421081440943
 30
0.0
 11
396.29635559004652
 21
-485.99421081440943
 31
0.0
  0
TEXT
  8
NOTE
  6
CONTINUOUS
 62
     4
 10
-464.23546708325756
 20
-477.93052417605139
 30
0.0
 40
64.0
  1
EL
 50
0.0
 41
0.9
 51
0.0
  7
STANDARD
 71
     0
 72
     2
 11
-362.85946708325758
 21
-477.93052417605139
 31
0.0
210
0.0
220
0.0
230
1.0
  0
LINE
  8
NOTE
  6
CONTINUOUS
 62
     4
 10
-362.7694670832575
 20
-490.7305241760514
 30
0.0
 11
-447.88803851182888
 21
-490.7305241760514
 31
0.0
  0
LINE
  8
NOTE
  6
CONTINUOUS
 62
     4
 10
-276.86261883165525
 20
-408.36656532637647
 30
0.0
 11
-250.51310402860369
 21
-391.92513741108382
 31
0.0
  0
LINE
  8
NOTE
  6
CONTINUOUS
 62
     4
 10
-250.51310402860369
 20
-391.92513741108382
 30
0.0
 11
-265.11169795724834
 21
-419.3386110610345
 31
0.0
  0
LINE
  8
NOTE
  6
CONTINUOUS
 62
     4
 10
-250.51310402860369
 20
-391.92513741108382
 30
0.0
 11
-291.46121276029993
 21
-435.78003897632715
 31
0.0
  0
LINE
  8
NOTE
  6
CONTINUOUS
 62
     4
 10
-291.46121276029999
 20
-435.78003897632709
 30
0.0
 11
-342.7694670832575
 21
-490.7305241760514
 31
0.0
  0
LINE
  8
NOTE
  6
CONTINUOUS
 62
     4
 10
-342.7694670832575
 20
-490.7305241760514
 30
0.0
 11
-362.7694670832575
 21
-490.7305241760514
 31
0.0
  0
ENDSEC
  0
EOF
