  0
SECTION
  2
HEADER
  9
$ACADVER
  1
AC1009
  9
$DWGCODEPAGE
  3
dos932
  9
$INSBASE
 10
0.0
 20
0.0
 30
0.0
  9
$EXTMIN
 10
-464.96885532393389
 20
-466.55272269453047
 30
-0.0000000000112498
  9
$EXTMAX
 10
1419.831860170038
 20
627.41089673644274
 30
0.0000000000002956
  9
$LIMMIN
 10
-2970.0
 20
-2100.0
  9
$LIMMAX
 10
2970.0
 20
2100.0
  9
$ORTHOMODE
 70
     1
  9
$REGENMODE
 70
     1
  9
$FILLMODE
 70
     1
  9
$QTEXTMODE
 70
     0
  9
$MIRRTEXT
 70
     0
  9
$LTSCALE
 40
20.0
  9
$ATTMODE
 70
     1
  9
$TEXTSIZE
 40
64.0
  9
$TRACEWID
 40
0.05
  9
$TEXTSTYLE
  7
STANDARD
  9
$CLAYER
  8
SIZE
  9
$CELTYPE
  6
CONTINUOUS
  9
$CECOLOR
 62
     7
  9
$DIMSCALE
 40
1.0
  9
$DIMASZ
 40
12.0
  9
$DIMEXO
 40
20.0
  9
$DIMDLI
 40
200.0
  9
$DIMRND
 40
0.0
  9
$DIMDLE
 40
0.0
  9
$DIMEXE
 40
20.0
  9
$DIMTP
 40
0.0
  9
$DIMTM
 40
0.0
  9
$DIMTXT
 40
64.0
  9
$DIMCEN
 40
0.09
  9
$DIMTSZ
 40
0.0
  9
$DIMTOL
 70
     0
  9
$DIMLIM
 70
     0
  9
$DIMTIH
 70
     0
  9
$DIMTOH
 70
     0
  9
$DIMSE1
 70
     0
  9
$DIMSE2
 70
     0
  9
$DIMTAD
 70
     1
  9
$DIMZIN
 70
     8
  9
$DIMBLK
  1

  9
$DIMASO
 70
     1
  9
$DIMSHO
 70
     0
  9
$DIMPOST
  1

  9
$DIMAPOST
  1

  9
$DIMALT
 70
     0
  9
$DIMALTD
 70
     2
  9
$DIMALTF
 40
25.399999999999999
  9
$DIMLFAC
 40
1.0
  9
$DIMTOFL
 70
     1
  9
$DIMTVP
 40
0.0
  9
$DIMTIX
 70
     1
  9
$DIMSOXD
 70
     0
  9
$DIMSAH
 70
     0
  9
$DIMBLK1
  1

  9
$DIMBLK2
  1

  9
$DIMSTYLE
  2
STANDARD
  9
$DIMCLRD
 70
     7
  9
$DIMCLRE
 70
     7
  9
$DIMCLRT
 70
     7
  9
$DIMTFAC
 40
1.0
  9
$DIMGAP
 40
25.0
  9
$LUNITS
 70
     2
  9
$LUPREC
 70
     4
  9
$SKETCHINC
 40
0.1
  9
$FILLETRAD
 40
3.0
  9
$AUNITS
 70
     1
  9
$AUPREC
 70
     3
  9
$MENU
  1
ACAD
  9
$ELEVATION
 40
0.0
  9
$PELEVATION
 40
0.0
  9
$THICKNESS
 40
0.0
  9
$LIMCHECK
 70
     0
  9
$CHAMFERA
 40
0.0
  9
$CHAMFERB
 40
0.0
  9
$SKPOLY
 70
     0
  9
$TDCREATE
 40
2453019.62301037
  9
$TDUPDATE
 40
2453425.106612801
  9
$TDINDWG
 40
1.7186155208
  9
$TDUSRTIMER
 40
1.7186155208
  9
$USRTIMER
 70
     1
  9
$ANGBASE
 50
0.0
  9
$ANGDIR
 70
     0
  9
$PDMODE
 70
     3
  9
$PDSIZE
 40
-2.0
  9
$PLINEWID
 40
0.0
  9
$SPLFRAME
 70
     0
  9
$SPLINETYPE
 70
     6
  9
$SPLINESEGS
 70
     8
  9
$SURFTAB1
 70
     6
  9
$SURFTAB2
 70
     6
  9
$SURFTYPE
 70
     6
  9
$SURFU
 70
     6
  9
$SURFV
 70
     6
  9
$UCSNAME
  2

  9
$UCSORG
 10
0.0
 20
0.0
 30
0.0
  9
$UCSXDIR
 10
1.0
 20
0.0
 30
0.0
  9
$UCSYDIR
 10
0.0
 20
1.0
 30
0.0
  9
$PUCSNAME
  2

  9
$PUCSORG
 10
0.0
 20
0.0
 30
0.0
  9
$PUCSXDIR
 10
1.0
 20
0.0
 30
0.0
  9
$PUCSYDIR
 10
0.0
 20
1.0
 30
0.0
  9
$USERI1
 70
     0
  9
$USERI2
 70
     0
  9
$USERI3
 70
     0
  9
$USERI4
 70
     0
  9
$USERI5
 70
     0
  9
$USERR1
 40
20.0
  9
$USERR2
 40
0.0
  9
$USERR3
 40
0.0
  9
$USERR4
 40
0.0
  9
$USERR5
 40
0.0
  9
$WORLDVIEW
 70
     1
  9
$SHADEDGE
 70
     3
  9
$SHADEDIF
 70
    70
  9
$TILEMODE
 70
     1
  9
$MAXACTVP
 70
    48
  9
$PINSBASE
 10
0.0
 20
0.0
 30
0.0
  9
$PLIMCHECK
 70
     0
  9
$PEXTMIN
 10
-100000000000000000000.0
 20
-100000000000000000000.0
 30
-100000000000000000000.0
  9
$PEXTMAX
 10
100000000000000000000.0
 20
100000000000000000000.0
 30
100000000000000000000.0
  9
$PLIMMIN
 10
0.0
 20
0.0
  9
$PLIMMAX
 10
12.0
 20
9.0
  9
$UNITMODE
 70
     0
  9
$VISRETAIN
 70
     0
  9
$PLINEGEN
 70
     0
  9
$PSLTSCALE
 70
     0
  9
$TREEDEPTH
 70
  3020
  9
$ATTDIA
 70
     0
  9
$ATTREQ
 70
     1
  9
$BLIPMODE
 70
     1
  9
$COORDS
 70
     1
  9
$DRAGMODE
 70
     2
  9
$OSMODE
 70
     0
  9
$HANDLING
 70
     0
  9
$HANDSEED
  5
FE62
  0
ENDSEC
  0
SECTION
  2
TABLES
  0
TABLE
  2
LTYPE
 70
     2
  0
LTYPE
  2
CONTINUOUS
 70
     0
  3
実線
 72
    65
 73
     0
 40
0.0
  0
LTYPE
  2
DASHDOT
 70
     0
  3
____ _ ____ _ ____ _ ____ _ ____ _ ____ _ ____
 72
    65
 73
     4
 40
5.5
 49
4.0
 49
-0.6
 49
0.3
 49
-0.6
  0
ENDTAB
  0
TABLE
  2
LAYER
 70
    12
  0
LAYER
  2
0
 70
     0
 62
     7
  6
CONTINUOUS
  0
LAYER
  2
BASIS
 70
     0
 62
     6
  6
DASHDOT
  0
LAYER
  2
OUTLINE
 70
     0
 62
     3
  6
CONTINUOUS
  0
LAYER
  2
DETAIL
 70
     0
 62
     5
  6
CONTINUOUS
  0
LAYER
  2
SIZE
 70
     0
 62
    30
  6
CONTINUOUS
  0
LAYER
  2
ARRANGE
 70
     0
 62
     1
  6
CONTINUOUS
  0
LAYER
  2
DEFPOINTS
 70
     0
 62
     7
  6
CONTINUOUS
  0
LAYER
  2
ETC
 70
     0
 62
    61
  6
CONTINUOUS
  0
LAYER
  2
FIX
 70
     0
 62
    11
  6
CONTINUOUS
  0
LAYER
  2
NOTE
 70
     0
 62
     4
  6
CONTINUOUS
  0
LAYER
  2
SERVICESPACE
 70
    64
 62
     2
  6
DASHDOT
  0
LAYER
  2
SYMBOLLINE
 70
    64
 62
    15
  6
CONTINUOUS
  0
ENDTAB
  0
TABLE
  2
STYLE
 70
     1
  0
STYLE
  2
STANDARD
 70
     0
 40
64.0
 41
0.9
 50
0.0
 71
     0
 42
64.0
  3
SIMPLEX.shx
  4
BIGFONT.shx
  0
ENDTAB
  0
TABLE
  2
APPID
 70
    20
  0
APPID
  2
ACAD
 70
     0
  0
APPID
  2
AUTOCAD_POSTSCRIPT_FIGURE
 70
     0
  0
APPID
  2
ACAD_EXEMPT_FROM_CAD_STANDARDS
 70
     0
  0
APPID
  2
ACAD_PSEXT
 70
     0
  0
APPID
  2
ACAUTHENVIRON
 70
     0
  0
APPID
  2
GENIUS_GENOENT_13
 70
     0
  0
APPID
  2
GENIUS_GENCFG_13
 70
     0
  0
APPID
  2
GENIUS_GENCFG0_13
 70
     0
  0
APPID
  2
GENIUS_GENCFG1_13
 70
     0
  0
APPID
  2
GENIUS_GENCFG2_13
 70
     0
  0
APPID
  2
GENIUS_GENCFG3_13
 70
     0
  0
APPID
  2
GENIUS_GENCFG4_13
 70
     0
  0
APPID
  2
GENIUS_GEVCFG0_13
 70
     0
  0
APPID
  2
CONTENTBLOCKICON
 70
     0
  0
APPID
  2
CONTENTBLOCKDESCRIPTION
 70
     0
  0
APPID
  2
ACAD_NAV_VCDISPLAY
 70
     0
  0
APPID
  2
ACAD_MLEADERVER
 70
     0
  0
APPID
  2
ACDBDYNAMICBLOCKTRUENAME
 70
     0
  0
APPID
  2
ACDBDYNAMICBLOCKGUID
 70
     0
  0
APPID
  2
ACAD_DSTYLE_DIMRADIAL_EXTENSION
 70
     0
  0
ENDTAB
  0
TABLE
  2
DIMSTYLE
 70
     1
  0
DIMSTYLE
  2
STANDARD
 70
     0
  3

  4

  5
_ORIGIN
  6

  7

 40
1.0
 41
12.0
 42
20.0
 43
200.0
 44
20.0
 45
0.0
 46
0.0
 47
0.0
 48
0.0
140
64.0
141
0.09
142
0.0
143
25.399999999999999
144
1.0
145
0.0
146
1.0
147
25.0
 71
     0
 72
     0
 73
     0
 74
     0
 75
     0
 76
     0
 77
     1
 78
     8
170
     0
171
     2
172
     1
173
     0
174
     1
175
     0
176
     7
177
     7
178
     7
  0
ENDTAB
  0
TABLE
  2
VIEW
 70
     1
  0
VIEW
  2
ALL
 70
     0
 40
4282.6198079999986
 10
0.0
 20
41.309904000000003
 41
5940.0
 11
0.0
 21
0.0
 31
1.0
 12
0.0
 22
0.0
 32
0.0
 42
50.0
 43
0.0
 44
0.0
 50
0.0
 71
     0
  0
ENDTAB
  0
TABLE
  2
UCS
 70
     0
  0
ENDTAB
  0
TABLE
  2
VPORT
 70
     1
  0
VPORT
  2
*ACTIVE
 70
     0
 10
0.0
 20
0.0
 11
1.0
 21
1.0
 12
477.43150242305188
 22
80.429087020956104
 13
0.0
 23
0.0
 14
1.0
 24
1.0
 15
0.0
 25
0.0
 16
0.0
 26
0.0
 36
1.0
 17
0.0
 27
0.0
 37
0.0
 40
1048.3859559731909
 41
1.833137485311398
 42
50.0
 43
0.0
 44
0.0
 50
0.0
 51
0.0
 71
     0
 72
  1000
 73
     1
 74
     3
 75
     0
 76
     0
 77
     0
 78
     0
  0
ENDTAB
  0
ENDSEC
  0
SECTION
  2
BLOCKS
  0
BLOCK
  8
0
  2
_ORIGIN
 70
     0
 10
0.0
 20
0.0
 30
0.0
  3
_ORIGIN
  1
_ORIGIN
  0
CIRCLE
  8
SIZE
  6
CONTINUOUS
 62
    30
 10
0.0
 20
0.0
 30
0.0
 40
0.5
  0
LINE
  8
SIZE
  6
CONTINUOUS
 62
    30
 10
0.0
 20
0.0
 30
0.0
 11
-1.0
 21
0.0
 31
0.0
  0
ENDBLK
  8
0
  0
ENDSEC
  0
SECTION
  2
ENTITIES
  0
LINE
  8
DETAIL
  6
CONTINUOUS
 62
     5
 10
137.0
 20
-355.00000000000023
 30
0.0
 11
132.0
 21
-355.00000000000023
 31
0.0
  0
LINE
  8
DETAIL
  6
CONTINUOUS
 62
     5
 10
0.0000000000009095
 20
-350.00520382000008
 30
0.0
 11
1.5000000000009091
 21
-350.00520382000008
 31
0.0
  0
LINE
  8
DETAIL
  6
CONTINUOUS
 62
     5
 10
132.0
 20
-350.00000000000023
 30
0.0
 11
3.0000000000009091
 21
-350.00000000000023
 31
0.0
  0
LINE
  8
DETAIL
  6
CONTINUOUS
 62
     5
 10
142.00000000000361
 20
-307.75322442340013
 30
0.0
 11
145.00000000000361
 21
-307.75322442340013
 31
0.0
  0
LINE
  8
DETAIL
  6
CONTINUOUS
 62
     5
 10
148.80000000000649
 20
-297.97628894539997
 30
0.0
 11
145.20000000000439
 21
-297.97628894539997
 31
0.0
  0
LINE
  8
DETAIL
  6
CONTINUOUS
 62
     5
 10
147.50000000000361
 20
-293.79690351240009
 30
0.0
 11
142.00000000000361
 21
-293.79690351240009
 31
0.0
  0
LINE
  8
DETAIL
  6
CONTINUOUS
 62
     5
 10
149.0000000000073
 20
-292.97628894539997
 30
0.0
 11
147.50000000000361
 21
-292.97628894539997
 31
0.0
  0
LINE
  8
DETAIL
  6
CONTINUOUS
 62
     5
 10
142.00000000000361
 20
-287.29690351240009
 30
0.0
 11
147.50000000000361
 21
-287.29690351240009
 31
0.0
  0
LINE
  8
DETAIL
  6
CONTINUOUS
 62
     5
 10
142.00000000000361
 20
-280.79690351240009
 30
0.0
 11
147.50000000000361
 21
-280.79690351240009
 31
0.0
  0
LINE
  8
DETAIL
  6
CONTINUOUS
 62
     5
 10
148.80000000000649
 20
-274.11064790440008
 30
0.0
 11
145.20000000000439
 21
-274.11064790440008
 31
0.0
  0
LINE
  8
DETAIL
  6
CONTINUOUS
 62
     5
 10
149.0000000000073
 20
-270.46248173039999
 30
0.0
 11
247.89946229900491
 21
-270.46248173039999
 31
0.0
  0
LINE
  8
DETAIL
  6
CONTINUOUS
 62
     5
 10
149.0000000000073
 20
-269.11064790440008
 30
0.0
 11
145.00000000000361
 21
-269.11064790440008
 31
0.0
  0
LINE
  8
DETAIL
  6
CONTINUOUS
 62
     5
 10
3.0000000000009091
 20
-292.25735931300011
 30
0.0
 11
0.0000000000009095
 21
-292.25735931300011
 31
0.0
  0
LINE
  8
DETAIL
  6
CONTINUOUS
 62
     5
 10
148.80000000000649
 20
-264.11064790440008
 30
0.0
 11
145.20000000000439
 21
-264.11064790440008
 31
0.0
  0
LINE
  8
DETAIL
  6
CONTINUOUS
 62
     5
 10
142.00000000000361
 20
-254.3337124264001
 30
0.0
 11
145.00000000000361
 21
-254.3337124264001
 31
0.0
  0
LINE
  8
DETAIL
  6
CONTINUOUS
 62
     5
 10
357.99995660799868
 20
74.5
 30
0.0
 11
357.99995660799868
 21
-74.500000000000227
 31
0.0
  0
LINE
  8
DETAIL
  6
CONTINUOUS
 62
     5
 10
329.49995660799868
 20
-83.200000000000273
 30
0.0
 11
329.49995660799868
 21
-82.000000000000227
 31
0.0
  0
LINE
  8
DETAIL
  6
CONTINUOUS
 62
     5
 10
327.49995660800232
 20
-94.200000000000273
 30
0.0
 11
327.49995660800232
 21
-85.200000000000273
 31
0.0
  0
LINE
  8
DETAIL
  6
CONTINUOUS
 62
     5
 10
324.69574564899989
 20
-94.200000000000273
 30
0.0
 11
324.69574564899989
 21
-97.206321594000201
 31
0.0
  0
LINE
  8
DETAIL
  6
CONTINUOUS
 62
     5
 10
321.89995660800378
 20
-76.442087733000108
 30
0.0
 11
321.89995660800741
 21
-241.83118765440011
 31
0.0
  0
LINE
  8
DETAIL
  6
CONTINUOUS
 62
     5
 10
321.89995660800378
 20
76.44208773399987
 30
0.0
 11
321.89995660800832
 21
241.7486881723942
 31
0.0
  0
LINE
  8
DETAIL
  6
CONTINUOUS
 62
     5
 10
312.28670795400279
 20
100.36785931899981
 30
0.0
 11
315.17345930000192
 21
96.537637103999941
 31
0.0
  0
LINE
  8
DETAIL
  6
CONTINUOUS
 62
     5
 10
312.28670795400279
 20
88.792143648999854
 30
0.0
 11
315.17345930000192
 21
84.961921432999816
 31
0.0
  0
LINE
  8
DETAIL
  6
CONTINUOUS
 62
     5
 10
315.17345930000192
 20
-96.455137620000187
 30
0.0
 11
312.28670795400279
 21
-100.2853598360002
 31
0.0
  0
LINE
  8
DETAIL
  6
CONTINUOUS
 62
     5
 10
315.17345930000192
 20
-84.964470974000051
 30
0.0
 11
312.28670795400279
 21
-88.7946931890001
 31
0.0
  0
LINE
  8
DETAIL
  6
CONTINUOUS
 62
     5
 10
315.17345930000192
 20
96.537637103999941
 30
0.0
 11
315.17345930000192
 21
93.610756422999884
 31
0.0
  0
LINE
  8
DETAIL
  6
CONTINUOUS
 62
     5
 10
315.17345930000192
 20
84.961921432999816
 30
0.0
 11
315.17345930000192
 21
82.035040752999976
 31
0.0
  0
LINE
  8
DETAIL
  6
CONTINUOUS
 62
     5
 10
315.17345930000192
 20
-96.455137620000187
 30
0.0
 11
315.17345930000192
 21
-93.528256940000119
 31
0.0
  0
LINE
  8
DETAIL
  6
CONTINUOUS
 62
     5
 10
315.17345930000192
 20
-84.964470974000051
 30
0.0
 11
315.17345930000192
 21
-82.037590293000221
 31
0.0
  0
LINE
  8
DETAIL
  6
CONTINUOUS
 62
     5
 10
303.62645391600199
 20
96.537637103999941
 30
0.0
 11
303.62645391600199
 21
93.610756422999884
 31
0.0
  0
LINE
  8
DETAIL
  6
CONTINUOUS
 62
     5
 10
303.62645391700238
 20
84.961921432999816
 30
0.0
 11
303.62645391700238
 21
82.035040752999976
 31
0.0
  0
LINE
  8
DETAIL
  6
CONTINUOUS
 62
     5
 10
303.62645391600199
 20
-96.455137620000187
 30
0.0
 11
303.62645391600199
 21
-93.528256940000119
 31
0.0
  0
LINE
  8
DETAIL
  6
CONTINUOUS
 62
     5
 10
303.62645391600199
 20
-84.964470974000051
 30
0.0
 11
303.62645391600199
 21
-82.037590293000221
 31
0.0
  0
LINE
  8
DETAIL
  6
CONTINUOUS
 62
     5
 10
297.39995660800008
 20
-74.581681361000165
 30
0.0
 11
297.39995660800008
 21
-64.981681361000028
 31
0.0
  0
LINE
  8
DETAIL
  6
CONTINUOUS
 62
     5
 10
297.39995660800008
 20
64.98168136199979
 30
0.0
 11
297.39995660800008
 21
74.581681361999927
 31
0.0
  0
LINE
  8
DETAIL
  6
CONTINUOUS
 62
     5
 10
296.89995660800378
 20
-77.301477001999956
 30
0.0
 11
296.89995660800741
 21
-239.82032534240011
 31
0.0
  0
LINE
  8
DETAIL
  6
CONTINUOUS
 62
     5
 10
296.89995660800378
 20
77.301477001999956
 30
0.0
 11
296.89995660800832
 21
239.82032534339419
 31
0.0
  0
LINE
  8
DETAIL
  6
CONTINUOUS
 62
     5
 10
293.39995660800378
 20
-101.3252804140002
 30
0.0
 11
293.39995660800378
 21
101.32528041399971
 31
0.0
  0
LINE
  8
DETAIL
  6
CONTINUOUS
 62
     5
 10
290.39995660800008
 20
-101.3252804140002
 30
0.0
 11
290.39995660800008
 21
101.32528041399971
 31
0.0
  0
LINE
  8
DETAIL
  6
CONTINUOUS
 62
     5
 10
296.89995660800378
 20
-105.18200607200011
 30
0.0
 11
296.39995660800008
 21
-105.18200607200011
 31
0.0
  0
LINE
  8
DETAIL
  6
CONTINUOUS
 62
     5
 10
296.89995660800378
 20
-103.2536432430002
 30
0.0
 11
296.39995660800008
 21
-103.2536432430002
 31
0.0
  0
LINE
  8
DETAIL
  6
CONTINUOUS
 62
     5
 10
312.28670795400279
 20
-100.2853598360002
 30
0.0
 11
306.51320526200112
 21
-100.2853598360002
 31
0.0
  0
LINE
  8
DETAIL
  6
CONTINUOUS
 62
     5
 10
290.39995660800008
 20
-96.000000000000227
 30
0.0
 11
286.39995660800008
 21
-96.000000000000227
 31
0.0
  0
LINE
  8
DETAIL
  6
CONTINUOUS
 62
     5
 10
286.39995660800008
 20
-94.550000000000182
 30
0.0
 11
283.19995660800299
 21
-94.550000000000182
 31
0.0
  0
LINE
  8
DETAIL
  6
CONTINUOUS
 62
     5
 10
321.89995660800378
 20
-94.200000000000273
 30
0.0
 11
327.49982251499932
 21
-94.200000000000273
 31
0.0
  0
LINE
  8
DETAIL
  6
CONTINUOUS
 62
     5
 10
286.39995660800008
 20
-95.999877848000096
 30
0.0
 11
286.39995660800008
 21
95.999877847999869
 31
0.0
  0
LINE
  8
DETAIL
  6
CONTINUOUS
 62
     5
 10
283.19995660800299
 20
94.549999999999955
 30
0.0
 11
283.19995660800299
 21
86.449999999999818
 31
0.0
  0
LINE
  8
DETAIL
  6
CONTINUOUS
 62
     5
 10
283.19995660800299
 20
-86.450000000000273
 30
0.0
 11
283.19995660800299
 21
-94.550000000000182
 31
0.0
  0
LINE
  8
DETAIL
  6
CONTINUOUS
 62
     5
 10
281.39995660800008
 20
74.781681361999972
 30
0.0
 11
281.39995660800008
 21
64.781681361999972
 31
0.0
  0
LINE
  8
DETAIL
  6
CONTINUOUS
 62
     5
 10
281.39995660800008
 20
-64.78168136100021
 30
0.0
 11
281.39995660800008
 21
-74.78168136100021
 31
0.0
  0
LINE
  8
DETAIL
  6
CONTINUOUS
 62
     5
 10
280.39995660800008
 20
91.994698136999887
 30
0.0
 11
280.39995660800008
 21
89.005301863999875
 31
0.0
  0
LINE
  8
DETAIL
  6
CONTINUOUS
 62
     5
 10
280.39995660800008
 20
-89.005301863000113
 30
0.0
 11
280.39995660800008
 21
-91.994698136000125
 31
0.0
  0
LINE
  8
DETAIL
  6
CONTINUOUS
 62
     5
 10
279.39995660800378
 20
72.781681361999745
 30
0.0
 11
279.39995660800378
 21
66.781681361999745
 31
0.0
  0
LINE
  8
DETAIL
  6
CONTINUOUS
 62
     5
 10
279.39995660800378
 20
-66.78168136100021
 30
0.0
 11
279.39995660800378
 21
-72.78168136100021
 31
0.0
  0
LINE
  8
DETAIL
  6
CONTINUOUS
 62
     5
 10
146.91944341547881
 20
294.71995752939779
 30
0.0
 11
147.49999999947701
 21
293.71440402939771
 31
0.0
  0
LINE
  8
DETAIL
  6
CONTINUOUS
 62
     5
 10
286.39995660800008
 20
-92.522437298000114
 30
0.0
 11
283.19995660800299
 21
-92.522437298000114
 31
0.0
  0
LINE
  8
DETAIL
  6
CONTINUOUS
 62
     5
 10
283.19995660800299
 20
-92.000000000000227
 30
0.0
 11
280.39995660800008
 21
-92.000000000000227
 31
0.0
  0
LINE
  8
DETAIL
  6
CONTINUOUS
 62
     5
 10
283.19995660800299
 20
-89.0
 30
0.0
 11
280.39995660800008
 21
-89.0
 31
0.0
  0
LINE
  8
DETAIL
  6
CONTINUOUS
 62
     5
 10
312.28670795400279
 20
-88.7946931890001
 30
0.0
 11
306.51320526200112
 21
-88.7946931890001
 31
0.0
  0
LINE
  8
DETAIL
  6
CONTINUOUS
 62
     5
 10
286.39995660800008
 20
-88.477562701000124
 30
0.0
 11
283.19995660800299
 21
-88.477562701000124
 31
0.0
  0
LINE
  8
DETAIL
  6
CONTINUOUS
 62
     5
 10
286.39995660800008
 20
-86.450000000000273
 30
0.0
 11
283.19995660800299
 21
-86.450000000000273
 31
0.0
  0
LINE
  8
DETAIL
  6
CONTINUOUS
 62
     5
 10
321.89995660800378
 20
-84.200000000000273
 30
0.0
 11
328.49995660800232
 21
-84.200000000000273
 31
0.0
  0
LINE
  8
DETAIL
  6
CONTINUOUS
 62
     5
 10
350.49995660799868
 20
-82.000000000000227
 30
0.0
 11
321.89995660800378
 21
-82.000000000000227
 31
0.0
  0
LINE
  8
DETAIL
  6
CONTINUOUS
 62
     5
 10
281.89995660800378
 20
-81.700000000000273
 30
0.0
 11
225.0
 21
-81.700000000000045
 31
0.0
  0
LINE
  8
DETAIL
  6
CONTINUOUS
 62
     5
 10
318.89995660800008
 20
-74.920844189000036
 30
0.0
 11
299.89995660800008
 21
-74.920844189000036
 31
0.0
  0
LINE
  8
DETAIL
  6
CONTINUOUS
 62
     5
 10
297.19995660799941
 20
-74.78168136100021
 30
0.0
 11
293.59995660800092
 21
-74.78168136100021
 31
0.0
  0
LINE
  8
DETAIL
  6
CONTINUOUS
 62
     5
 10
286.39995660800008
 20
-74.78168136100021
 30
0.0
 11
281.39995660800008
 21
-74.78168136100021
 31
0.0
  0
LINE
  8
DETAIL
  6
CONTINUOUS
 62
     5
 10
297.39995660800008
 20
-74.143954404000169
 30
0.0
 11
318.89995660800008
 21
-74.143954404000169
 31
0.0
  0
LINE
  8
DETAIL
  6
CONTINUOUS
 62
     5
 10
281.39995660800008
 20
-72.78168136100021
 30
0.0
 11
279.39995660800378
 21
-72.78168136100021
 31
0.0
  0
LINE
  8
DETAIL
  6
CONTINUOUS
 62
     5
 10
297.39995660800008
 20
-69.78168136100021
 30
0.0
 11
293.39995660800378
 21
-69.78168136100021
 31
0.0
  0
LINE
  8
DETAIL
  6
CONTINUOUS
 62
     5
 10
286.39995660800008
 20
-69.78168136100021
 30
0.0
 11
281.39995660800378
 21
-69.78168136100021
 31
0.0
  0
LINE
  8
DETAIL
  6
CONTINUOUS
 62
     5
 10
281.39995660800008
 20
-66.78168136100021
 30
0.0
 11
279.39995660800378
 21
-66.78168136100021
 31
0.0
  0
LINE
  8
DETAIL
  6
CONTINUOUS
 62
     5
 10
297.19995660799941
 20
-64.78168136100021
 30
0.0
 11
293.59995660800092
 21
-64.78168136100021
 31
0.0
  0
LINE
  8
DETAIL
  6
CONTINUOUS
 62
     5
 10
286.39995660800008
 20
-64.78168136100021
 30
0.0
 11
281.39995660800008
 21
-64.78168136100021
 31
0.0
  0
LINE
  8
DETAIL
  6
CONTINUOUS
 62
     5
 10
306.51320526200112
 20
-88.7946931890001
 30
0.0
 11
303.62645391600199
 21
-84.964470974000051
 31
0.0
  0
LINE
  8
DETAIL
  6
CONTINUOUS
 62
     5
 10
306.51320526200112
 20
-100.2853598360002
 30
0.0
 11
303.62645391600199
 21
-96.455137620000187
 31
0.0
  0
LINE
  8
DETAIL
  6
CONTINUOUS
 62
     5
 10
303.62645391700238
 20
84.961921432999816
 30
0.0
 11
306.51320526200112
 21
88.792143648999854
 31
0.0
  0
LINE
  8
DETAIL
  6
CONTINUOUS
 62
     5
 10
303.62645391600199
 20
96.537637103999941
 30
0.0
 11
306.51320526200112
 21
100.36785931899981
 31
0.0
  0
LINE
  8
DETAIL
  6
CONTINUOUS
 62
     5
 10
132.0
 20
-0.5
 30
0.0
 11
0.0000000000009095
 21
-0.5
 31
0.0
  0
LINE
  8
BASIS
  6
DASHDOT
 62
     6
 10
373.8253001030007
 20
0.0
 30
0.0
 11
-15.97904075300085
 21
0.0
 31
0.0
  0
LINE
  8
DETAIL
  6
CONTINUOUS
 62
     5
 10
132.0
 20
0.5
 30
0.0
 11
0.0000000000009095
 21
0.5
 31
0.0
  0
LINE
  8
DETAIL
  6
CONTINUOUS
 62
     5
 10
297.19995660799941
 20
64.781681361999972
 30
0.0
 11
293.59995660800092
 21
64.781681361999972
 31
0.0
  0
LINE
  8
DETAIL
  6
CONTINUOUS
 62
     5
 10
286.39995660800008
 20
64.781681361999972
 30
0.0
 11
281.39995660800008
 21
64.781681361999972
 31
0.0
  0
LINE
  8
DETAIL
  6
CONTINUOUS
 62
     5
 10
149.0000000000073
 20
-297.77628894539998
 30
0.0
 11
149.0000000000073
 21
-291.54195563740001
 31
0.0
  0
LINE
  8
DETAIL
  6
CONTINUOUS
 62
     5
 10
149.0000000000073
 20
-273.91064790439992
 30
0.0
 11
149.0000000000073
 21
-264.31064790440001
 31
0.0
  0
LINE
  8
DETAIL
  6
CONTINUOUS
 62
     5
 10
148.99999999948071
 20
291.54195563739768
 30
0.0
 11
148.99999999948071
 21
297.69378946339788
 31
0.0
  0
LINE
  8
DETAIL
  6
CONTINUOUS
 62
     5
 10
147.50000000000361
 20
-293.79690351240009
 30
0.0
 11
147.50000000000361
 21
-280.79690351240009
 31
0.0
  0
LINE
  8
DETAIL
  6
CONTINUOUS
 62
     5
 10
147.49999999947701
 20
280.71473591239783
 30
0.0
 11
147.49999999947701
 21
293.7140721473977
 31
0.0
  0
LINE
  8
DETAIL
  6
CONTINUOUS
 62
     5
 10
145.00000000000361
 20
-307.75322442340013
 30
0.0
 11
145.00000000000361
 21
-293.79690351240009
 31
0.0
  0
LINE
  8
DETAIL
  6
CONTINUOUS
 62
     5
 10
145.00000000000361
 20
-280.79690351240009
 30
0.0
 11
145.00000000000361
 21
-254.3337124264001
 31
0.0
  0
LINE
  8
DETAIL
  6
CONTINUOUS
 62
     5
 10
144.99999999947701
 20
294.71995752939779
 30
0.0
 11
144.99999999947701
 21
307.67072494139779
 31
0.0
  0
LINE
  8
DETAIL
  6
CONTINUOUS
 62
     5
 10
142.0
 20
-350.00000000000023
 30
0.0
 11
142.0
 21
350.0
 31
0.0
  0
LINE
  8
DETAIL
  6
CONTINUOUS
 62
     5
 10
281.39995660800008
 20
66.781681361999745
 30
0.0
 11
279.39995660800378
 21
66.781681361999745
 31
0.0
  0
LINE
  8
DETAIL
  6
CONTINUOUS
 62
     5
 10
297.39995660800008
 20
69.781681361999972
 30
0.0
 11
293.39995660800378
 21
69.781681361999972
 31
0.0
  0
LINE
  8
DETAIL
  6
CONTINUOUS
 62
     5
 10
286.39995660800008
 20
69.781681361999972
 30
0.0
 11
281.39995660800008
 21
69.781681361999972
 31
0.0
  0
LINE
  8
DETAIL
  6
CONTINUOUS
 62
     5
 10
281.39995660800008
 20
72.781681361999745
 30
0.0
 11
279.39995660800378
 21
72.781681361999745
 31
0.0
  0
LINE
  8
DETAIL
  6
CONTINUOUS
 62
     5
 10
297.39995660800008
 20
74.143954404999931
 30
0.0
 11
318.89995660800008
 21
74.143954404999931
 31
0.0
  0
LINE
  8
DETAIL
  6
CONTINUOUS
 62
     5
 10
297.19995660799941
 20
74.781681361999972
 30
0.0
 11
293.59995660800092
 21
74.781681361999972
 31
0.0
  0
LINE
  8
DETAIL
  6
CONTINUOUS
 62
     5
 10
286.39995660800008
 20
74.781681361999972
 30
0.0
 11
281.39995660800008
 21
74.781681361999972
 31
0.0
  0
LINE
  8
DETAIL
  6
CONTINUOUS
 62
     5
 10
318.89995660800008
 20
75.00334367299979
 30
0.0
 11
299.89995660800008
 21
75.00334367299979
 31
0.0
  0
LINE
  8
DETAIL
  6
CONTINUOUS
 62
     5
 10
350.49995660799868
 20
81.999999999999773
 30
0.0
 11
321.89995660800378
 21
81.999999999999773
 31
0.0
  0
LINE
  8
DETAIL
  6
CONTINUOUS
 62
     5
 10
281.89995660800378
 20
81.699999999999818
 30
0.0
 11
225.0
 21
81.699999999999818
 31
0.0
  0
LINE
  8
DETAIL
  6
CONTINUOUS
 62
     5
 10
132.0
 20
-355.00000000000023
 30
0.0
 11
132.0
 21
355.0
 31
0.0
  0
LINE
  8
DETAIL
  6
CONTINUOUS
 62
     5
 10
286.39995660800008
 20
86.449999999999818
 30
0.0
 11
283.19995660800299
 21
86.449999999999818
 31
0.0
  0
LINE
  8
DETAIL
  6
CONTINUOUS
 62
     5
 10
286.39995660800008
 20
88.477562701999886
 30
0.0
 11
283.19995660800299
 21
88.477562701999886
 31
0.0
  0
LINE
  8
DETAIL
  6
CONTINUOUS
 62
     5
 10
306.51320526200112
 20
88.792143648999854
 30
0.0
 11
312.28670795400279
 21
88.792143648999854
 31
0.0
  0
LINE
  8
DETAIL
  6
CONTINUOUS
 62
     5
 10
283.19995660800299
 20
89.0
 30
0.0
 11
280.39995660800008
 21
89.0
 31
0.0
  0
LINE
  8
DETAIL
  6
CONTINUOUS
 62
     5
 10
283.19995660800299
 20
92.0
 30
0.0
 11
280.39995660800008
 21
92.0
 31
0.0
  0
LINE
  8
DETAIL
  6
CONTINUOUS
 62
     5
 10
286.39995660800008
 20
92.522437298999876
 30
0.0
 11
283.19995660800299
 21
92.522437298999876
 31
0.0
  0
LINE
  8
DETAIL
  6
CONTINUOUS
 62
     5
 10
286.39995660800008
 20
94.549999999999955
 30
0.0
 11
283.19995660800299
 21
94.549999999999955
 31
0.0
  0
LINE
  8
DETAIL
  6
CONTINUOUS
 62
     5
 10
290.39995660800008
 20
95.999999999999773
 30
0.0
 11
286.39995660800008
 21
95.999999999999773
 31
0.0
  0
LINE
  8
DETAIL
  6
CONTINUOUS
 62
     5
 10
306.51320526200112
 20
100.36785931899981
 30
0.0
 11
312.28670795400279
 21
100.36785931899981
 31
0.0
  0
LINE
  8
DETAIL
  6
CONTINUOUS
 62
     5
 10
296.89995660800378
 20
103.2536432429997
 30
0.0
 11
296.39995660800008
 21
103.2536432429997
 31
0.0
  0
LINE
  8
DETAIL
  6
CONTINUOUS
 62
     5
 10
296.89995660800378
 20
105.18200607199989
 30
0.0
 11
296.39995660800008
 21
105.18200607199989
 31
0.0
  0
LINE
  8
DETAIL
  6
CONTINUOUS
 62
     5
 10
3.0000000000009091
 20
-350.00000000000023
 30
0.0
 11
3.0000000000009091
 21
-348.94454364800032
 31
0.0
  0
LINE
  8
DETAIL
  6
CONTINUOUS
 62
     5
 10
3.0000000000009091
 20
-295.0554563510002
 30
0.0
 11
3.0000000000009091
 21
-292.25735931300011
 31
0.0
  0
LINE
  8
DETAIL
  6
CONTINUOUS
 62
     5
 10
3.0000000000009091
 20
292.25735931299982
 30
0.0
 11
3.0000000000009091
 21
295.05545635200002
 31
0.0
  0
LINE
  8
DETAIL
  6
CONTINUOUS
 62
     5
 10
3.0000000000009091
 20
348.94454364900002
 30
0.0
 11
3.0000000000009091
 21
350.0
 31
0.0
  0
LINE
  8
DETAIL
  6
CONTINUOUS
 62
     5
 10
2.0000000000009091
 20
0.5
 30
0.0
 11
2.0000000000009091
 21
-0.5
 31
0.0
  0
LINE
  8
DETAIL
  6
CONTINUOUS
 62
     5
 10
1.5000000000009091
 20
-296.11611652300007
 30
0.0
 11
1.5000000000009091
 21
-350.00520382000008
 31
0.0
  0
LINE
  8
DETAIL
  6
CONTINUOUS
 62
     5
 10
1.5000000000009091
 20
296.11611652399978
 30
0.0
 11
1.5000000000009091
 21
350.00520381999991
 31
0.0
  0
LINE
  8
DETAIL
  6
CONTINUOUS
 62
     5
 10
0.0000000000009095
 20
350.00520381999991
 30
0.0
 11
0.0000000000009095
 21
296.11611652399978
 31
0.0
  0
LINE
  8
DETAIL
  6
CONTINUOUS
 62
     5
 10
0.0000000000009095
 20
292.25735931299982
 30
0.0
 11
0.0000000000009095
 21
0.5
 31
0.0
  0
LINE
  8
DETAIL
  6
CONTINUOUS
 62
     5
 10
0.0000000000009095
 20
-350.00520382000008
 30
0.0
 11
0.0000000000009095
 21
-296.11611652300007
 31
0.0
  0
LINE
  8
DETAIL
  6
CONTINUOUS
 62
     5
 10
0.0000000000009095
 20
-292.25735931300011
 30
0.0
 11
0.0000000000009095
 21
-0.5
 31
0.0
  0
LINE
  8
DETAIL
  6
CONTINUOUS
 62
     5
 10
146.91944341547881
 20
279.70885053039768
 30
0.0
 11
147.49999999947701
 21
280.71440402939771
 31
0.0
  0
LINE
  8
DETAIL
  6
CONTINUOUS
 62
     5
 10
3.0000000000009091
 20
292.25735931299982
 30
0.0
 11
0.0000000000009095
 21
292.25735931299982
 31
0.0
  0
LINE
  8
DETAIL
  6
CONTINUOUS
 62
     5
 10
247.89946229900491
 20
270.46248173039982
 30
0.0
 11
148.0000000000073
 21
270.46248173039982
 31
0.0
  0
LINE
  8
DETAIL
  6
CONTINUOUS
 62
     5
 10
141.99999999947701
 20
279.70885053039768
 30
0.0
 11
146.91944341547881
 21
279.70885053039768
 31
0.0
  0
LINE
  8
DETAIL
  6
CONTINUOUS
 62
     5
 10
141.99999999947701
 20
283.46162728039781
 30
0.0
 11
147.4999999994734
 21
283.46162728039758
 31
0.0
  0
LINE
  8
DETAIL
  6
CONTINUOUS
 62
     5
 10
147.5000000000073
 20
289.61359280839969
 30
0.0
 11
247.89946229900491
 21
289.61359280839969
 31
0.0
  0
LINE
  8
DETAIL
  6
CONTINUOUS
 62
     5
 10
141.99999999947701
 20
290.96718077939772
 30
0.0
 11
147.4999999994734
 21
290.96718077939772
 31
0.0
  0
LINE
  8
DETAIL
  6
CONTINUOUS
 62
     5
 10
147.5000000000073
 20
291.54195563739972
 30
0.0
 11
247.89946229900491
 21
291.54195563739972
 31
0.0
  0
LINE
  8
DETAIL
  6
CONTINUOUS
 62
     5
 10
148.99999999948071
 20
292.89378946339781
 30
0.0
 11
147.49999999947701
 21
292.89378946339781
 31
0.0
  0
LINE
  8
DETAIL
  6
CONTINUOUS
 62
     5
 10
141.99999999947701
 20
294.71995752939779
 30
0.0
 11
146.91944341547881
 21
294.71995752939779
 31
0.0
  0
LINE
  8
DETAIL
  6
CONTINUOUS
 62
     5
 10
148.79999999948001
 20
297.89378946339781
 30
0.0
 11
145.1999999994778
 21
297.89378946339781
 31
0.0
  0
LINE
  8
DETAIL
  6
CONTINUOUS
 62
     5
 10
141.99999999947701
 20
307.67072494139779
 30
0.0
 11
144.99999999947701
 21
307.67072494139779
 31
0.0
  0
LINE
  8
DETAIL
  6
CONTINUOUS
 62
     5
 10
132.0
 20
350.0
 30
0.0
 11
3.0000000000009091
 21
350.0
 31
0.0
  0
LINE
  8
DETAIL
  6
CONTINUOUS
 62
     5
 10
0.0000000000009095
 20
350.00520381999991
 30
0.0
 11
1.5000000000009091
 21
350.00520381999991
 31
0.0
  0
LINE
  8
DETAIL
  6
CONTINUOUS
 62
     5
 10
137.0
 20
355.0
 30
0.0
 11
132.0
 21
355.0
 31
0.0
  0
ARC
  8
DETAIL
  6
CONTINUOUS
 62
     5
 10
283.73997533500187
 20
-239.81955729640001
 30
0.0
 40
38.159981281
 50
357.10463971370251
 51
359.99884680710483
  0
ARC
  8
DETAIL
  6
CONTINUOUS
 62
     5
 10
350.49995660799868
 20
-74.500000000000227
 30
0.0
 40
7.5
 50
270.0
 51
0.0
  0
ARC
  8
DETAIL
  6
CONTINUOUS
 62
     5
 10
281.89995660800378
 20
-86.200000000000273
 30
0.0
 40
4.5
 50
0.0
 51
90.0
  0
ARC
  8
DETAIL
  6
CONTINUOUS
 62
     5
 10
328.49995660800232
 20
-83.200000000000273
 30
0.0
 40
1.0
 50
270.0
 51
0.0
  0
ARC
  8
DETAIL
  6
CONTINUOUS
 62
     5
 10
328.49995660800232
 20
-85.200000000000273
 30
0.0
 40
1.0
 50
90.0
 51
180.0
  0
ARC
  8
DETAIL
  6
CONTINUOUS
 62
     5
 10
297.19995660799941
 20
-64.981681361000028
 30
0.0
 40
0.2
 50
0.0
 51
89.999999999895778
  0
ARC
  8
DETAIL
  6
CONTINUOUS
 62
     5
 10
297.19995660799941
 20
-74.581681361000165
 30
0.0
 40
0.2
 50
270.00000000010431
 51
0.0
  0
ARC
  8
DETAIL
  6
CONTINUOUS
 62
     5
 10
293.59995660800092
 20
-74.581681361000165
 30
0.0
 40
0.2
 50
180.00000000010431
 51
270.00000000010431
  0
ARC
  8
DETAIL
  6
CONTINUOUS
 62
     5
 10
293.59995660800092
 20
-64.981681361000028
 30
0.0
 40
0.2
 50
89.999999999895778
 51
180.0
  0
ARC
  8
DETAIL
  6
CONTINUOUS
 62
     5
 10
283.73997533500278
 20
239.81955729639441
 30
0.0
 40
38.159981281
 50
0.0011531928952277
 51
2.8953602862975041
  0
ARC
  8
DETAIL
  6
CONTINUOUS
 62
     5
 10
350.49995660799868
 20
74.5
 30
0.0
 40
7.5
 50
0.0
 51
90.0
  0
ARC
  8
DETAIL
  6
CONTINUOUS
 62
     5
 10
281.89995660800378
 20
86.199999999999818
 30
0.0
 40
4.5
 50
270.0
 51
0.0
  0
ARC
  8
DETAIL
  6
CONTINUOUS
 62
     5
 10
297.19995660799941
 20
74.581681361999927
 30
0.0
 40
0.2
 50
0.0
 51
89.999999999895778
  0
ARC
  8
DETAIL
  6
CONTINUOUS
 62
     5
 10
297.19995660799941
 20
64.98168136199979
 30
0.0
 40
0.2
 50
270.00000000010431
 51
0.0
  0
ARC
  8
DETAIL
  6
CONTINUOUS
 62
     5
 10
293.59995660800092
 20
64.98168136199979
 30
0.0
 40
0.2
 50
180.00000000010431
 51
270.00000000010431
  0
ARC
  8
DETAIL
  6
CONTINUOUS
 62
     5
 10
293.59995660800092
 20
74.581681361999927
 30
0.0
 40
0.2
 50
89.999999999895778
 51
180.0
  0
ARC
  8
DETAIL
  6
CONTINUOUS
 62
     5
 10
137.0
 20
-350.00000000000023
 30
0.0
 40
5.0
 50
270.0
 51
0.0
  0
ARC
  8
DETAIL
  6
CONTINUOUS
 62
     5
 10
3.0000000000009091
 20
-347.0
 30
0.0
 40
3.0
 50
241.9222347198515
 51
270.0
  0
ARC
  8
DETAIL
  6
CONTINUOUS
 62
     5
 10
148.80000000000649
 20
-297.77628894539998
 30
0.0
 40
0.2
 50
270.00000000010431
 51
0.0
  0
ARC
  8
DETAIL
  6
CONTINUOUS
 62
     5
 10
145.20000000000439
 20
-297.77628894539998
 30
0.0
 40
0.2
 50
180.00000000010431
 51
270.00000000010431
  0
ARC
  8
DETAIL
  6
CONTINUOUS
 62
     5
 10
148.80000000000649
 20
-264.31064790440001
 30
0.0
 40
0.2
 50
0.0
 51
89.999999999895778
  0
ARC
  8
DETAIL
  6
CONTINUOUS
 62
     5
 10
148.80000000000649
 20
-273.91064790439992
 30
0.0
 40
0.2
 50
270.00000000010431
 51
0.0
  0
ARC
  8
DETAIL
  6
CONTINUOUS
 62
     5
 10
145.20000000000439
 20
-264.31064790440001
 30
0.0
 40
0.2
 50
89.999999999895778
 51
180.0
  0
ARC
  8
DETAIL
  6
CONTINUOUS
 62
     5
 10
145.20000000000439
 20
-273.91064790439992
 30
0.0
 40
0.2
 50
180.00000000010431
 51
270.00000000010431
  0
ARC
  8
DETAIL
  6
CONTINUOUS
 62
     5
 10
137.0
 20
350.0
 30
0.0
 40
5.0
 50
0.0
 51
90.0
  0
ARC
  8
DETAIL
  6
CONTINUOUS
 62
     5
 10
3.0000000000009091
 20
347.0
 30
0.0
 40
3.0
 50
90.0
 51
118.0777652801486
  0
ARC
  8
DETAIL
  6
CONTINUOUS
 62
     5
 10
144.69529046847771
 20
281.58551024039781
 30
0.0
 40
2.8047095440000001
 50
357.05256286470012
 51
359.99445703500129
  0
ARC
  8
DETAIL
  6
CONTINUOUS
 62
     5
 10
144.6953140034793
 20
292.84329772139768
 30
0.0
 40
2.8046860090000001
 50
0.0055449827971396
 51
2.9474423390045832
  0
ARC
  8
DETAIL
  6
CONTINUOUS
 62
     5
 10
148.79999999948001
 20
297.69378946339788
 30
0.0
 40
0.2
 50
0.0
 51
89.999999999895778
  0
ARC
  8
DETAIL
  6
CONTINUOUS
 62
     5
 10
145.1999999994778
 20
297.69378946339788
 30
0.0
 40
0.2
 50
89.999999999895778
 51
180.0
  0
LINE
  8
DETAIL
  6
CONTINUOUS
 62
     5
 10
315.17345930000192
 20
-93.528256940000119
 30
0.0
 11
312.28670795400279
 21
-89.698034724000081
 31
0.0
  0
LINE
  8
DETAIL
  6
CONTINUOUS
 62
     5
 10
312.28670795400279
 20
-89.698034724000081
 30
0.0
 11
306.51320526200112
 21
-89.698034724000081
 31
0.0
  0
LINE
  8
DETAIL
  6
CONTINUOUS
 62
     5
 10
306.51320526200112
 20
-89.698034724000081
 30
0.0
 11
303.62645391600199
 21
-93.528256940000119
 31
0.0
  0
LINE
  8
DETAIL
  6
CONTINUOUS
 62
     5
 10
312.28670795400279
 20
-78.2073680780004
 30
0.0
 11
315.17345930000192
 21
-82.037590293000221
 31
0.0
  0
LINE
  8
DETAIL
  6
CONTINUOUS
 62
     5
 10
303.62645391600199
 20
-82.037590293000221
 30
0.0
 11
306.51320526200112
 21
-78.2073680780004
 31
0.0
  0
LINE
  8
DETAIL
  6
CONTINUOUS
 62
     5
 10
306.51320526200112
 20
-78.2073680780004
 30
0.0
 11
312.28670795400279
 21
-78.2073680780004
 31
0.0
  0
LINE
  8
DETAIL
  6
CONTINUOUS
 62
     5
 10
315.17345930000192
 20
82.035040752999976
 30
0.0
 11
312.28670795400279
 21
78.204818537999927
 31
0.0
  0
LINE
  8
DETAIL
  6
CONTINUOUS
 62
     5
 10
312.28670795400279
 20
78.204818537999927
 30
0.0
 11
306.51320526200112
 21
78.204818537999927
 31
0.0
  0
LINE
  8
DETAIL
  6
CONTINUOUS
 62
     5
 10
306.51320526200112
 20
78.204818537999927
 30
0.0
 11
303.62645391600199
 21
82.035040752999976
 31
0.0
  0
LINE
  8
DETAIL
  6
CONTINUOUS
 62
     5
 10
315.17345930000192
 20
93.610756422999884
 30
0.0
 11
312.28670795400279
 21
89.780534207999835
 31
0.0
  0
LINE
  8
DETAIL
  6
CONTINUOUS
 62
     5
 10
312.28670795400279
 20
89.780534207999835
 30
0.0
 11
306.51320526200112
 21
89.780534207999835
 31
0.0
  0
LINE
  8
DETAIL
  6
CONTINUOUS
 62
     5
 10
306.51320526200112
 20
89.780534207999835
 30
0.0
 11
303.62645391600199
 21
93.610756422999884
 31
0.0
  0
ARC
  8
DETAIL
  6
CONTINUOUS
 62
     5
 10
275.91617926271653
 20
-239.8108644736146
 30
0.0
 40
46.028137966857138
 50
301.23312697694411
 51
357.48429551092039
  0
ARC
  8
DETAIL
  6
CONTINUOUS
 62
     5
 10
249.0606898635815
 20
-181.452901317585
 30
0.0
 40
110.0951785070007
 50
269.39566225239668
 51
297.43300095451877
  0
ARC
  8
DETAIL
  6
CONTINUOUS
 62
     5
 10
275.03583153390719
 20
-237.22236533915611
 30
0.0
 40
47.090205585602753
 50
300.56076995287248
 51
354.38334422908059
  0
ARC
  8
DETAIL
  6
CONTINUOUS
 62
     5
 10
248.9947176511287
 20
-178.2559271210603
 30
0.0
 40
111.36305173449681
 50
269.43648705834693
 51
296.66930040199941
  0
ARC
  8
DETAIL
  6
CONTINUOUS
 62
     5
 10
275.61339667483838
 20
239.63626349558351
 30
0.0
 40
46.334738247475073
 50
2.613049951804677
 51
58.558679636789563
  0
ARC
  8
DETAIL
  6
CONTINUOUS
 62
     5
 10
248.42829516713749
 20
178.80132842803229
 30
0.0
 40
112.7418675016673
 50
62.902581245889444
 51
90.268755549252802
  0
ARC
  8
DETAIL
  6
CONTINUOUS
 62
     5
 10
275.17598304059169
 20
237.49803519754349
 30
0.0
 40
46.78157267749738
 50
2.8434963699142912
 51
59.415369733978217
  0
ARC
  8
DETAIL
  6
CONTINUOUS
 62
     5
 10
248.3403003559288
 20
175.4332256294465
 30
0.0
 40
114.1812181898255
 50
63.673000828703721
 51
90.221211712896121
  0
ARC
  8
DETAIL
  6
CONTINUOUS
 62
     5
 10
249.36041443000519
 20
218.29879917105399
 30
0.0
 40
52.184137046433101
 50
24.35663825360724
 51
91.604267778676729
  0
ARC
  8
DETAIL
  6
CONTINUOUS
 62
     5
 10
249.36041443000789
 20
-218.38129865406111
 30
0.0
 40
52.18413704642888
 50
268.39573222132333
 51
335.64336174639283
  0
ARC
  8
DETAIL
  6
CONTINUOUS
 62
     5
 10
318.91453547567471
 20
-77.232100642671185
 30
0.0
 40
3.0881806512569732
 50
14.82207455153155
 51
90.27048634268769
  0
ARC
  8
DETAIL
  6
CONTINUOUS
 62
     5
 10
318.79445888513601
 20
-78.165739284263736
 30
0.0
 40
3.2466096083136091
 50
16.954699942789698
 51
88.137860951568499
  0
ARC
  8
DETAIL
  6
CONTINUOUS
 62
     5
 10
318.91453547567471
 20
77.232100642670048
 30
0.0
 40
3.0881806512569732
 50
269.72951365731228
 51
345.1779254484685
  0
ARC
  8
DETAIL
  6
CONTINUOUS
 62
     5
 10
318.97512284137059
 20
78.04040594872049
 30
0.0
 40
3.0379923023658701
 50
268.58223884974939
 51
344.31280484943892
  0
ARC
  8
DETAIL
  6
CONTINUOUS
 62
     5
 10
299.6177929697842
 20
77.74218280162836
 30
0.0
 40
2.7533354483688122
 50
189.21052489860679
 51
275.88203599582403
  0
ARC
  8
DETAIL
  6
CONTINUOUS
 62
     5
 10
299.76328281904352
 20
-77.829182211764646
 30
0.0
 40
2.9115476604787638
 50
87.309434368533886
 51
169.55767897133501
  0
ARC
  8
DETAIL
  6
CONTINUOUS
 62
     5
 10
295.6468745081047
 20
99.758059528696322
 30
0.0
 40
5.4759774245160129
 50
82.095364043229182
 51
163.3694503743325
  0
ARC
  8
DETAIL
  6
CONTINUOUS
 62
     5
 10
296.02341555819288
 20
100.5416699711316
 30
0.0
 40
2.7379887124529589
 50
82.095364046806637
 51
163.36945037080429
  0
ARC
  8
DETAIL
  6
CONTINUOUS
 62
     5
 10
295.6468745081047
 20
-99.758059528695412
 30
0.0
 40
5.4759774245160129
 50
196.6305496256675
 51
277.90463595677079
  0
ARC
  8
DETAIL
  6
CONTINUOUS
 62
     5
 10
296.02341555819288
 20
-100.5416699711307
 30
0.0
 40
2.7379887124529589
 50
196.63054962919571
 51
277.90463595319329
  0
ARC
  8
DETAIL
  6
CONTINUOUS
 62
     5
 10
301.8089635401584
 20
-95.69233564483784
 30
0.0
 40
22.936803368208238
 50
331.15501977156441
 51
356.21533491453658
  0
ARC
  8
DETAIL
  6
CONTINUOUS
 62
     5
 10
148.3102214017199
 20
277.54063486555827
 30
0.0
 40
7.0849480677583792
 50
207.04473981126301
 51
267.49044575760291
  0
ARC
  8
DETAIL
  6
CONTINUOUS
 62
     5
 10
2.8344583887555932
 20
296.41233541784783
 30
0.0
 40
1.3669399490802361
 50
192.5154108032678
 51
276.95580981999939
  0
ARC
  8
DETAIL
  6
CONTINUOUS
 62
     5
 10
2.6679949390618281
 20
296.70725063526129
 30
0.0
 40
2.73269766574293
 50
192.49291487288531
 51
276.97830575040592
  0
ARC
  8
DETAIL
  6
CONTINUOUS
 62
     5
 10
2.8344583887555932
 20
-296.412335417848
 30
0.0
 40
1.3669399490802361
 50
83.044190180000626
 51
167.4845891967322
  0
ARC
  8
DETAIL
  6
CONTINUOUS
 62
     5
 10
2.6679949390618281
 20
-296.70725063526152
 30
0.0
 40
2.73269766574293
 50
83.021694249594091
 51
167.50708512711469
  0
ARC
  8
DETAIL
  6
CONTINUOUS
 62
     5
 10
2.8344583887555932
 20
350.30142271512841
 30
0.0
 40
1.366939949357723
 50
192.51541085566231
 51
276.95580981852947
  0
ARC
  8
DETAIL
  6
CONTINUOUS
 62
     5
 10
2.8344583887555932
 20
-350.30142271512841
 30
0.0
 40
1.366939949357723
 50
83.044190181470483
 51
167.48458914432439
  0
LINE
  8
SIZE
  6
CONTINUOUS
 62
    30
 10
0.0000000000009107
 20
370.00520381999968
 30
0.0
 11
0.0000000000009223
 21
558.32170324173376
 31
0.0
  0
LINE
  8
SIZE
  6
CONTINUOUS
 62
    30
 10
357.99995660799868
 20
94.5
 30
0.0
 11
357.99995660799868
 21
558.32170324173376
 31
0.0
  0
LINE
  8
SIZE
  6
CONTINUOUS
 62
    30
 10
12.00000000000092
 20
538.32170324173376
 30
0.0
 11
345.99995660799868
 21
538.32170324173376
 31
0.0
  0
CIRCLE
  8
SIZE
  6
CONTINUOUS
 62
    30
 10
0.000000000000921
 20
538.32170324173376
 30
0.0
 40
6.0
  0
LINE
  8
SIZE
  6
CONTINUOUS
 62
    30
 10
0.000000000000921
 20
538.32170324173376
 30
0.0
 11
12.00000000000092
 21
538.32170324173376
 31
0.0
  0
CIRCLE
  8
SIZE
  6
CONTINUOUS
 62
    30
 10
357.99995660799868
 20
538.32170324173376
 30
0.0
 40
6.0
  0
LINE
  8
SIZE
  6
CONTINUOUS
 62
    30
 10
357.99995660799868
 20
538.32170324173376
 30
0.0
 11
345.99995660799868
 21
538.32170324173376
 31
0.0
  0
TEXT
  8
SIZE
  6
CONTINUOUS
 62
    30
 10
98.647978303999793
 20
563.32170324173376
 30
0.0
 40
64.0
  1
358
 50
0.0
 41
0.9
 51
0.0
  7
STANDARD
 71
     0
 72
     1
 11
178.9999783039998
 21
563.32170324173376
 31
0.0
210
0.0
220
0.0
230
1.0
  0
POINT
  8
DEFPOINTS
  6
CONTINUOUS
 62
    30
 10
0.0000000000009095
 20
350.00520381999968
 30
0.0
  0
POINT
  8
DEFPOINTS
  6
CONTINUOUS
 62
    30
 10
357.99995660799868
 20
74.5
 30
0.0
  0
POINT
  8
DEFPOINTS
  6
CONTINUOUS
 62
    30
 10
357.99995660799868
 20
538.32170324173376
 30
0.0
  0
CIRCLE
  8
FIX
  6
CONTINUOUS
 62
    11
 10
0.0000000000009095
 20
325.0
 30
0.0
 40
7.5
  0
CIRCLE
  8
FIX
  6
CONTINUOUS
 62
    11
 10
0.0000000000009095
 20
-325.0
 30
0.0
 40
7.5
  0
LINE
  8
BASIS
  6
DASHDOT
 62
     6
 10
0.0000000000009095
 20
-345.0
 30
0.0
 11
0.0000000000009095
 21
-305.0
 31
0.0
  0
LINE
  8
BASIS
  6
DASHDOT
 62
     6
 10
20.000000000000909
 20
-325.0
 30
0.0
 11
-19.999999999999091
 21
-325.0
 31
0.0
  0
LINE
  8
BASIS
  6
DASHDOT
 62
     6
 10
0.0000000000009095
 20
305.0
 30
0.0
 11
0.0000000000009095
 21
345.0
 31
0.0
  0
LINE
  8
BASIS
  6
DASHDOT
 62
     6
 10
20.000000000000909
 20
325.0
 30
0.0
 11
-19.999999999999091
 21
325.0
 31
0.0
  0
LINE
  8
SIZE
  6
CONTINUOUS
 62
    30
 10
112.0000000000001
 20
355.00000000000011
 30
0.0
 11
-224.9804027768335
 21
355.0
 31
0.0
  0
LINE
  8
SIZE
  6
CONTINUOUS
 62
    30
 10
112.0000000000001
 20
-355.0000000000004
 30
0.0
 11
-224.98040277683339
 21
-355.00000000000051
 31
0.0
  0
LINE
  8
SIZE
  6
CONTINUOUS
 62
    30
 10
-204.9804027768335
 20
343.0
 30
0.0
 11
-204.9804027768333
 21
-343.00000000000051
 31
0.0
  0
CIRCLE
  8
SIZE
  6
CONTINUOUS
 62
    30
 10
-204.9804027768335
 20
355.0
 30
0.0
 40
6.0
  0
LINE
  8
SIZE
  6
CONTINUOUS
 62
    30
 10
-204.9804027768335
 20
355.0
 30
0.0
 11
-204.9804027768335
 21
343.0
 31
0.0
  0
CIRCLE
  8
SIZE
  6
CONTINUOUS
 62
    30
 10
-204.9804027768333
 20
-355.00000000000051
 30
0.0
 40
6.0
  0
LINE
  8
SIZE
  6
CONTINUOUS
 62
    30
 10
-204.9804027768333
 20
-355.00000000000051
 30
0.0
 11
-204.9804027768333
 21
-343.00000000000051
 31
0.0
  0
TEXT
  8
SIZE
  6
CONTINUOUS
 62
    30
 10
-229.98040277683327
 20
-75.168000000000163
 30
0.0
 40
64.0
  1
710
 50
90.0
 41
0.9
 51
0.0
  7
STANDARD
 71
     0
 72
     1
 11
-229.98040277683327
 21
-0.000000000000153
 31
0.0
210
0.0
220
0.0
230
1.0
  0
POINT
  8
DEFPOINTS
  6
CONTINUOUS
 62
    30
 10
132.00000000000011
 20
355.00000000000011
 30
0.0
  0
POINT
  8
DEFPOINTS
  6
CONTINUOUS
 62
    30
 10
132.00000000000011
 20
-355.00000000000028
 30
0.0
  0
POINT
  8
DEFPOINTS
  6
CONTINUOUS
 62
    30
 10
-204.9804027768333
 20
-355.00000000000051
 30
0.0
  0
LINE
  8
SIZE
  6
CONTINUOUS
 62
    30
 10
-39.999999999999098
 20
325.00000000000011
 30
0.0
 11
-109.55493473361651
 21
325.00000000000011
 31
0.0
  0
LINE
  8
SIZE
  6
CONTINUOUS
 62
    30
 10
-39.999999999999098
 20
-325.00000000000011
 30
0.0
 11
-109.55493473361641
 21
-325.00000000000011
 31
0.0
  0
LINE
  8
SIZE
  6
CONTINUOUS
 62
    30
 10
-89.554934733616506
 20
313.00000000000011
 30
0.0
 11
-89.554934733616363
 21
-313.00000000000011
 31
0.0
  0
CIRCLE
  8
SIZE
  6
CONTINUOUS
 62
    30
 10
-89.554934733616506
 20
325.00000000000011
 30
0.0
 40
6.0
  0
LINE
  8
SIZE
  6
CONTINUOUS
 62
    30
 10
-89.554934733616506
 20
325.00000000000011
 30
0.0
 11
-89.554934733616506
 21
313.00000000000011
 31
0.0
  0
CIRCLE
  8
SIZE
  6
CONTINUOUS
 62
    30
 10
-89.554934733616363
 20
-325.00000000000011
 30
0.0
 40
6.0
  0
LINE
  8
SIZE
  6
CONTINUOUS
 62
    30
 10
-89.554934733616363
 20
-325.00000000000011
 30
0.0
 11
-89.554934733616363
 21
-313.00000000000011
 31
0.0
  0
TEXT
  8
SIZE
  6
CONTINUOUS
 62
    30
 10
-114.55493473361639
 20
-80.927999999999983
 30
0.0
 40
64.0
  1
650
 50
90.0
 41
0.9
 51
0.0
  7
STANDARD
 71
     0
 72
     1
 11
-114.55493473361639
 21
0.0000000000000105
 31
0.0
210
0.0
220
0.0
230
1.0
  0
POINT
  8
DEFPOINTS
  6
CONTINUOUS
 62
    30
 10
-19.999999999999101
 20
325.00000000000011
 30
0.0
  0
POINT
  8
DEFPOINTS
  6
CONTINUOUS
 62
    30
 10
-19.999999999999101
 20
-325.00000000000011
 30
0.0
  0
POINT
  8
DEFPOINTS
  6
CONTINUOUS
 62
    30
 10
-89.554934733616363
 20
-325.00000000000011
 30
0.0
  0
LINE
  8
SIZE
  6
CONTINUOUS
 62
    30
 10
245.00000000000011
 20
-352.4999999980065
 30
0.0
 11
644.91609490106134
 21
-352.49999999800639
 31
0.0
  0
LINE
  8
SIZE
  6
CONTINUOUS
 62
    30
 10
245.00000000000011
 20
352.39999999980972
 30
0.0
 11
644.91609490106111
 21
352.39999999980978
 31
0.0
  0
LINE
  8
SIZE
  6
CONTINUOUS
 62
    30
 10
624.91609490106134
 20
-340.49999999800639
 30
0.0
 11
624.91609490106111
 21
340.39999999980972
 31
0.0
  0
CIRCLE
  8
SIZE
  6
CONTINUOUS
 62
    30
 10
624.91609490106134
 20
-352.49999999800639
 30
0.0
 40
6.0
  0
LINE
  8
SIZE
  6
CONTINUOUS
 62
    30
 10
624.91609490106134
 20
-352.49999999800639
 30
0.0
 11
624.91609490106134
 21
-340.49999999800639
 31
0.0
  0
CIRCLE
  8
SIZE
  6
CONTINUOUS
 62
    30
 10
624.91609490106111
 20
352.39999999980972
 30
0.0
 40
6.0
  0
LINE
  8
SIZE
  6
CONTINUOUS
 62
    30
 10
624.91609490106111
 20
352.39999999980972
 30
0.0
 11
624.91609490106111
 21
340.39999999980972
 31
0.0
  0
TEXT
  8
SIZE
  6
CONTINUOUS
 62
    30
 10
599.91609490106111
 20
-115.5379999990985
 30
0.0
 40
64.0
  1
φ705
 50
90.0
 41
0.9
 51
0.0
  7
STANDARD
 71
     0
 72
     1
 11
599.91609490106111
 21
-0.049999999098508
 31
0.0
210
0.0
220
0.0
230
1.0
  0
POINT
  8
DEFPOINTS
  6
CONTINUOUS
 62
    30
 10
225.00000000000011
 20
-352.4999999980065
 30
0.0
  0
POINT
  8
DEFPOINTS
  6
CONTINUOUS
 62
    30
 10
225.00000000000011
 20
352.39999999980972
 30
0.0
  0
POINT
  8
DEFPOINTS
  6
CONTINUOUS
 62
    30
 10
624.91609490106111
 20
352.39999999980972
 30
0.0
  0
POINT
  8
ARRANGE
  6
CONTINUOUS
 62
     1
 10
0.0
 20
0.0
 30
0.0
 50
180.0
  0
CIRCLE
  8
ARRANGE
  6
CONTINUOUS
 62
     1
 10
0.0
 20
0.0
 30
0.0
 40
40.0
  0
LINE
  8
SIZE
  6
CONTINUOUS
 62
    30
 10
132.0
 20
375.0
 30
0.0
 11
132.0
 21
435.79316834125672
 31
0.0
  0
LINE
  8
SIZE
  6
CONTINUOUS
 62
    30
 10
0.0000000000009107
 20
370.00520381999991
 30
0.0
 11
0.0000000000009147
 21
435.79316834125672
 31
0.0
  0
LINE
  8
SIZE
  6
CONTINUOUS
 62
    30
 10
120.0
 20
415.79316834125672
 30
0.0
 11
12.000000000000909
 21
415.79316834125672
 31
0.0
  0
LINE
  8
SIZE
  6
CONTINUOUS
 62
    30
 10
0.0000000000009135
 20
415.79316834125672
 30
0.0
 11
-199.1428571428562
 21
415.79316834125672
 31
0.0
  0
CIRCLE
  8
SIZE
  6
CONTINUOUS
 62
    30
 10
132.0
 20
415.79316834125672
 30
0.0
 40
6.0
  0
LINE
  8
SIZE
  6
CONTINUOUS
 62
    30
 10
132.0
 20
415.79316834125672
 30
0.0
 11
120.0
 21
415.79316834125672
 31
0.0
  0
CIRCLE
  8
SIZE
  6
CONTINUOUS
 62
    30
 10
0.0000000000009135
 20
415.79316834125672
 30
0.0
 40
6.0
  0
LINE
  8
SIZE
  6
CONTINUOUS
 62
    30
 10
0.0000000000009135
 20
415.79316834125672
 30
0.0
 11
12.000000000000913
 21
415.79316834125672
 31
0.0
  0
TEXT
  8
SIZE
  6
CONTINUOUS
 62
    30
 10
-180.16342857142772
 20
440.79316834125672
 30
0.0
 40
64.0
  1
132
 50
0.0
 41
0.9
 51
0.0
  7
STANDARD
 71
     0
 72
     1
 11
-105.5714285714277
 21
440.79316834125672
 31
0.0
210
0.0
220
0.0
230
1.0
  0
POINT
  8
DEFPOINTS
  6
CONTINUOUS
 62
    30
 10
132.0
 20
355.0
 30
0.0
  0
POINT
  8
DEFPOINTS
  6
CONTINUOUS
 62
    30
 10
0.0000000000009095
 20
350.00520381999991
 30
0.0
  0
POINT
  8
DEFPOINTS
  6
CONTINUOUS
 62
    30
 10
0.0000000000009135
 20
415.79316834125672
 30
0.0
  0
LINE
  8
SIZE
  6
CONTINUOUS
 62
    30
 10
370.4999566079988
 20
81.999999999999815
 30
0.0
 11
518.05674776981607
 21
81.999999999999829
 31
0.0
  0
LINE
  8
SIZE
  6
CONTINUOUS
 62
    30
 10
370.4999566079988
 20
-82.000000000000242
 30
0.0
 11
518.05674776981607
 21
-82.000000000000227
 31
0.0
  0
LINE
  8
SIZE
  6
CONTINUOUS
 62
    30
 10
498.05674776981613
 20
-70.000000000000227
 30
0.0
 11
498.05674776981613
 21
69.999999999999829
 31
0.0
  0
LINE
  8
SIZE
  6
CONTINUOUS
 62
    30
 10
498.05674776981613
 20
81.999999999999829
 30
0.0
 11
498.05674776981601
 21
335.99999999999989
 31
0.0
  0
CIRCLE
  8
SIZE
  6
CONTINUOUS
 62
    30
 10
498.05674776981613
 20
-82.000000000000227
 30
0.0
 40
6.0
  0
LINE
  8
SIZE
  6
CONTINUOUS
 62
    30
 10
498.05674776981613
 20
-82.000000000000227
 30
0.0
 11
498.05674776981613
 21
-70.000000000000227
 31
0.0
  0
CIRCLE
  8
SIZE
  6
CONTINUOUS
 62
    30
 10
498.05674776981613
 20
81.999999999999829
 30
0.0
 40
6.0
  0
LINE
  8
SIZE
  6
CONTINUOUS
 62
    30
 10
498.05674776981613
 20
81.999999999999829
 30
0.0
 11
498.05674776981613
 21
69.999999999999829
 31
0.0
  0
TEXT
  8
SIZE
  6
CONTINUOUS
 62
    30
 10
473.05674776981601
 20
105.27199999999979
 30
0.0
 40
64.0
  1
φ164
 50
90.0
 41
0.9
 51
0.0
  7
STANDARD
 71
     0
 72
     1
 11
473.05674776981601
 21
214.9999999999998
 31
0.0
210
0.0
220
0.0
230
1.0
  0
POINT
  8
DEFPOINTS
  6
CONTINUOUS
 62
    30
 10
350.4999566079988
 20
81.999999999999801
 30
0.0
  0
POINT
  8
DEFPOINTS
  6
CONTINUOUS
 62
    30
 10
350.4999566079988
 20
-82.000000000000256
 30
0.0
  0
POINT
  8
DEFPOINTS
  6
CONTINUOUS
 62
    30
 10
498.05674776981613
 20
-82.000000000000227
 30
0.0
  0
LINE
  8
DETAIL
  6
CONTINUOUS
 62
     5
 10
225.0
 20
270.46248173039982
 30
0.0
 11
225.0
 21
-270.46248173039999
 31
0.0
  0
LINE
  8
DETAIL
  6
CONTINUOUS
 62
     5
 10
223.800000000002
 20
270.46248173039982
 30
0.0
 11
223.80000000000109
 21
-270.46248173039999
 31
0.0
  0
LINE
  8
DETAIL
  6
CONTINUOUS
 62
     5
 10
147.5000000000073
 20
-289.61359280840003
 30
0.0
 11
247.89946229900491
 21
-289.61359280840003
 31
0.0
  0
LINE
  8
DETAIL
  6
CONTINUOUS
 62
     5
 10
147.5000000000073
 20
-291.54195563740001
 30
0.0
 11
247.89946229900491
 21
-291.54195563740001
 31
0.0
  0
LINE
  8
SIZE
  6
CONTINUOUS
 62
    30
 10
132.0
 20
375.0
 30
0.0
 11
132.0
 21
435.79316834125672
 31
0.0
  0
LINE
  8
SIZE
  6
CONTINUOUS
 62
    30
 10
225.0
 20
372.39999999980961
 30
0.0
 11
225.0
 21
435.79316834125672
 31
0.0
  0
LINE
  8
SIZE
  6
CONTINUOUS
 62
    30
 10
120.0
 20
415.79316834125672
 30
0.0
 11
108.0
 21
415.79316834125672
 31
0.0
  0
LINE
  8
SIZE
  6
CONTINUOUS
 62
    30
 10
237.0
 20
415.79316834125672
 30
0.0
 11
249.0
 21
415.79316834125672
 31
0.0
  0
LINE
  8
SIZE
  6
CONTINUOUS
 62
    30
 10
132.0
 20
415.79316834125672
 30
0.0
 11
225.0
 21
415.79316834125672
 31
0.0
  0
CIRCLE
  8
SIZE
  6
CONTINUOUS
 62
    30
 10
132.0
 20
415.79316834125672
 30
0.0
 40
6.0
  0
LINE
  8
SIZE
  6
CONTINUOUS
 62
    30
 10
132.0
 20
415.79316834125672
 30
0.0
 11
120.0
 21
415.79316834125672
 31
0.0
  0
CIRCLE
  8
SIZE
  6
CONTINUOUS
 62
    30
 10
225.0
 20
415.79316834125672
 30
0.0
 40
6.0
  0
LINE
  8
SIZE
  6
CONTINUOUS
 62
    30
 10
225.0
 20
415.79316834125672
 30
0.0
 11
237.0
 21
415.79316834125672
 31
0.0
  0
TEXT
  8
SIZE
  6
CONTINUOUS
 62
    30
 10
124.93199999999999
 20
440.79316834125672
 30
0.0
 40
64.0
  1
93
 50
0.0
 41
0.9
 51
0.0
  7
STANDARD
 71
     0
 72
     1
 11
178.5
 21
440.79316834125672
 31
0.0
210
0.0
220
0.0
230
1.0
  0
POINT
  8
DEFPOINTS
  6
CONTINUOUS
 62
    30
 10
132.0
 20
355.0
 30
0.0
  0
POINT
  8
DEFPOINTS
  6
CONTINUOUS
 62
    30
 10
225.0
 20
352.39999999980961
 30
0.0
  0
POINT
  8
DEFPOINTS
  6
CONTINUOUS
 62
    30
 10
225.0
 20
415.79316834125672
 30
0.0
  0
LINE
  8
DETAIL
  6
CONTINUOUS
 62
     5
 10
225.0
 20
352.39999999980961
 30
0.0
 11
223.80000000000109
 21
352.39999999980961
 31
0.0
  0
LINE
  8
DETAIL
  6
CONTINUOUS
 62
     5
 10
225.0
 20
-352.49999999800639
 30
0.0
 11
225.0
 21
-291.54195563740001
 31
0.0
  0
LINE
  8
DETAIL
  6
CONTINUOUS
 62
     5
 10
225.0
 20
291.54195563740001
 30
0.0
 11
225.0
 21
352.39999999980961
 31
0.0
  0
LINE
  8
DETAIL
  6
CONTINUOUS
 62
     5
 10
223.80000000000109
 20
-352.39999999979409
 30
0.0
 11
223.80000000000291
 21
-291.54195563740001
 31
0.0
  0
LINE
  8
DETAIL
  6
CONTINUOUS
 62
     5
 10
223.80000000000109
 20
291.54195563740001
 30
0.0
 11
223.80000000000109
 21
352.39999999980961
 31
0.0
  0
LINE
  8
DETAIL
  6
CONTINUOUS
 62
     5
 10
223.80000000000109
 20
-352.39999999780679
 30
0.0
 11
223.80000000000109
 21
-352.49999999800639
 31
0.0
  0
LINE
  8
DETAIL
  6
CONTINUOUS
 62
     5
 10
225.0
 20
-352.49999999800639
 30
0.0
 11
223.80000000000109
 21
-352.49999999800639
 31
0.0
  0
ARC
  8
DETAIL
  6
CONTINUOUS
 62
     5
 10
189.6852336988286
 20
-352.41466297294119
 30
0.0
 40
34.11476945234125
 50
0.0246264744901315
 51
90.143150206639604
  0
LINE
  8
OUTLINE
  6
CONTINUOUS
 62
     3
 10
0.000000000001819
 20
350.00520382000008
 30
0.0
 11
1.500000000001819
 21
350.00520382000008
 31
0.0
  0
ARC
  8
OUTLINE
  6
CONTINUOUS
 62
     3
 10
2.834458388759181
 20
350.30142271512949
 30
0.0
 40
1.3669399493600953
 50
192.51541085568556
 51
207.70351030526786
  0
ARC
  8
OUTLINE
  6
CONTINUOUS
 62
     3
 10
3.0000000000016334
 20
347.0
 30
0.0
 40
2.9999999999999765
 50
90.0
 51
117.29643088894852
  0
LINE
  8
OUTLINE
  6
CONTINUOUS
 62
     3
 10
3.000000000001819
 20
350.0
 30
0.0
 11
132.0
 21
350.0
 31
0.0
  0
LINE
  8
OUTLINE
  6
CONTINUOUS
 62
     3
 10
132.0
 20
350.0
 30
0.0
 11
132.0
 21
355.0
 31
0.0
  0
LINE
  8
OUTLINE
  6
CONTINUOUS
 62
     3
 10
132.0
 20
355.0
 30
0.0
 11
137.0
 21
355.0
 31
0.0
  0
ARC
  8
OUTLINE
  6
CONTINUOUS
 62
     3
 10
137.0
 20
350.0
 30
0.0
 40
4.9999999999999991
 50
0.0
 51
90.0
  0
LINE
  8
OUTLINE
  6
CONTINUOUS
 62
     3
 10
142.0
 20
350.0
 30
0.0
 11
142.0
 21
333.29999999639949
 31
0.0
  0
ARC
  8
OUTLINE
  6
CONTINUOUS
 62
     3
 10
156.99999999999952
 20
333.29999999639898
 30
0.0
 40
14.999999999999512
 50
180.0
 51
270.0
  0
LINE
  8
OUTLINE
  6
CONTINUOUS
 62
     3
 10
157.0
 20
318.29999999639949
 30
0.0
 11
189.77046739752041
 21
318.29999999639949
 31
0.0
  0
ARC
  8
OUTLINE
  6
CONTINUOUS
 62
     3
 10
189.68523369882826
 20
352.41466297294079
 30
0.0
 40
34.114769452341172
 50
270.14315020638935
 51
0.1433237528752329
  0
LINE
  8
OUTLINE
  6
CONTINUOUS
 62
     3
 10
223.79989641704381
 20
352.50000000349968
 30
0.0
 11
225.0
 21
352.50000000349968
 31
0.0
  0
LINE
  8
OUTLINE
  6
CONTINUOUS
 62
     3
 10
225.0
 20
352.50000000349968
 30
0.0
 11
225.0
 21
291.54195563740001
 31
0.0
  0
LINE
  8
OUTLINE
  6
CONTINUOUS
 62
     3
 10
225.0
 20
291.54195563740001
 30
0.0
 11
247.89946229883211
 21
291.54195563740001
 31
0.0
  0
ARC
  8
OUTLINE
  6
CONTINUOUS
 62
     3
 10
249.06068986361436
 20
181.45290131772742
 30
0.0
 40
110.09517850685847
 50
62.566999045503508
 51
90.604337747717125
  0
ARC
  8
OUTLINE
  6
CONTINUOUS
 62
     3
 10
275.91617926271618
 20
239.81086447361443
 30
0.0
 40
46.028137966857457
 50
2.5157044890543148
 51
58.766873023067092
  0
LINE
  8
OUTLINE
  6
CONTINUOUS
 62
     3
 10
321.89995660800741
 20
241.83118765438209
 30
0.0
 11
321.8999566080056
 21
106.7580008439836
 31
0.0
  0
ARC
  8
OUTLINE
  6
CONTINUOUS
 62
     3
 10
301.808963540158
 20
95.692335644838934
 30
0.0
 40
22.936803368208498
 50
3.7846650854618815
 51
28.844980228356974
  0
LINE
  8
OUTLINE
  6
CONTINUOUS
 62
     3
 10
324.69574564899989
 20
97.206321593999746
 30
0.0
 11
324.69574564899989
 21
94.200000000000728
 31
0.0
  0
LINE
  8
OUTLINE
  6
CONTINUOUS
 62
     3
 10
324.69574564899989
 20
94.200000000000728
 30
0.0
 11
327.49995660800232
 21
94.200000000000728
 31
0.0
  0
LINE
  8
OUTLINE
  6
CONTINUOUS
 62
     3
 10
327.49995660800232
 20
94.200000000000728
 30
0.0
 11
327.49995660800232
 21
85.200000000000728
 31
0.0
  0
ARC
  8
OUTLINE
  6
CONTINUOUS
 62
     3
 10
328.49995660800232
 20
85.200000000000713
 30
0.0
 40
0.9999999999999804
 50
180.0
 51
270.0
  0
ARC
  8
OUTLINE
  6
CONTINUOUS
 62
     3
 10
328.49995660800232
 20
83.200000000000742
 30
0.0
 40
0.9999999999999804
 50
0.0
 51
90.0
  0
LINE
  8
OUTLINE
  6
CONTINUOUS
 62
     3
 10
329.49995660800232
 20
83.200000000000728
 30
0.0
 11
329.49995660799868
 21
82.0
 31
0.0
  0
LINE
  8
OUTLINE
  6
CONTINUOUS
 62
     3
 10
329.49995660799868
 20
82.0
 30
0.0
 11
350.49995660799868
 21
82.0
 31
0.0
  0
ARC
  8
OUTLINE
  6
CONTINUOUS
 62
     3
 10
350.49995660799863
 20
74.499999999999957
 30
0.0
 40
7.500000000000048
 50
0.0
 51
90.0
  0
LINE
  8
OUTLINE
  6
CONTINUOUS
 62
     3
 10
357.99995660799868
 20
74.5
 30
0.0
 11
357.99995660799868
 21
-74.5
 31
0.0
  0
ARC
  8
OUTLINE
  6
CONTINUOUS
 62
     3
 10
350.49995660799863
 20
-74.499999999999957
 30
0.0
 40
7.500000000000048
 50
270.0
 51
0.0
  0
LINE
  8
OUTLINE
  6
CONTINUOUS
 62
     3
 10
350.49995660799868
 20
-82.0
 30
0.0
 11
321.89995660800378
 21
-82.0
 31
0.0
  0
LINE
  8
OUTLINE
  6
CONTINUOUS
 62
     3
 10
321.89995660800378
 20
-82.0
 30
0.0
 11
321.89995660800918
 21
-241.74868817237979
 31
0.0
  0
ARC
  8
OUTLINE
  6
CONTINUOUS
 62
     3
 10
275.6133966748389
 20
-239.63626349558186
 30
0.0
 40
46.334738247475954
 50
301.44132036325186
 51
357.38695004821784
  0
ARC
  8
OUTLINE
  6
CONTINUOUS
 62
     3
 10
248.42829516704182
 20
-178.80132842766088
 30
0.0
 40
112.74186750203816
 50
269.7312444510701
 51
297.09741875405734
  0
LINE
  8
OUTLINE
  6
CONTINUOUS
 62
     3
 10
247.89946229953421
 20
-291.54195563740001
 30
0.0
 11
225.0
 21
-291.54195563740001
 31
0.0
  0
LINE
  8
OUTLINE
  6
CONTINUOUS
 62
     3
 10
225.0
 20
-291.54195563740001
 30
0.0
 11
225.0
 21
-352.5
 31
0.0
  0
LINE
  8
OUTLINE
  6
CONTINUOUS
 62
     3
 10
225.0
 20
-352.5
 30
0.0
 11
223.79989641705291
 21
-352.5
 31
0.0
  0
ARC
  8
OUTLINE
  6
CONTINUOUS
 62
     3
 10
189.6852336988284
 20
-352.4146629729409
 30
0.0
 40
34.11476945234137
 50
359.85667625300266
 51
90.143150206437269
  0
LINE
  8
OUTLINE
  6
CONTINUOUS
 62
     3
 10
189.60000000010771
 20
-318.29999999639949
 30
0.0
 11
157.0
 21
-318.29999999639949
 31
0.0
  0
ARC
  8
OUTLINE
  6
CONTINUOUS
 62
     3
 10
157.00000000000009
 20
-333.29999999639961
 30
0.0
 40
15.000000000000096
 50
90.0
 51
180.0
  0
LINE
  8
OUTLINE
  6
CONTINUOUS
 62
     3
 10
142.0
 20
-333.29999999639949
 30
0.0
 11
142.0
 21
-350.0
 31
0.0
  0
ARC
  8
OUTLINE
  6
CONTINUOUS
 62
     3
 10
137.0
 20
-350.0
 30
0.0
 40
4.9999999999999991
 50
270.0
 51
0.0
  0
LINE
  8
OUTLINE
  6
CONTINUOUS
 62
     3
 10
137.0
 20
-355.0
 30
0.0
 11
132.0
 21
-355.0
 31
0.0
  0
LINE
  8
OUTLINE
  6
CONTINUOUS
 62
     3
 10
132.0
 20
-355.0
 30
0.0
 11
132.0
 21
-350.0
 31
0.0
  0
LINE
  8
OUTLINE
  6
CONTINUOUS
 62
     3
 10
132.0
 20
-350.0
 30
0.0
 11
3.000000000001819
 21
-350.0
 31
0.0
  0
ARC
  8
OUTLINE
  6
CONTINUOUS
 62
     3
 10
2.9999999999947256
 20
-346.99999999999875
 30
0.0
 40
3.0000000000012497
 50
242.70356911117324
 51
270.0
  0
ARC
  8
OUTLINE
  6
CONTINUOUS
 62
     3
 10
2.834458388751588
 20
-350.30142271512619
 30
0.0
 40
1.3669399493521508
 50
152.29648969484526
 51
167.48458914434548
  0
LINE
  8
OUTLINE
  6
CONTINUOUS
 62
     3
 10
1.500000000001819
 20
-350.00520381999922
 30
0.0
 11
0.000000000001819
 21
-350.00520381999922
 31
0.0
  0
LINE
  8
OUTLINE
  6
CONTINUOUS
 62
     3
 10
0.000000000001819
 20
-350.00520381999922
 30
0.0
 11
0.000000000001819
 21
-296.11611652399552
 31
0.0
  0
ARC
  8
OUTLINE
  6
CONTINUOUS
 62
     3
 10
2.6679949390627122
 20
-296.70725063526129
 30
0.0
 40
2.7326976657428728
 50
83.021694249591405
 51
167.50708512701965
  0
LINE
  8
OUTLINE
  6
CONTINUOUS
 62
     3
 10
3.000000000001819
 20
-293.99479617999992
 30
0.0
 11
3.000000000001819
 21
-292.25735931300011
 31
0.0
  0
LINE
  8
OUTLINE
  6
CONTINUOUS
 62
     3
 10
3.000000000001819
 20
-292.25735931300011
 30
0.0
 11
0.000000000001819
 21
-292.25735931300011
 31
0.0
  0
LINE
  8
OUTLINE
  6
CONTINUOUS
 62
     3
 10
0.000000000001819
 20
-292.25735931300011
 30
0.0
 11
0.000000000001819
 21
-0.5
 31
0.0
  0
LINE
  8
OUTLINE
  6
CONTINUOUS
 62
     3
 10
0.000000000001819
 20
-0.5
 30
0.0
 11
2.000000000001819
 21
-0.5
 31
0.0
  0
LINE
  8
OUTLINE
  6
CONTINUOUS
 62
     3
 10
2.000000000001819
 20
-0.5
 30
0.0
 11
2.000000000001819
 21
0.5
 31
0.0
  0
LINE
  8
OUTLINE
  6
CONTINUOUS
 62
     3
 10
2.000000000001819
 20
0.5
 30
0.0
 11
0.000000000001819
 21
0.5
 31
0.0
  0
LINE
  8
OUTLINE
  6
CONTINUOUS
 62
     3
 10
0.000000000001819
 20
0.5
 30
0.0
 11
0.000000000001819
 21
292.25735931300011
 31
0.0
  0
LINE
  8
OUTLINE
  6
CONTINUOUS
 62
     3
 10
0.000000000001819
 20
292.25735931300011
 30
0.0
 11
3.000000000001819
 21
292.25735931300011
 31
0.0
  0
LINE
  8
OUTLINE
  6
CONTINUOUS
 62
     3
 10
3.000000000001819
 20
292.25735931300011
 30
0.0
 11
3.000000000001819
 21
293.99479618000078
 31
0.0
  0
ARC
  8
OUTLINE
  6
CONTINUOUS
 62
     3
 10
2.6679949390623015
 20
296.7072506352618
 30
0.0
 40
2.732697665742581
 50
192.49291487299263
 51
276.97830575041803
  0
LINE
  8
OUTLINE
  6
CONTINUOUS
 62
     3
 10
0.000000000001819
 20
296.11611652399552
 30
0.0
 11
0.000000000001819
 21
350.00520382000008
 31
0.0
  0
LINE
  8
DETAIL
  6
CONTINUOUS
 62
     5
 10
189.60000000000039
 20
318.29999999639949
 30
0.0
 11
157.0
 21
318.29999999639949
 31
0.0
  0
ARC
  8
DETAIL
  6
CONTINUOUS
 62
     5
 10
189.6852336988286
 20
352.41466297294119
 30
0.0
 40
34.11476945234125
 50
269.85684979336042
 51
359.97537352540559
  0
ARC
  8
DETAIL
  6
CONTINUOUS
 62
     5
 10
157.0
 20
333.29999999639949
 30
0.0
 40
15.0
 50
180.0
 51
270.0
  0
TEXT
  8
ETC
  6
CONTINUOUS
 62
    61
 10
681.68382456064137
 20
543.77940185271984
 30
0.0
 40
64.0
  1
EG-60FTXC2-Q_5
 41
0.9
  0
TEXT
  8
ETC
  6
CONTINUOUS
 62
    61
 10
677.49783056064189
 20
425.82409183788849
 30
0.0
 40
64.0
  1
有圧換気扇
 41
0.9
  0
TEXT
  8
ETC
  6
CONTINUOUS
 62
    61
 10
728.19922880919694
 20
317.67531895166331
 30
0.0
 40
40.0
  1
EG-60FTXC2-Q
 50
0.0
 41
0.9
 51
0.0
  7
STANDARD
 71
     0
 11
0.0
 21
0.0
 31
0.0
210
0.0
220
0.0
230
1.0
  0
TEXT
  8
ETC
  6
CONTINUOUS
 62
    61
 10
728.19922880919694
 20
251.67531895166331
 30
0.0
 40
40.0
  1
EG-60FTXC2-FQ
 50
0.0
 41
0.9
 51
0.0
  7
STANDARD
 71
     0
 11
0.0
 21
0.0
 31
0.0
210
0.0
220
0.0
230
1.0
  0
LINE
  8
DETAIL
  6
CONTINUOUS
 62
     5
 10
189.60000000000039
 20
-318.29999999639949
 30
0.0
 11
157.0
 21
-318.29999999639949
 31
0.0
  0
ARC
  8
DETAIL
  6
CONTINUOUS
 62
     5
 10
157.0
 20
-333.29999999639949
 30
0.0
 40
15.0
 50
90.000000000000014
 51
180.0
  0
TEXT
  8
NOTE
  6
CONTINUOUS
 62
     4
 10
-478.21042296320661
 20
-453.72191765549019
 30
0.0
 40
64.0
  1
4-φ15
 50
0.0
 41
0.9
 51
0.0
  7
STANDARD
 71
     0
 72
     2
 11
-187.3304229632067
 21
-453.72191765549019
 31
0.0
210
0.0
220
0.0
230
1.0
  0
LINE
  8
NOTE
  6
CONTINUOUS
 62
     4
 10
-187.24042296320661
 20
-466.52191765549009
 30
0.0
 11
-456.13042296320651
 21
-466.52191765549009
 31
0.0
  0
LINE
  8
NOTE
  6
CONTINUOUS
 62
     4
 10
-28.093497371047366
 20
-338.24284288636335
 30
0.0
 11
0.0000000000009095
 21
-325.0
 31
0.0
  0
LINE
  8
NOTE
  6
CONTINUOUS
 62
     4
 10
0.0000000000009095
 20
-325.0
 30
0.0
 11
-17.708222511023788
 21
-350.51541372876477
 31
0.0
  0
LINE
  8
NOTE
  6
CONTINUOUS
 62
     4
 10
0.0000000000009095
 20
-325.0
 30
0.0
 11
-45.801719882072064
 21
-363.75825661512812
 31
0.0
  0
LINE
  8
NOTE
  6
CONTINUOUS
 62
     4
 10
-45.801719882072071
 20
-363.75825661512812
 30
0.0
 11
-167.24042296320661
 21
-466.52191765549009
 31
0.0
  0
LINE
  8
NOTE
  6
CONTINUOUS
 62
     4
 10
-167.24042296320661
 20
-466.52191765549009
 30
0.0
 11
-187.24042296320661
 21
-466.52191765549009
 31
0.0
  0
TEXT
  8
NOTE
  6
CONTINUOUS
 62
     4
 10
274.78199221782319
 20
-451.7692236970413
 30
0.0
 40
64.0
  1
EL
 50
0.0
 41
0.9
 51
0.0
  7
STANDARD
 71
     0
 11
0.0
 21
0.0
 31
0.0
210
0.0
220
0.0
230
1.0
  0
LINE
  8
NOTE
  6
CONTINUOUS
 62
     4
 10
274.6919922178231
 20
-464.56922369704131
 30
0.0
 11
359.81056364639448
 21
-464.56922369704131
 31
0.0
  0
LINE
  8
NOTE
  6
CONTINUOUS
 62
     4
 10
173.8865240936203
 20
-321.95224185379129
 30
0.0
 11
167.5752663356798
 21
-291.54195563740001
 31
0.0
  0
LINE
  8
NOTE
  6
CONTINUOUS
 62
     4
 10
167.5752663356798
 20
-291.54195563740001
 30
0.0
 11
188.24615392369626
 21
-314.72237600834211
 31
0.0
  0
LINE
  8
NOTE
  6
CONTINUOUS
 62
     4
 10
167.5752663356798
 20
-291.54195563740001
 30
0.0
 11
194.55741168163675
 21
-345.13266222473334
 31
0.0
  0
LINE
  8
NOTE
  6
CONTINUOUS
 62
     4
 10
194.55741168163669
 20
-345.13266222473328
 30
0.0
 11
254.6919922178231
 21
-464.56922369704131
 31
0.0
  0
LINE
  8
NOTE
  6
CONTINUOUS
 62
     4
 10
254.6919922178231
 20
-464.56922369704131
 30
0.0
 11
274.6919922178231
 21
-464.56922369704131
 31
0.0
  0
ENDSEC
  0
EOF
