  0
SECTION
  2
HEADER
  9
$ACADVER
  1
AC1009
  9
$DWGCODEPAGE
  3
dos932
  9
$INSBASE
 10
0.0
 20
0.0
 30
0.0
  9
$EXTMIN
 10
-694.73417541563504
 20
-521.34703428175635
 30
-0.0000000349181948
  9
$EXTMAX
 10
1214.0853999695789
 20
652.40479324991429
 30
0.0000000814935746
  9
$LIMMIN
 10
-2970.0
 20
-2100.0
  9
$LIMMAX
 10
2970.0
 20
2100.0
  9
$ORTHOMODE
 70
     1
  9
$REGENMODE
 70
     1
  9
$FILLMODE
 70
     1
  9
$QTEXTMODE
 70
     0
  9
$MIRRTEXT
 70
     0
  9
$LTSCALE
 40
20.0
  9
$ATTMODE
 70
     1
  9
$TEXTSIZE
 40
64.0
  9
$TRACEWID
 40
0.05
  9
$TEXTSTYLE
  7
STANDARD
  9
$CLAYER
  8
SIZE
  9
$CELTYPE
  6
CONTINUOUS
  9
$CECOLOR
 62
     7
  9
$DIMSCALE
 40
1.0
  9
$DIMASZ
 40
12.0
  9
$DIMEXO
 40
20.0
  9
$DIMDLI
 40
200.0
  9
$DIMRND
 40
0.0
  9
$DIMDLE
 40
0.0
  9
$DIMEXE
 40
20.0
  9
$DIMTP
 40
0.0
  9
$DIMTM
 40
0.0
  9
$DIMTXT
 40
64.0
  9
$DIMCEN
 40
0.09
  9
$DIMTSZ
 40
0.0
  9
$DIMTOL
 70
     0
  9
$DIMLIM
 70
     0
  9
$DIMTIH
 70
     0
  9
$DIMTOH
 70
     0
  9
$DIMSE1
 70
     0
  9
$DIMSE2
 70
     0
  9
$DIMTAD
 70
     1
  9
$DIMZIN
 70
     8
  9
$DIMBLK
  1

  9
$DIMASO
 70
     1
  9
$DIMSHO
 70
     0
  9
$DIMPOST
  1

  9
$DIMAPOST
  1

  9
$DIMALT
 70
     0
  9
$DIMALTD
 70
     2
  9
$DIMALTF
 40
25.399999999999999
  9
$DIMLFAC
 40
1.0
  9
$DIMTOFL
 70
     1
  9
$DIMTVP
 40
0.0
  9
$DIMTIX
 70
     1
  9
$DIMSOXD
 70
     0
  9
$DIMSAH
 70
     0
  9
$DIMBLK1
  1

  9
$DIMBLK2
  1

  9
$DIMSTYLE
  2
STANDARD
  9
$DIMCLRD
 70
     7
  9
$DIMCLRE
 70
     7
  9
$DIMCLRT
 70
     7
  9
$DIMTFAC
 40
1.0
  9
$DIMGAP
 40
25.0
  9
$LUNITS
 70
     2
  9
$LUPREC
 70
     4
  9
$SKETCHINC
 40
0.1
  9
$FILLETRAD
 40
3.0
  9
$AUNITS
 70
     1
  9
$AUPREC
 70
     3
  9
$MENU
  1
ACAD
  9
$ELEVATION
 40
0.0
  9
$PELEVATION
 40
0.0
  9
$THICKNESS
 40
0.0
  9
$LIMCHECK
 70
     0
  9
$CHAMFERA
 40
0.0
  9
$CHAMFERB
 40
0.0
  9
$SKPOLY
 70
     0
  9
$TDCREATE
 40
2453019.62301037
  9
$TDUPDATE
 40
2459362.659911991
  9
$TDINDWG
 40
1.7165553356
  9
$TDUSRTIMER
 40
1.7165553356
  9
$USRTIMER
 70
     1
  9
$ANGBASE
 50
0.0
  9
$ANGDIR
 70
     0
  9
$PDMODE
 70
     3
  9
$PDSIZE
 40
-2.0
  9
$PLINEWID
 40
0.0
  9
$SPLFRAME
 70
     0
  9
$SPLINETYPE
 70
     6
  9
$SPLINESEGS
 70
     8
  9
$SURFTAB1
 70
     6
  9
$SURFTAB2
 70
     6
  9
$SURFTYPE
 70
     6
  9
$SURFU
 70
     6
  9
$SURFV
 70
     6
  9
$UCSNAME
  2

  9
$UCSORG
 10
0.0
 20
0.0
 30
0.0
  9
$UCSXDIR
 10
1.0
 20
0.0
 30
0.0
  9
$UCSYDIR
 10
0.0
 20
1.0
 30
0.0
  9
$PUCSNAME
  2

  9
$PUCSORG
 10
0.0
 20
0.0
 30
0.0
  9
$PUCSXDIR
 10
1.0
 20
0.0
 30
0.0
  9
$PUCSYDIR
 10
0.0
 20
1.0
 30
0.0
  9
$USERI1
 70
     0
  9
$USERI2
 70
     0
  9
$USERI3
 70
     0
  9
$USERI4
 70
     0
  9
$USERI5
 70
     0
  9
$USERR1
 40
20.0
  9
$USERR2
 40
0.0
  9
$USERR3
 40
0.0
  9
$USERR4
 40
0.0
  9
$USERR5
 40
0.0
  9
$WORLDVIEW
 70
     1
  9
$SHADEDGE
 70
     3
  9
$SHADEDIF
 70
    70
  9
$TILEMODE
 70
     1
  9
$MAXACTVP
 70
    48
  9
$PINSBASE
 10
0.0
 20
0.0
 30
0.0
  9
$PLIMCHECK
 70
     0
  9
$PEXTMIN
 10
-100000000000000000000.0
 20
-100000000000000000000.0
 30
-100000000000000000000.0
  9
$PEXTMAX
 10
100000000000000000000.0
 20
100000000000000000000.0
 30
100000000000000000000.0
  9
$PLIMMIN
 10
0.0
 20
0.0
  9
$PLIMMAX
 10
12.0
 20
9.0
  9
$UNITMODE
 70
     0
  9
$VISRETAIN
 70
     0
  9
$PLINEGEN
 70
     0
  9
$PSLTSCALE
 70
     0
  9
$TREEDEPTH
 70
  3020
  9
$ATTDIA
 70
     0
  9
$ATTREQ
 70
     1
  9
$BLIPMODE
 70
     1
  9
$COORDS
 70
     1
  9
$DRAGMODE
 70
     2
  9
$OSMODE
 70
     0
  9
$HANDLING
 70
     0
  9
$HANDSEED
  5
F6AC
  0
ENDSEC
  0
SECTION
  2
TABLES
  0
TABLE
  2
LTYPE
 70
     2
  0
LTYPE
  2
CONTINUOUS
 70
     0
  3
実線
 72
    65
 73
     0
 40
0.0
  0
LTYPE
  2
DASHDOT
 70
     0
  3
____ _ ____ _ ____ _ ____ _ ____ _ ____ _ ____
 72
    65
 73
     4
 40
5.5
 49
4.0
 49
-0.6
 49
0.3
 49
-0.6
  0
ENDTAB
  0
TABLE
  2
LAYER
 70
    12
  0
LAYER
  2
0
 70
     0
 62
     7
  6
CONTINUOUS
  0
LAYER
  2
BASIS
 70
     0
 62
     6
  6
DASHDOT
  0
LAYER
  2
OUTLINE
 70
     0
 62
     3
  6
CONTINUOUS
  0
LAYER
  2
DETAIL
 70
     0
 62
     5
  6
CONTINUOUS
  0
LAYER
  2
SIZE
 70
     0
 62
    30
  6
CONTINUOUS
  0
LAYER
  2
ARRANGE
 70
     0
 62
     1
  6
CONTINUOUS
  0
LAYER
  2
DEFPOINTS
 70
     0
 62
     7
  6
CONTINUOUS
  0
LAYER
  2
ETC
 70
     0
 62
    61
  6
CONTINUOUS
  0
LAYER
  2
FIX
 70
     0
 62
    11
  6
CONTINUOUS
  0
LAYER
  2
NOTE
 70
     0
 62
     4
  6
CONTINUOUS
  0
LAYER
  2
SERVICESPACE
 70
    64
 62
     2
  6
DASHDOT
  0
LAYER
  2
SYMBOLLINE
 70
    64
 62
    15
  6
CONTINUOUS
  0
ENDTAB
  0
TABLE
  2
STYLE
 70
     1
  0
STYLE
  2
STANDARD
 70
     0
 40
64.0
 41
0.9
 50
0.0
 71
     0
 42
64.0
  3
SIMPLEX.shx
  4
BIGFONT.shx
  0
ENDTAB
  0
TABLE
  2
APPID
 70
    20
  0
APPID
  2
ACAD
 70
     0
  0
APPID
  2
AUTOCAD_POSTSCRIPT_FIGURE
 70
     0
  0
APPID
  2
ACAD_EXEMPT_FROM_CAD_STANDARDS
 70
     0
  0
APPID
  2
ACAD_PSEXT
 70
     0
  0
APPID
  2
ACAUTHENVIRON
 70
     0
  0
APPID
  2
GENIUS_GENOENT_13
 70
     0
  0
APPID
  2
GENIUS_GENCFG_13
 70
     0
  0
APPID
  2
GENIUS_GENCFG0_13
 70
     0
  0
APPID
  2
GENIUS_GENCFG1_13
 70
     0
  0
APPID
  2
GENIUS_GENCFG2_13
 70
     0
  0
APPID
  2
GENIUS_GENCFG3_13
 70
     0
  0
APPID
  2
GENIUS_GENCFG4_13
 70
     0
  0
APPID
  2
GENIUS_GEVCFG0_13
 70
     0
  0
APPID
  2
CONTENTBLOCKICON
 70
     0
  0
APPID
  2
CONTENTBLOCKDESCRIPTION
 70
     0
  0
APPID
  2
ACAD_NAV_VCDISPLAY
 70
     0
  0
APPID
  2
ACAD_MLEADERVER
 70
     0
  0
APPID
  2
ACDBDYNAMICBLOCKTRUENAME
 70
     0
  0
APPID
  2
ACDBDYNAMICBLOCKGUID
 70
     0
  0
APPID
  2
ACAD_DSTYLE_DIMRADIAL_EXTENSION
 70
     0
  0
ENDTAB
  0
TABLE
  2
DIMSTYLE
 70
     1
  0
DIMSTYLE
  2
STANDARD
 70
     0
  3

  4

  5
_ORIGIN
  6

  7

 40
1.0
 41
12.0
 42
20.0
 43
200.0
 44
20.0
 45
0.0
 46
0.0
 47
0.0
 48
0.0
140
64.0
141
0.09
142
0.0
143
25.399999999999999
144
1.0
145
0.0
146
1.0
147
25.0
 71
     0
 72
     0
 73
     0
 74
     0
 75
     0
 76
     0
 77
     1
 78
     8
170
     0
171
     2
172
     1
173
     0
174
     1
175
     0
176
     7
177
     7
178
     7
  0
ENDTAB
  0
TABLE
  2
VIEW
 70
     1
  0
VIEW
  2
ALL
 70
     0
 40
4282.6198079999986
 10
0.0
 20
41.309904000000003
 41
5940.0
 11
0.0
 21
0.0
 31
1.0
 12
0.0
 22
0.0
 32
0.0
 42
50.0
 43
0.0
 44
0.0
 50
0.0
 71
     0
  0
ENDTAB
  0
TABLE
  2
UCS
 70
     0
  0
ENDTAB
  0
TABLE
  2
VPORT
 70
     1
  0
VPORT
  2
*ACTIVE
 70
     0
 10
0.0
 20
0.0
 11
1.0
 21
1.0
 12
259.67561227697217
 22
65.528879484078971
 13
0.0
 23
0.0
 14
1.0
 24
1.0
 15
0.0
 25
0.0
 16
0.0
 26
0.0
 36
1.0
 17
0.0
 27
0.0
 37
0.0
 40
955.85841533381551
 41
1.980636237897649
 42
50.0
 43
0.0
 44
0.0
 50
0.0
 51
0.0
 71
     0
 72
  1000
 73
     1
 74
     3
 75
     0
 76
     0
 77
     0
 78
     0
  0
ENDTAB
  0
ENDSEC
  0
SECTION
  2
BLOCKS
  0
BLOCK
  8
0
  2
_ORIGIN
 70
     0
 10
0.0
 20
0.0
 30
0.0
  3
_ORIGIN
  1
_ORIGIN
  0
CIRCLE
  8
SIZE
  6
CONTINUOUS
 62
    30
 10
0.0
 20
0.0
 30
0.0
 40
0.5
  0
LINE
  8
SIZE
  6
CONTINUOUS
 62
    30
 10
0.0
 20
0.0
 30
0.0
 11
-1.0
 21
0.0
 31
0.0
  0
ENDBLK
  8
0
  0
ENDSEC
  0
SECTION
  2
ENTITIES
  0
LINE
  8
DETAIL
  6
CONTINUOUS
 62
     5
 10
344.99999999999858
 20
-355.00000000000051
 30
0.0
 11
-345.00000000000142
 21
-355.00000000000051
 31
0.0
  0
LINE
  8
DETAIL
  6
CONTINUOUS
 62
     5
 10
354.99999999999858
 20
344.99999999999949
 30
0.0
 11
354.99999999999858
 21
-345.00000000000051
 31
0.0
  0
LINE
  8
BASIS
  6
DASHDOT
 62
     6
 10
-0.0000000000013642
 20
376.10204625299963
 30
0.0
 11
-0.0000000000013642
 21
-372.29463412700062
 31
0.0
  0
LINE
  8
BASIS
  6
DASHDOT
 62
     6
 10
-388.92402204699829
 20
0.0
 30
0.0
 11
388.92402204699869
 21
0.0
 31
0.0
  0
LINE
  8
DETAIL
  6
CONTINUOUS
 62
     5
 10
-355.00000000000142
 20
-345.00000000000051
 30
0.0
 11
-355.00000000000142
 21
344.99999999999949
 31
0.0
  0
LINE
  8
DETAIL
  6
CONTINUOUS
 62
     5
 10
-345.00000000000142
 20
354.99999999999949
 30
0.0
 11
344.99999999999858
 21
354.99999999999949
 31
0.0
  0
ARC
  8
DETAIL
  6
CONTINUOUS
 62
     5
 10
344.99999999999858
 20
-345.00000000000051
 30
0.0
 40
10.0
 50
270.0
 51
0.0
  0
ARC
  8
DETAIL
  6
CONTINUOUS
 62
     5
 10
-345.00000000000142
 20
-345.00000000000051
 30
0.0
 40
10.0
 50
180.0
 51
270.0
  0
ARC
  8
DETAIL
  6
CONTINUOUS
 62
     5
 10
344.99999999999858
 20
344.99999999999949
 30
0.0
 40
10.0
 50
0.0
 51
90.0
  0
ARC
  8
DETAIL
  6
CONTINUOUS
 62
     5
 10
-345.00000000000142
 20
344.99999999999949
 30
0.0
 40
10.0
 50
90.0
 51
180.0
  0
LINE
  8
SIZE
  6
CONTINUOUS
 62
    30
 10
-355.00000000000142
 20
364.99999999999949
 30
0.0
 11
-355.00000000000142
 21
583.23498854888794
 31
0.0
  0
LINE
  8
SIZE
  6
CONTINUOUS
 62
    30
 10
354.99999999999858
 20
364.99999999999949
 30
0.0
 11
354.99999999999858
 21
583.23498854888794
 31
0.0
  0
LINE
  8
SIZE
  6
CONTINUOUS
 62
    30
 10
-343.00000000000142
 20
563.23498854888794
 30
0.0
 11
342.99999999999858
 21
563.23498854888794
 31
0.0
  0
CIRCLE
  8
SIZE
  6
CONTINUOUS
 62
    30
 10
-355.00000000000142
 20
563.23498854888794
 30
0.0
 40
6.0
  0
LINE
  8
SIZE
  6
CONTINUOUS
 62
    30
 10
-355.00000000000142
 20
563.23498854888794
 30
0.0
 11
-343.00000000000142
 21
563.23498854888794
 31
0.0
  0
CIRCLE
  8
SIZE
  6
CONTINUOUS
 62
    30
 10
354.99999999999858
 20
563.23498854888794
 30
0.0
 40
6.0
  0
LINE
  8
SIZE
  6
CONTINUOUS
 62
    30
 10
354.99999999999858
 20
563.23498854888794
 30
0.0
 11
342.99999999999858
 21
563.23498854888794
 31
0.0
  0
TEXT
  8
SIZE
  6
CONTINUOUS
 62
    30
 10
-75.168000000001371
 20
588.23498854888794
 30
0.0
 40
64.0
  1
710
 50
0.0
 41
0.9
 51
0.0
  7
STANDARD
 71
     0
 72
     1
 11
-0.0000000000013642
 21
588.23498854888794
 31
0.0
210
0.0
220
0.0
230
1.0
  0
POINT
  8
DEFPOINTS
  6
CONTINUOUS
 62
    30
 10
-355.00000000000142
 20
344.99999999999949
 30
0.0
  0
POINT
  8
DEFPOINTS
  6
CONTINUOUS
 62
    30
 10
354.99999999999858
 20
344.99999999999949
 30
0.0
  0
POINT
  8
DEFPOINTS
  6
CONTINUOUS
 62
    30
 10
354.99999999999858
 20
563.23498854888794
 30
0.0
  0
LINE
  8
SIZE
  6
CONTINUOUS
 62
    30
 10
-365.00000000000148
 20
354.99999999999972
 30
0.0
 11
-625.40225131571435
 21
354.9999999999996
 31
0.0
  0
LINE
  8
SIZE
  6
CONTINUOUS
 62
    30
 10
-365.00000000000148
 20
-355.00000000000063
 30
0.0
 11
-625.40225131571412
 21
-355.00000000000063
 31
0.0
  0
LINE
  8
SIZE
  6
CONTINUOUS
 62
    30
 10
-605.40225131571435
 20
342.9999999999996
 30
0.0
 11
-605.40225131571412
 21
-343.00000000000063
 31
0.0
  0
CIRCLE
  8
SIZE
  6
CONTINUOUS
 62
    30
 10
-605.40225131571435
 20
354.9999999999996
 30
0.0
 40
6.0
  0
LINE
  8
SIZE
  6
CONTINUOUS
 62
    30
 10
-605.40225131571435
 20
354.9999999999996
 30
0.0
 11
-605.40225131571435
 21
342.9999999999996
 31
0.0
  0
CIRCLE
  8
SIZE
  6
CONTINUOUS
 62
    30
 10
-605.40225131571412
 20
-355.00000000000063
 30
0.0
 40
6.0
  0
LINE
  8
SIZE
  6
CONTINUOUS
 62
    30
 10
-605.40225131571412
 20
-355.00000000000063
 30
0.0
 11
-605.40225131571412
 21
-343.00000000000063
 31
0.0
  0
TEXT
  8
SIZE
  6
CONTINUOUS
 62
    30
 10
-630.40225131571412
 20
-75.168000000000362
 30
0.0
 40
64.0
  1
710
 50
90.0
 41
0.9
 51
0.0
  7
STANDARD
 71
     0
 72
     1
 11
-630.40225131571412
 21
-0.0000000000003559
 31
0.0
210
0.0
220
0.0
230
1.0
  0
POINT
  8
DEFPOINTS
  6
CONTINUOUS
 62
    30
 10
-345.00000000000148
 20
354.99999999999972
 30
0.0
  0
POINT
  8
DEFPOINTS
  6
CONTINUOUS
 62
    30
 10
-345.00000000000148
 20
-355.00000000000063
 30
0.0
  0
POINT
  8
DEFPOINTS
  6
CONTINUOUS
 62
    30
 10
-605.40225131571412
 20
-355.00000000000063
 30
0.0
  0
ARC
  8
OUTLINE
  6
CONTINUOUS
 62
     3
 10
344.99999999999858
 20
344.99999999999949
 30
0.0
 40
9.9999999999999982
 50
0.0
 51
90.0
  0
LINE
  8
OUTLINE
  6
CONTINUOUS
 62
     3
 10
344.99999999999858
 20
354.99999999999949
 30
0.0
 11
-345.00000000000142
 21
354.99999999999949
 31
0.0
  0
ARC
  8
OUTLINE
  6
CONTINUOUS
 62
     3
 10
-345.00000000000142
 20
344.99999999999949
 30
0.0
 40
9.9999999999999982
 50
90.0
 51
180.0
  0
LINE
  8
OUTLINE
  6
CONTINUOUS
 62
     3
 10
-355.00000000000142
 20
344.99999999999949
 30
0.0
 11
-355.00000000000142
 21
-345.00000000000051
 31
0.0
  0
ARC
  8
OUTLINE
  6
CONTINUOUS
 62
     3
 10
-345.00000000000142
 20
-345.00000000000051
 30
0.0
 40
9.9999999999999982
 50
180.0
 51
270.0
  0
LINE
  8
OUTLINE
  6
CONTINUOUS
 62
     3
 10
-345.00000000000142
 20
-355.00000000000051
 30
0.0
 11
344.99999999999858
 21
-355.00000000000051
 31
0.0
  0
ARC
  8
OUTLINE
  6
CONTINUOUS
 62
     3
 10
344.99999999999858
 20
-345.00000000000051
 30
0.0
 40
9.9999999999999982
 50
270.0
 51
0.0
  0
LINE
  8
OUTLINE
  6
CONTINUOUS
 62
     3
 10
354.99999999999858
 20
-345.00000000000051
 30
0.0
 11
354.99999999999858
 21
344.99999999999949
 31
0.0
  0
POINT
  8
ARRANGE
  6
CONTINUOUS
 62
     1
 10
0.0
 20
0.0
 30
0.0
 50
180.0
  0
CIRCLE
  8
ARRANGE
  6
CONTINUOUS
 62
     1
 10
0.0
 20
0.0
 30
0.0
 40
40.0
  0
CIRCLE
  8
DETAIL
  6
CONTINUOUS
 62
     5
 10
-0.000000000001819
 20
-0.000000000001819
 30
0.0
 40
305.0
  0
TEXT
  8
ETC
  6
CONTINUOUS
 62
    61
 10
607.68732683031567
 20
482.55816314738922
 30
0.0
 40
64.0
  1
EG-60FTXC2_3
 41
0.9
  0
TEXT
  8
ETC
  6
CONTINUOUS
 62
    61
 10
603.50133283031619
 20
364.60285313255798
 30
0.0
 40
64.0
  1
有圧換気扇
 41
0.9
  0
TEXT
  8
ETC
  6
CONTINUOUS
 62
    61
 10
654.20273107887124
 20
256.45408024633281
 30
0.0
 40
40.0
  1
EG-60FTXC2
 50
0.0
 41
0.9
 51
0.0
  7
STANDARD
 71
     0
 11
0.0
 21
0.0
 31
0.0
210
0.0
220
0.0
230
1.0
  0
TEXT
  8
ETC
  6
CONTINUOUS
 62
    61
 10
654.20273107887124
 20
190.45408024633281
 30
0.0
 40
40.0
  1
EG-60FTXC2-F
 50
0.0
 41
0.9
 51
0.0
  7
STANDARD
 71
     0
 11
0.0
 21
0.0
 31
0.0
210
0.0
220
0.0
230
1.0
  0
ARC
  8
DETAIL
  6
CONTINUOUS
 62
     5
 10
0.000000000001819
 20
-0.000000000001819
 30
0.0
 40
300.00000000000068
 50
180.94570843782429
 51
258.21883631331531
  0
ARC
  8
DETAIL
  6
CONTINUOUS
 62
     5
 10
-154.1736577776592
 20
-106.7903981997392
 30
0.0
 40
208.7157055250905
 50
296.43648978763912
 51
4.3247469664366696
  0
ARC
  8
DETAIL
  6
CONTINUOUS
 62
     5
 10
-125.4699295937889
 20
127.0173378829022
 30
0.0
 40
200.85921018655861
 50
218.47126434088759
 51
282.94533204486009
  0
ARC
  8
DETAIL
  6
CONTINUOUS
 62
     5
 10
-289.43262632617552
 20
-5.4482703984970158
 30
0.0
 40
10.53178000698799
 50
77.680378726036338
 51
177.85475179711119
  0
ARC
  8
DETAIL
  6
CONTINUOUS
 62
     5
 10
-289.68068701604437
 20
-4.1210019836948959
 30
0.0
 40
9.3028590500339732
 50
41.624574597257613
 51
74.441877053639686
  0
ARC
  8
DETAIL
  6
CONTINUOUS
 62
     5
 10
0.000000000001819
 20
-0.000000000001819
 30
0.0
 40
300.00000000000068
 50
60.945708437791161
 51
138.21883631336769
  0
ARC
  8
DETAIL
  6
CONTINUOUS
 62
     5
 10
-15.396368832399279
 20
186.91350332968639
 30
0.0
 40
208.71570552509041
 50
176.43648978760109
 51
244.32474696643561
  0
ARC
  8
DETAIL
  6
CONTINUOUS
 62
     5
 10
172.73520612456099
 20
45.151477497811364
 30
0.0
 40
200.8592101865585
 50
98.471264340897704
 51
162.94533204485941
  0
ARC
  8
DETAIL
  6
CONTINUOUS
 62
     5
 10
139.98838711709141
 20
253.38313897151869
 30
0.0
 40
10.54088593262588
 50
317.70341370293602
 51
57.245401288558163
  0
ARC
  8
DETAIL
  6
CONTINUOUS
 62
     5
 10
141.2714511010972
 20
252.9313349334661
 30
0.0
 40
9.3028590500339732
 50
281.62457459724811
 51
314.44187705361622
  0
ARC
  8
DETAIL
  6
CONTINUOUS
 62
     5
 10
0.000000000001819
 20
-0.000000000001819
 30
0.0
 40
300.00000000000068
 50
300.94570843778092
 51
18.218836313348081
  0
ARC
  8
DETAIL
  6
CONTINUOUS
 62
     5
 10
169.57002661005569
 20
-80.123105129953728
 30
0.0
 40
208.71570552509041
 50
56.436489787601047
 51
124.3247469664436
  0
ARC
  8
DETAIL
  6
CONTINUOUS
 62
     5
 10
-47.265276530773008
 20
-172.16881538071971
 30
0.0
 40
200.85921018655861
 50
338.4712643409091
 51
42.945332044868323
  0
ARC
  8
DETAIL
  6
CONTINUOUS
 62
     5
 10
149.4420416814346
 20
-247.92506896397191
 30
0.0
 40
10.54088593262809
 50
197.70341370289731
 51
297.24540128844922
  0
ARC
  8
DETAIL
  6
CONTINUOUS
 62
     5
 10
148.40923591494541
 20
-248.81033294977851
 30
0.0
 40
9.3028590500339732
 50
161.62457459726321
 51
194.44187705363731
  0
CIRCLE
  8
DETAIL
  6
CONTINUOUS
 62
     5
 10
-0.0000000000004547
 20
-0.0000000000025011
 30
0.0
 40
105.8333333333336
  0
LINE
  8
DETAIL
  6
CONTINUOUS
 62
     5
 10
-335.60660171800868
 20
324.99999999999949
 30
0.0
 11
-325.00000000000142
 21
335.60660171799958
 31
0.0
  0
LINE
  8
DETAIL
  6
CONTINUOUS
 62
     5
 10
-323.40900974200798
 20
315.9843885399996
 30
0.0
 11
-315.98438853999818
 21
323.40900974349961
 31
0.0
  0
LINE
  8
DETAIL
  6
CONTINUOUS
 62
     5
 10
-325.59684732462478
 20
-335.62442894344713
 30
0.0
 11
-336.2034490426322
 21
-325.01782722694702
 31
0.0
  0
LINE
  8
DETAIL
  6
CONTINUOUS
 62
     5
 10
-316.5812358646217
 20
-323.4268369689471
 30
0.0
 11
-324.00585706663151
 21
-316.00221576694707
 31
0.0
  0
LINE
  8
BASIS
  6
DASHDOT
 62
     6
 10
-325.00000000000142
 20
356.81119100499973
 30
0.0
 11
-325.00000000000142
 21
293.18880899649957
 31
0.0
  0
LINE
  8
BASIS
  6
DASHDOT
 62
     6
 10
-325.59684732462478
 20
-298.00146106444708
 30
0.0
 11
-325.59684732462478
 21
-352.03419338794703
 31
0.0
  0
LINE
  8
BASIS
  6
DASHDOT
 62
     6
 10
-298.58048116213098
 20
-325.01782722694702
 30
0.0
 11
-352.61321348562888
 21
-325.01782722694702
 31
0.0
  0
LINE
  8
DETAIL
  6
CONTINUOUS
 62
     5
 10
-336.2034490426322
 20
-325.01782722694702
 30
0.0
 11
-322.41486680862732
 21
-311.22924499294692
 31
0.0
  0
LINE
  8
DETAIL
  6
CONTINUOUS
 62
     5
 10
-324.00585706663151
 20
-316.00221576694707
 30
0.0
 11
-320.82387655062848
 21
-312.82023525094701
 31
0.0
  0
LINE
  8
DETAIL
  6
CONTINUOUS
 62
     5
 10
-321.8180194840038
 20
311.21141776749943
 30
0.0
 11
-335.60660171800868
 21
324.99999999999949
 31
0.0
  0
LINE
  8
DETAIL
  6
CONTINUOUS
 62
     5
 10
-323.40900974200798
 20
315.9843885399996
 30
0.0
 11
-320.22702922600502
 21
312.80240802549952
 31
0.0
  0
LINE
  8
DETAIL
  6
CONTINUOUS
 62
     5
 10
-316.5812358646217
 20
-323.4268369689471
 30
0.0
 11
-313.39925534862408
 21
-320.24485645294698
 31
0.0
  0
LINE
  8
DETAIL
  6
CONTINUOUS
 62
     5
 10
-311.80826509063081
 20
-321.83584671094701
 30
0.0
 11
-325.59684732462478
 21
-335.62442894344713
 31
0.0
  0
LINE
  8
DETAIL
  6
CONTINUOUS
 62
     5
 10
-315.98438853999818
 20
323.40900974349961
 30
0.0
 11
-312.80240802400073
 21
320.22702922749949
 31
0.0
  0
LINE
  8
DETAIL
  6
CONTINUOUS
 62
     5
 10
-325.00000000000142
 20
335.60660171799958
 30
0.0
 11
-311.21141776600729
 21
321.81801948549952
 31
0.0
  0
LINE
  8
BASIS
  6
DASHDOT
 62
     6
 10
-293.18880899500567
 20
324.99999999999949
 30
0.0
 11
-356.81119100350719
 21
324.99999999999949
 31
0.0
  0
ARC
  8
DETAIL
  6
CONTINUOUS
 62
     5
 10
-312.6037602196302
 20
-321.04035158194711
 30
0.0
 40
1.125
 50
315.00000000000921
 51
135.00000000000921
  0
ARC
  8
DETAIL
  6
CONTINUOUS
 62
     5
 10
-321.61937167962787
 20
-312.02474012194688
 30
0.0
 40
1.125
 50
315.00000000000921
 51
135.00000000000921
  0
ARC
  8
DETAIL
  6
CONTINUOUS
 62
     5
 10
-321.02252435500441
 20
312.00691289649939
 30
0.0
 40
1.125
 50
224.99999999999079
 51
44.999999999990777
  0
ARC
  8
DETAIL
  6
CONTINUOUS
 62
     5
 10
-312.00691289500668
 20
321.02252435649962
 30
0.0
 40
1.125
 50
224.99999999999079
 51
44.999999999990777
  0
LINE
  8
SIZE
  6
CONTINUOUS
 62
    30
 10
-325.00000000000142
 20
376.81119100499973
 30
0.0
 11
-325.00000000000142
 21
450.00111143581438
 31
0.0
  0
LINE
  8
SIZE
  6
CONTINUOUS
 62
    30
 10
324.99999999999858
 20
376.81119100499973
 30
0.0
 11
324.99999999999858
 21
450.00111143581438
 31
0.0
  0
LINE
  8
SIZE
  6
CONTINUOUS
 62
    30
 10
-313.00000000000142
 20
430.00111143581438
 30
0.0
 11
312.99999999999858
 21
430.00111143581438
 31
0.0
  0
CIRCLE
  8
SIZE
  6
CONTINUOUS
 62
    30
 10
-325.00000000000142
 20
430.00111143581438
 30
0.0
 40
6.0
  0
LINE
  8
SIZE
  6
CONTINUOUS
 62
    30
 10
-325.00000000000142
 20
430.00111143581438
 30
0.0
 11
-313.00000000000142
 21
430.00111143581438
 31
0.0
  0
CIRCLE
  8
SIZE
  6
CONTINUOUS
 62
    30
 10
324.99999999999858
 20
430.00111143581438
 30
0.0
 40
6.0
  0
LINE
  8
SIZE
  6
CONTINUOUS
 62
    30
 10
324.99999999999858
 20
430.00111143581438
 30
0.0
 11
312.99999999999858
 21
430.00111143581438
 31
0.0
  0
TEXT
  8
SIZE
  6
CONTINUOUS
 62
    30
 10
-80.928000000001362
 20
455.00111143581444
 30
0.0
 40
64.0
  1
650
 50
0.0
 41
0.9
 51
0.0
  7
STANDARD
 71
     0
 72
     1
 11
-0.0000000000013642
 21
455.00111143581444
 31
0.0
210
0.0
220
0.0
230
1.0
  0
POINT
  8
DEFPOINTS
  6
CONTINUOUS
 62
    30
 10
-325.00000000000142
 20
356.81119100499973
 30
0.0
  0
POINT
  8
DEFPOINTS
  6
CONTINUOUS
 62
    30
 10
324.99999999999858
 20
356.81119100499973
 30
0.0
  0
POINT
  8
DEFPOINTS
  6
CONTINUOUS
 62
    30
 10
324.99999999999858
 20
430.00111143581438
 30
0.0
  0
LINE
  8
SIZE
  6
CONTINUOUS
 62
    30
 10
-376.81119100350742
 20
324.99999999999972
 30
0.0
 11
-485.99386708349073
 21
324.9999999999996
 31
0.0
  0
LINE
  8
SIZE
  6
CONTINUOUS
 62
    30
 10
-372.61321348562899
 20
-325.01782722694708
 30
0.0
 11
-485.99386708349061
 21
-325.01782722694719
 31
0.0
  0
LINE
  8
SIZE
  6
CONTINUOUS
 62
    30
 10
-465.99386708349073
 20
312.9999999999996
 30
0.0
 11
-465.99386708349061
 21
-313.01782722694719
 31
0.0
  0
CIRCLE
  8
SIZE
  6
CONTINUOUS
 62
    30
 10
-465.99386708349073
 20
324.9999999999996
 30
0.0
 40
6.0
  0
LINE
  8
SIZE
  6
CONTINUOUS
 62
    30
 10
-465.99386708349073
 20
324.9999999999996
 30
0.0
 11
-465.99386708349073
 21
312.9999999999996
 31
0.0
  0
CIRCLE
  8
SIZE
  6
CONTINUOUS
 62
    30
 10
-465.99386708349061
 20
-325.01782722694719
 30
0.0
 40
6.0
  0
LINE
  8
SIZE
  6
CONTINUOUS
 62
    30
 10
-465.99386708349061
 20
-325.01782722694719
 30
0.0
 11
-465.99386708349061
 21
-313.01782722694719
 31
0.0
  0
TEXT
  8
SIZE
  6
CONTINUOUS
 62
    30
 10
-490.9938670834905
 20
-80.936913613473649
 30
0.0
 40
64.0
  1
650
 50
90.0
 41
0.9
 51
0.0
  7
STANDARD
 71
     0
 72
     1
 11
-490.9938670834905
 21
-0.008913613473647
 31
0.0
210
0.0
220
0.0
230
1.0
  0
POINT
  8
DEFPOINTS
  6
CONTINUOUS
 62
    30
 10
-356.81119100350742
 20
324.99999999999972
 30
0.0
  0
POINT
  8
DEFPOINTS
  6
CONTINUOUS
 62
    30
 10
-352.61321348562899
 20
-325.01782722694708
 30
0.0
  0
POINT
  8
DEFPOINTS
  6
CONTINUOUS
 62
    30
 10
-465.99386708349061
 20
-325.01782722694719
 30
0.0
  0
CIRCLE
  8
FIX
  6
CONTINUOUS
 62
    11
 10
-325.00000000000142
 20
324.99999999999949
 30
0.0
 40
7.5
  0
CIRCLE
  8
FIX
  6
CONTINUOUS
 62
    11
 10
-325.59684732462478
 20
-325.01782722694702
 30
0.0
 40
7.5
  0
LINE
  8
DETAIL
  6
CONTINUOUS
 62
     5
 10
335.606601718006
 20
324.99999999999949
 30
0.0
 11
324.99999999999858
 21
335.60660171799958
 31
0.0
  0
LINE
  8
DETAIL
  6
CONTINUOUS
 62
     5
 10
323.40900974200531
 20
315.9843885399996
 30
0.0
 11
315.98438853999551
 21
323.40900974349961
 31
0.0
  0
LINE
  8
DETAIL
  6
CONTINUOUS
 62
     5
 10
325.59684732462159
 20
-335.62442894344713
 30
0.0
 11
336.20344904262902
 21
-325.01782722694702
 31
0.0
  0
LINE
  8
DETAIL
  6
CONTINUOUS
 62
     5
 10
316.58123586461852
 20
-323.4268369689471
 30
0.0
 11
324.00585706662832
 21
-316.00221576694707
 31
0.0
  0
LINE
  8
BASIS
  6
DASHDOT
 62
     6
 10
324.99999999999858
 20
356.81119100499973
 30
0.0
 11
324.99999999999858
 21
293.18880899649957
 31
0.0
  0
LINE
  8
BASIS
  6
DASHDOT
 62
     6
 10
325.59684732462159
 20
-298.00146106444708
 30
0.0
 11
325.59684732462159
 21
-352.03419338794703
 31
0.0
  0
LINE
  8
BASIS
  6
DASHDOT
 62
     6
 10
298.58048116212831
 20
-325.01782722694702
 30
0.0
 11
352.61321348562569
 21
-325.01782722694702
 31
0.0
  0
LINE
  8
DETAIL
  6
CONTINUOUS
 62
     5
 10
336.20344904262902
 20
-325.01782722694702
 30
0.0
 11
322.41486680862408
 21
-311.22924499294692
 31
0.0
  0
LINE
  8
DETAIL
  6
CONTINUOUS
 62
     5
 10
324.00585706662832
 20
-316.00221576694707
 30
0.0
 11
320.8238765506253
 21
-312.82023525094701
 31
0.0
  0
LINE
  8
DETAIL
  6
CONTINUOUS
 62
     5
 10
321.81801948400113
 20
311.21141776749943
 30
0.0
 11
335.606601718006
 21
324.99999999999949
 31
0.0
  0
LINE
  8
DETAIL
  6
CONTINUOUS
 62
     5
 10
323.40900974200531
 20
315.9843885399996
 30
0.0
 11
320.22702922600229
 21
312.80240802549952
 31
0.0
  0
LINE
  8
DETAIL
  6
CONTINUOUS
 62
     5
 10
316.58123586461852
 20
-323.4268369689471
 30
0.0
 11
313.39925534862101
 21
-320.24485645294698
 31
0.0
  0
LINE
  8
DETAIL
  6
CONTINUOUS
 62
     5
 10
311.80826509062757
 20
-321.83584671094701
 30
0.0
 11
325.59684732462159
 21
-335.62442894344713
 31
0.0
  0
LINE
  8
DETAIL
  6
CONTINUOUS
 62
     5
 10
315.98438853999551
 20
323.40900974349961
 30
0.0
 11
312.80240802399788
 21
320.22702922749949
 31
0.0
  0
LINE
  8
DETAIL
  6
CONTINUOUS
 62
     5
 10
324.99999999999858
 20
335.60660171799958
 30
0.0
 11
311.21141776600462
 21
321.81801948549952
 31
0.0
  0
LINE
  8
BASIS
  6
DASHDOT
 62
     6
 10
293.188808995003
 20
324.99999999999949
 30
0.0
 11
356.81119100350452
 21
324.99999999999949
 31
0.0
  0
ARC
  8
DETAIL
  6
CONTINUOUS
 62
     5
 10
312.60376021962702
 20
-321.04035158194711
 30
0.0
 40
1.125
 50
44.999999999990777
 51
224.99999999999079
  0
ARC
  8
DETAIL
  6
CONTINUOUS
 62
     5
 10
321.61937167962469
 20
-312.02474012194688
 30
0.0
 40
1.125
 50
44.999999999990777
 51
224.99999999999079
  0
ARC
  8
DETAIL
  6
CONTINUOUS
 62
     5
 10
321.02252435500168
 20
312.00691289649939
 30
0.0
 40
1.125
 50
135.00000000000921
 51
315.00000000000921
  0
ARC
  8
DETAIL
  6
CONTINUOUS
 62
     5
 10
312.00691289500401
 20
321.02252435649962
 30
0.0
 40
1.125
 50
135.00000000000921
 51
315.00000000000921
  0
CIRCLE
  8
FIX
  6
CONTINUOUS
 62
    11
 10
324.99999999999858
 20
324.99999999999949
 30
0.0
 40
7.5
  0
CIRCLE
  8
FIX
  6
CONTINUOUS
 62
    11
 10
325.59684732462159
 20
-325.01782722694702
 30
0.0
 40
7.5
  0
LINE
  8
DETAIL
  6
CONTINUOUS
 62
     5
 10
153.49534968028959
 20
-178.46113451674859
 30
0.0
 11
70.2031224390239
 21
-79.197323466492435
 31
0.0
  0
LINE
  8
DETAIL
  6
CONTINUOUS
 62
     5
 10
153.02783950376721
 20
-187.2383205465276
 30
0.0
 11
65.602176760219209
 21
-83.048472886415993
 31
0.0
  0
LINE
  8
DETAIL
  6
CONTINUOUS
 62
     5
 10
102.7751830516513
 20
117.61585058399579
 30
0.0
 11
199.07918179970099
 21
232.38648707263181
 31
0.0
  0
LINE
  8
DETAIL
  6
CONTINUOUS
 62
     5
 10
194.48453285625459
 20
236.2451406477621
 30
0.0
 11
91.40953822585243
 21
113.40514549092541
 31
0.0
  0
LINE
  8
SIZE
  6
CONTINUOUS
 62
    30
 10
558.28369556062921
 20
-298.22628528362469
 30
0.0
 11
279.60704472808709
 21
-149.3616434645345
 31
0.0
  0
LINE
  8
SIZE
  6
CONTINUOUS
 62
    30
 10
-279.60704472808419
 20
149.36164346453461
 30
0.0
 11
-290.19153853482561
 21
155.0157119868513
 31
0.0
  0
TEXT
  8
SIZE
  6
CONTINUOUS
 62
    30
 10
367.76107083035981
 20
-168.10877561118167
 30
0.0
 40
64.0
  1
φ610
 50
331.88957500339109
 41
0.9
 51
0.0
  7
STANDARD
 71
     0
 72
     1
 11
464.54568219920304
 21
-219.80957817924616
 31
0.0
210
0.0
220
0.0
230
1.0
  0
LINE
  8
SIZE
  6
CONTINUOUS
 62
    30
 10
-269.02255092134283
 20
143.7075749422178
 30
0.0
 11
269.02255092134573
 21
-143.7075749422178
 31
0.0
  0
CIRCLE
  8
SIZE
  6
CONTINUOUS
 62
    30
 10
-269.02255092134283
 20
143.7075749422178
 30
0.0
 40
6.0
  0
LINE
  8
SIZE
  6
CONTINUOUS
 62
    30
 10
-269.02255092134283
 20
143.7075749422178
 30
0.0
 11
-279.60704472808419
 21
149.36164346453455
 31
0.0
  0
CIRCLE
  8
SIZE
  6
CONTINUOUS
 62
    30
 10
269.02255092134573
 20
-143.7075749422178
 30
0.0
 40
6.0
  0
LINE
  8
SIZE
  6
CONTINUOUS
 62
    30
 10
269.02255092134573
 20
-143.7075749422178
 30
0.0
 11
279.60704472808709
 21
-149.36164346453455
 31
0.0
  0
POINT
  8
DEFPOINTS
  6
CONTINUOUS
 62
    30
 10
269.02255092134573
 20
-143.7075749422178
 30
0.0
  0
POINT
  8
DEFPOINTS
  6
CONTINUOUS
 62
    30
 10
-269.02255092134283
 20
143.7075749422178
 30
0.0
  0
LINE
  8
SIZE
  6
CONTINUOUS
 62
    30
 10
616.69672246050254
 20
84.053965019178023
 30
0.0
 11
309.14176611160838
 21
42.13512128139385
 31
0.0
  0
LINE
  8
SIZE
  6
CONTINUOUS
 62
    30
 10
-309.14176611160258
 20
-42.135121281397737
 30
0.0
 11
-321.03183403897202
 21
-43.755702869143732
 31
0.0
  0
TEXT
  8
SIZE
  6
CONTINUOUS
 62
    30
 10
374.35166084025116
 20
76.254182435138333
 30
0.0
 40
64.0
  1
φ600
 50
7.7614224303722494
 41
0.9
 51
0.0
  7
STANDARD
 71
     0
 72
     1
 11
489.35239783376812
 21
91.928447551817499
 31
0.0
210
0.0
220
0.0
230
1.0
  0
LINE
  8
SIZE
  6
CONTINUOUS
 62
    30
 10
-297.25169818423319
 20
-40.514539693651763
 30
0.0
 11
297.25169818423899
 21
40.514539693647869
 31
0.0
  0
CIRCLE
  8
SIZE
  6
CONTINUOUS
 62
    30
 10
-297.25169818423319
 20
-40.514539693651763
 30
0.0
 40
6.0
  0
LINE
  8
SIZE
  6
CONTINUOUS
 62
    30
 10
-297.25169818423319
 20
-40.514539693651763
 30
0.0
 11
-309.14176611160258
 21
-42.135121281397751
 31
0.0
  0
CIRCLE
  8
SIZE
  6
CONTINUOUS
 62
    30
 10
297.25169818423899
 20
40.514539693647869
 30
0.0
 40
6.0
  0
LINE
  8
SIZE
  6
CONTINUOUS
 62
    30
 10
297.25169818423899
 20
40.514539693647869
 30
0.0
 11
309.14176611160838
 21
42.135121281393843
 31
0.0
  0
POINT
  8
DEFPOINTS
  6
CONTINUOUS
 62
    30
 10
297.25169818423899
 20
40.514539693647869
 30
0.0
  0
POINT
  8
DEFPOINTS
  6
CONTINUOUS
 62
    30
 10
-297.25169818423319
 20
-40.514539693651763
 30
0.0
  0
LINE
  8
DETAIL
  6
CONTINUOUS
 62
     5
 10
-232.9445274586792
 20
-355.00000000000068
 30
0.0
 11
-232.9445274586792
 21
-483.4622384132399
 31
0.0
  0
LINE
  8
DETAIL
  6
CONTINUOUS
 62
     5
 10
-249.61119412534569
 20
-355.00000000000068
 30
0.0
 11
-249.61119412534529
 21
-483.4622384132399
 31
0.0
  0
LINE
  8
DETAIL
  6
CONTINUOUS
 62
     5
 10
-232.9445274586792
 20
-483.4622384132399
 30
0.0
 11
-249.61119412534529
 21
-483.4622384132399
 31
0.0
  0
TEXT
  8
NOTE
  6
CONTINUOUS
 62
     4
 10
406.38635559004302
 20
-483.19421081441351
 30
0.0
 40
64.0
  1
4-15×15
 50
0.0
 41
0.9
 51
0.0
  7
STANDARD
 71
     0
 11
0.0
 21
0.0
 31
0.0
210
0.0
220
0.0
230
1.0
  0
LINE
  8
NOTE
  6
CONTINUOUS
 62
     4
 10
406.29635559004282
 20
-495.99421081441352
 30
0.0
 11
784.90064130432847
 21
-495.99421081441352
 31
0.0
  0
LINE
  8
NOTE
  6
CONTINUOUS
 62
     4
 10
328.05833734644585
 20
-355.97842394475043
 30
0.0
 11
325.59684732462159
 21
-325.01782722694702
 31
0.0
  0
LINE
  8
NOTE
  6
CONTINUOUS
 62
     4
 10
325.59684732462159
 20
-325.01782722694702
 30
0.0
 11
343.20889712407654
 21
-350.59971894963866
 31
0.0
  0
LINE
  8
NOTE
  6
CONTINUOUS
 62
     4
 10
325.59684732462159
 20
-325.01782722694702
 30
0.0
 11
345.6703871459008
 21
-381.56031566744207
 31
0.0
  0
LINE
  8
NOTE
  6
CONTINUOUS
 62
     4
 10
345.6703871459008
 20
-381.56031566744213
 30
0.0
 11
386.29635559004282
 21
-495.99421081441352
 31
0.0
  0
LINE
  8
NOTE
  6
CONTINUOUS
 62
     4
 10
386.29635559004282
 20
-495.99421081441352
 30
0.0
 11
406.29635559004282
 21
-495.99421081441352
 31
0.0
  0
TEXT
  8
NOTE
  6
CONTINUOUS
 62
     4
 10
-455.41260158078217
 20
-508.53899018791481
 30
0.0
 40
64.0
  1
EL
 50
0.0
 41
0.9
 51
0.0
  7
STANDARD
 71
     0
 72
     2
 11
-354.03660158078219
 21
-508.53899018791481
 31
0.0
210
0.0
220
0.0
230
1.0
  0
LINE
  8
NOTE
  6
CONTINUOUS
 62
     4
 10
-353.9466015807825
 20
-521.33899018791476
 30
0.0
 11
-439.06517300935388
 21
-521.33899018791476
 31
0.0
  0
LINE
  8
NOTE
  6
CONTINUOUS
 62
     4
 10
-264.65523391075038
 20
-398.4435644280353
 30
0.0
 11
-241.6902385261287
 21
-377.53360342294718
 31
0.0
  0
LINE
  8
NOTE
  6
CONTINUOUS
 62
     4
 10
-241.6902385261287
 20
-377.53360342294718
 30
0.0
 11
-251.12348283239356
 21
-407.1246727532083
 31
0.0
  0
LINE
  8
NOTE
  6
CONTINUOUS
 62
     4
 10
-241.6902385261287
 20
-377.53360342294718
 30
0.0
 11
-274.08847821701522
 21
-428.03463375829642
 31
0.0
  0
LINE
  8
NOTE
  6
CONTINUOUS
 62
     4
 10
-274.08847821701528
 20
-428.03463375829642
 30
0.0
 11
-333.9466015807825
 21
-521.33899018791476
 31
0.0
  0
LINE
  8
NOTE
  6
CONTINUOUS
 62
     4
 10
-333.9466015807825
 20
-521.33899018791476
 30
0.0
 11
-353.9466015807825
 21
-521.33899018791476
 31
0.0
  0
ENDSEC
  0
EOF
