  0
SECTION
  2
HEADER
  9
$ACADVER
  1
AC1009
  9
$DWGCODEPAGE
  3
dos932
  9
$INSBASE
 10
0.0
 20
0.0
 30
0.0
  9
$EXTMIN
 10
-673.88761777417858
 20
-575.8209112982986
 30
-0.0015258207003583
  9
$EXTMAX
 10
1196.864330613593
 20
370.42237104664309
 30
0.0000000349246037
  9
$LIMMIN
 10
-2970.0
 20
-2100.0
  9
$LIMMAX
 10
2970.0
 20
2100.0
  9
$ORTHOMODE
 70
     1
  9
$REGENMODE
 70
     1
  9
$FILLMODE
 70
     1
  9
$QTEXTMODE
 70
     0
  9
$MIRRTEXT
 70
     0
  9
$LTSCALE
 40
20.0
  9
$ATTMODE
 70
     1
  9
$TEXTSIZE
 40
64.0
  9
$TRACEWID
 40
0.05
  9
$TEXTSTYLE
  7
STANDARD
  9
$CLAYER
  8
SIZE
  9
$CELTYPE
  6
CONTINUOUS
  9
$CECOLOR
 62
     7
  9
$DIMSCALE
 40
1.0
  9
$DIMASZ
 40
12.0
  9
$DIMEXO
 40
20.0
  9
$DIMDLI
 40
200.0
  9
$DIMRND
 40
0.0
  9
$DIMDLE
 40
0.0
  9
$DIMEXE
 40
20.0
  9
$DIMTP
 40
0.0
  9
$DIMTM
 40
0.0
  9
$DIMTXT
 40
64.0
  9
$DIMCEN
 40
0.09
  9
$DIMTSZ
 40
0.0
  9
$DIMTOL
 70
     0
  9
$DIMLIM
 70
     0
  9
$DIMTIH
 70
     0
  9
$DIMTOH
 70
     0
  9
$DIMSE1
 70
     0
  9
$DIMSE2
 70
     0
  9
$DIMTAD
 70
     1
  9
$DIMZIN
 70
     8
  9
$DIMBLK
  1

  9
$DIMASO
 70
     1
  9
$DIMSHO
 70
     0
  9
$DIMPOST
  1

  9
$DIMAPOST
  1

  9
$DIMALT
 70
     0
  9
$DIMALTD
 70
     2
  9
$DIMALTF
 40
25.399999999999999
  9
$DIMLFAC
 40
1.0
  9
$DIMTOFL
 70
     1
  9
$DIMTVP
 40
0.0
  9
$DIMTIX
 70
     1
  9
$DIMSOXD
 70
     0
  9
$DIMSAH
 70
     0
  9
$DIMBLK1
  1

  9
$DIMBLK2
  1

  9
$DIMSTYLE
  2
STANDARD
  9
$DIMCLRD
 70
     7
  9
$DIMCLRE
 70
     7
  9
$DIMCLRT
 70
     7
  9
$DIMTFAC
 40
1.0
  9
$DIMGAP
 40
25.0
  9
$LUNITS
 70
     2
  9
$LUPREC
 70
     4
  9
$SKETCHINC
 40
0.1
  9
$FILLETRAD
 40
3.0
  9
$AUNITS
 70
     1
  9
$AUPREC
 70
     3
  9
$MENU
  1
ACAD
  9
$ELEVATION
 40
0.0
  9
$PELEVATION
 40
0.0
  9
$THICKNESS
 40
0.0
  9
$LIMCHECK
 70
     0
  9
$CHAMFERA
 40
0.0
  9
$CHAMFERB
 40
0.0
  9
$SKPOLY
 70
     0
  9
$TDCREATE
 40
2453019.62301037
  9
$TDUPDATE
 40
2459362.660205035
  9
$TDINDWG
 40
1.7170877431
  9
$TDUSRTIMER
 40
1.7170877431
  9
$USRTIMER
 70
     1
  9
$ANGBASE
 50
0.0
  9
$ANGDIR
 70
     0
  9
$PDMODE
 70
     3
  9
$PDSIZE
 40
-2.0
  9
$PLINEWID
 40
0.0
  9
$SPLFRAME
 70
     0
  9
$SPLINETYPE
 70
     6
  9
$SPLINESEGS
 70
     8
  9
$SURFTAB1
 70
     6
  9
$SURFTAB2
 70
     6
  9
$SURFTYPE
 70
     6
  9
$SURFU
 70
     6
  9
$SURFV
 70
     6
  9
$UCSNAME
  2

  9
$UCSORG
 10
0.0
 20
0.0
 30
0.0
  9
$UCSXDIR
 10
1.0
 20
0.0
 30
0.0
  9
$UCSYDIR
 10
0.0
 20
1.0
 30
0.0
  9
$PUCSNAME
  2

  9
$PUCSORG
 10
0.0
 20
0.0
 30
0.0
  9
$PUCSXDIR
 10
1.0
 20
0.0
 30
0.0
  9
$PUCSYDIR
 10
0.0
 20
1.0
 30
0.0
  9
$USERI1
 70
     0
  9
$USERI2
 70
     0
  9
$USERI3
 70
     0
  9
$USERI4
 70
     0
  9
$USERI5
 70
     0
  9
$USERR1
 40
20.0
  9
$USERR2
 40
0.0
  9
$USERR3
 40
0.0
  9
$USERR4
 40
0.0
  9
$USERR5
 40
0.0
  9
$WORLDVIEW
 70
     1
  9
$SHADEDGE
 70
     3
  9
$SHADEDIF
 70
    70
  9
$TILEMODE
 70
     1
  9
$MAXACTVP
 70
    48
  9
$PINSBASE
 10
0.0
 20
0.0
 30
0.0
  9
$PLIMCHECK
 70
     0
  9
$PEXTMIN
 10
-100000000000000000000.0
 20
-100000000000000000000.0
 30
-100000000000000000000.0
  9
$PEXTMAX
 10
100000000000000000000.0
 20
100000000000000000000.0
 30
100000000000000000000.0
  9
$PLIMMIN
 10
0.0
 20
0.0
  9
$PLIMMAX
 10
12.0
 20
9.0
  9
$UNITMODE
 70
     0
  9
$VISRETAIN
 70
     0
  9
$PLINEGEN
 70
     0
  9
$PSLTSCALE
 70
     0
  9
$TREEDEPTH
 70
  3020
  9
$ATTDIA
 70
     0
  9
$ATTREQ
 70
     1
  9
$BLIPMODE
 70
     1
  9
$COORDS
 70
     1
  9
$DRAGMODE
 70
     2
  9
$OSMODE
 70
     0
  9
$HANDLING
 70
     0
  9
$HANDSEED
  5
100AC
  0
ENDSEC
  0
SECTION
  2
TABLES
  0
TABLE
  2
LTYPE
 70
     2
  0
LTYPE
  2
CONTINUOUS
 70
     0
  3
実線
 72
    65
 73
     0
 40
0.0
  0
LTYPE
  2
DASHDOT
 70
     0
  3
____ _ ____ _ ____ _ ____ _ ____ _ ____ _ ____
 72
    65
 73
     4
 40
5.5
 49
4.0
 49
-0.6
 49
0.3
 49
-0.6
  0
ENDTAB
  0
TABLE
  2
LAYER
 70
    12
  0
LAYER
  2
0
 70
     0
 62
     7
  6
CONTINUOUS
  0
LAYER
  2
BASIS
 70
     0
 62
     6
  6
DASHDOT
  0
LAYER
  2
OUTLINE
 70
     0
 62
     3
  6
CONTINUOUS
  0
LAYER
  2
DETAIL
 70
     0
 62
     5
  6
CONTINUOUS
  0
LAYER
  2
SIZE
 70
     0
 62
    30
  6
CONTINUOUS
  0
LAYER
  2
ARRANGE
 70
     0
 62
     1
  6
CONTINUOUS
  0
LAYER
  2
DEFPOINTS
 70
     0
 62
     7
  6
CONTINUOUS
  0
LAYER
  2
ETC
 70
     0
 62
    61
  6
CONTINUOUS
  0
LAYER
  2
FIX
 70
     0
 62
    11
  6
CONTINUOUS
  0
LAYER
  2
NOTE
 70
     0
 62
     4
  6
CONTINUOUS
  0
LAYER
  2
SERVICESPACE
 70
    64
 62
     2
  6
DASHDOT
  0
LAYER
  2
SYMBOLLINE
 70
    64
 62
    15
  6
CONTINUOUS
  0
ENDTAB
  0
TABLE
  2
STYLE
 70
     1
  0
STYLE
  2
STANDARD
 70
     0
 40
64.0
 41
0.9
 50
0.0
 71
     0
 42
64.0
  3
SIMPLEX.shx
  4
BIGFONT.shx
  0
ENDTAB
  0
TABLE
  2
APPID
 70
    20
  0
APPID
  2
ACAD
 70
     0
  0
APPID
  2
AUTOCAD_POSTSCRIPT_FIGURE
 70
     0
  0
APPID
  2
ACAD_EXEMPT_FROM_CAD_STANDARDS
 70
     0
  0
APPID
  2
ACAD_PSEXT
 70
     0
  0
APPID
  2
ACAUTHENVIRON
 70
     0
  0
APPID
  2
GENIUS_GENOENT_13
 70
     0
  0
APPID
  2
GENIUS_GENCFG_13
 70
     0
  0
APPID
  2
GENIUS_GENCFG0_13
 70
     0
  0
APPID
  2
GENIUS_GENCFG1_13
 70
     0
  0
APPID
  2
GENIUS_GENCFG2_13
 70
     0
  0
APPID
  2
GENIUS_GENCFG3_13
 70
     0
  0
APPID
  2
GENIUS_GENCFG4_13
 70
     0
  0
APPID
  2
GENIUS_GEVCFG0_13
 70
     0
  0
APPID
  2
CONTENTBLOCKICON
 70
     0
  0
APPID
  2
CONTENTBLOCKDESCRIPTION
 70
     0
  0
APPID
  2
ACAD_NAV_VCDISPLAY
 70
     0
  0
APPID
  2
ACAD_MLEADERVER
 70
     0
  0
APPID
  2
ACDBDYNAMICBLOCKTRUENAME
 70
     0
  0
APPID
  2
ACDBDYNAMICBLOCKGUID
 70
     0
  0
APPID
  2
ACAD_DSTYLE_DIMRADIAL_EXTENSION
 70
     0
  0
ENDTAB
  0
TABLE
  2
DIMSTYLE
 70
     1
  0
DIMSTYLE
  2
STANDARD
 70
     0
  3

  4

  5
_ORIGIN
  6

  7

 40
1.0
 41
12.0
 42
20.0
 43
200.0
 44
20.0
 45
0.0
 46
0.0
 47
0.0
 48
0.0
140
64.0
141
0.09
142
0.0
143
25.399999999999999
144
1.0
145
0.0
146
1.0
147
25.0
 71
     0
 72
     0
 73
     0
 74
     0
 75
     0
 76
     0
 77
     1
 78
     8
170
     0
171
     2
172
     1
173
     0
174
     1
175
     0
176
     7
177
     7
178
     7
  0
ENDTAB
  0
TABLE
  2
VIEW
 70
     1
  0
VIEW
  2
ALL
 70
     0
 40
4282.6198079999986
 10
0.0
 20
41.309904000000003
 41
5940.0
 11
0.0
 21
0.0
 31
1.0
 12
0.0
 22
0.0
 32
0.0
 42
50.0
 43
0.0
 44
0.0
 50
0.0
 71
     0
  0
ENDTAB
  0
TABLE
  2
UCS
 70
     0
  0
ENDTAB
  0
TABLE
  2
VPORT
 70
     1
  0
VPORT
  2
*ACTIVE
 70
     0
 10
0.0
 20
0.0
 11
1.0
 21
1.0
 12
261.4883564197072
 22
-102.69927012582779
 13
0.0
 23
0.0
 14
1.0
 24
1.0
 15
0.0
 25
0.0
 16
0.0
 26
0.0
 36
1.0
 17
0.0
 27
0.0
 37
0.0
 40
1062.5292595808
 41
1.767337807606264
 42
50.0
 43
0.0
 44
0.0
 50
0.0
 51
0.0
 71
     0
 72
  1000
 73
     1
 74
     3
 75
     0
 76
     0
 77
     0
 78
     0
  0
ENDTAB
  0
ENDSEC
  0
SECTION
  2
BLOCKS
  0
BLOCK
  8
0
  2
_ORIGIN
 70
     0
 10
0.0
 20
0.0
 30
0.0
  3
_ORIGIN
  1
_ORIGIN
  0
CIRCLE
  8
SIZE
  6
CONTINUOUS
 62
    30
 10
0.0
 20
0.0
 30
0.0
 40
0.5
  0
LINE
  8
SIZE
  6
CONTINUOUS
 62
    30
 10
0.0
 20
0.0
 30
0.0
 11
-1.0
 21
0.0
 31
0.0
  0
ENDBLK
  8
0
  0
ENDSEC
  0
SECTION
  2
ENTITIES
  0
TEXT
  8
ETC
  6
CONTINUOUS
 62
    61
 10
593.30950159440908
 20
306.18804024416841
 30
0.0
 40
64.0
  1
EG-60FTXC2_6
 41
0.9
  0
TEXT
  8
ETC
  6
CONTINUOUS
 62
    61
 10
589.1235075944096
 20
188.23273022933699
 30
0.0
 40
64.0
  1
有圧換気扇
 41
0.9
  0
TEXT
  8
ETC
  6
CONTINUOUS
 62
    61
 10
639.82490584296465
 20
80.083957343112203
 30
0.0
 40
40.0
  1
EG-60FTXC2
 50
0.0
 41
0.9
 51
0.0
  7
STANDARD
 71
     0
 11
0.0
 21
0.0
 31
0.0
210
0.0
220
0.0
230
1.0
  0
TEXT
  8
ETC
  6
CONTINUOUS
 62
    61
 10
639.82490584296465
 20
14.083957343112203
 30
0.0
 40
40.0
  1
EG-60FTXC2-F
 50
0.0
 41
0.9
 51
0.0
  7
STANDARD
 71
     0
 11
0.0
 21
0.0
 31
0.0
210
0.0
220
0.0
230
1.0
  0
LINE
  8
DETAIL
  6
CONTINUOUS
 62
     5
 10
355.0
 20
-5.0
 30
0.0
 11
355.0
 21
0.0
 31
0.0
  0
LINE
  8
DETAIL
  6
CONTINUOUS
 62
     5
 10
297.604757565
 20
-10.0
 30
0.0
 11
297.604757565
 21
-12.99999999999636
 31
0.0
  0
LINE
  8
DETAIL
  6
CONTINUOUS
 62
     5
 10
287.82782208699967
 20
-16.799999999995631
 30
0.0
 11
287.82782208699967
 21
-13.200000000000729
 31
0.0
  0
LINE
  8
DETAIL
  6
CONTINUOUS
 62
     5
 10
282.82782208699967
 20
-16.999999999996358
 30
0.0
 11
282.82782208699967
 21
-12.99999999999636
 31
0.0
  0
LINE
  8
DETAIL
  6
CONTINUOUS
 62
     5
 10
281.39348877900011
 20
-16.0
 30
0.0
 11
281.39348877900011
 21
-193.7994622990054
 31
0.0
  0
LINE
  8
DETAIL
  6
CONTINUOUS
 62
     5
 10
279.46512595000058
 20
-16.0
 30
0.0
 11
279.46512594999967
 21
-193.7994622990054
 31
0.0
  0
LINE
  8
DETAIL
  6
CONTINUOUS
 62
     5
 10
263.9621810460003
 20
-16.799999999995631
 30
0.0
 11
263.9621810460003
 21
-13.200000000000729
 31
0.0
  0
LINE
  8
DETAIL
  6
CONTINUOUS
 62
     5
 10
260.31401487199952
 20
-16.999999999996358
 30
0.0
 11
260.31401487199952
 21
-193.7994622990054
 31
0.0
  0
LINE
  8
DETAIL
  6
CONTINUOUS
 62
     5
 10
258.9621810460003
 20
-16.999999999996358
 30
0.0
 11
258.9621810460003
 21
-12.99999999999636
 31
0.0
  0
LINE
  8
DETAIL
  6
CONTINUOUS
 62
     5
 10
253.9621810460003
 20
-16.799999999995631
 30
0.0
 11
253.9621810460003
 21
-13.200000000000729
 31
0.0
  0
LINE
  8
DETAIL
  6
CONTINUOUS
 62
     5
 10
244.185245568
 20
-10.0
 30
0.0
 11
244.185245568
 21
-12.99999999999636
 31
0.0
  0
LINE
  8
DETAIL
  6
CONTINUOUS
 62
     5
 10
-74.5
 20
-293.59995660799899
 30
0.0
 11
74.5
 21
-293.59995660799899
 31
0.0
  0
LINE
  8
DETAIL
  6
CONTINUOUS
 62
     5
 10
-100.3678593190007
 20
-249.1867079540034
 30
0.0
 11
-96.537637104000169
 21
-252.0734593000025
 31
0.0
  0
LINE
  8
DETAIL
  6
CONTINUOUS
 62
     5
 10
-88.792143649000536
 20
-249.1867079540034
 30
0.0
 11
-84.961921433000498
 21
-252.0734593000025
 31
0.0
  0
LINE
  8
DETAIL
  6
CONTINUOUS
 62
     5
 10
96.455137619999732
 20
-252.0734593000025
 30
0.0
 11
100.2853598359998
 21
-249.1867079540034
 31
0.0
  0
LINE
  8
DETAIL
  6
CONTINUOUS
 62
     5
 10
84.964470973999596
 20
-252.0734593000025
 30
0.0
 11
88.7946931890001
 21
-249.1867079540034
 31
0.0
  0
LINE
  8
DETAIL
  6
CONTINUOUS
 62
     5
 10
76.442087732999425
 20
-258.79995660800068
 30
0.0
 11
231.68272079599959
 21
-258.79995660800068
 31
0.0
  0
LINE
  8
DETAIL
  6
CONTINUOUS
 62
     5
 10
-76.44208773399987
 20
-258.79995660800068
 30
0.0
 11
-239.51212543560001
 21
-258.79995660800341
 31
0.0
  0
LINE
  8
DETAIL
  6
CONTINUOUS
 62
     5
 10
105.18200607200011
 20
-233.79995660800071
 30
0.0
 11
105.18200607200011
 21
-233.29995660800429
 31
0.0
  0
LINE
  8
DETAIL
  6
CONTINUOUS
 62
     5
 10
103.2536432429997
 20
-233.79995660800071
 30
0.0
 11
103.2536432429997
 21
-233.29995660800429
 31
0.0
  0
LINE
  8
DETAIL
  6
CONTINUOUS
 62
     5
 10
100.2853598359998
 20
-249.1867079540034
 30
0.0
 11
100.2853598359998
 21
-243.41320526200161
 31
0.0
  0
LINE
  8
DETAIL
  6
CONTINUOUS
 62
     5
 10
96.0
 20
-227.29995660800071
 30
0.0
 11
96.0
 21
-223.29995660800429
 31
0.0
  0
LINE
  8
DETAIL
  6
CONTINUOUS
 62
     5
 10
94.549999999999272
 20
-223.29995660800429
 30
0.0
 11
94.549999999999272
 21
-220.09995660800359
 31
0.0
  0
LINE
  8
DETAIL
  6
CONTINUOUS
 62
     5
 10
92.522437297999204
 20
-223.29995660800429
 30
0.0
 11
92.522437297999204
 21
-220.09995660800359
 31
0.0
  0
LINE
  8
DETAIL
  6
CONTINUOUS
 62
     5
 10
92.0
 20
-220.09995660800359
 30
0.0
 11
92.0
 21
-217.29995660800071
 31
0.0
  0
LINE
  8
DETAIL
  6
CONTINUOUS
 62
     5
 10
-96.537637104000169
 20
-252.0734593000025
 30
0.0
 11
-93.610756423000566
 21
-252.0734593000025
 31
0.0
  0
LINE
  8
DETAIL
  6
CONTINUOUS
 62
     5
 10
-84.961921433000498
 20
-252.0734593000025
 30
0.0
 11
-82.03504075300043
 21
-252.0734593000025
 31
0.0
  0
LINE
  8
DETAIL
  6
CONTINUOUS
 62
     5
 10
96.455137619999732
 20
-252.0734593000025
 30
0.0
 11
93.528256939999665
 21
-252.0734593000025
 31
0.0
  0
LINE
  8
DETAIL
  6
CONTINUOUS
 62
     5
 10
84.964470973999596
 20
-252.0734593000025
 30
0.0
 11
82.037590292999084
 21
-252.0734593000025
 31
0.0
  0
LINE
  8
DETAIL
  6
CONTINUOUS
 62
     5
 10
-96.537637104000169
 20
-240.52645391600251
 30
0.0
 11
-93.610756423000566
 21
-240.52645391600251
 31
0.0
  0
LINE
  8
DETAIL
  6
CONTINUOUS
 62
     5
 10
-84.961921433000498
 20
-240.52645391700301
 30
0.0
 11
-82.03504075300043
 21
-240.52645391700301
 31
0.0
  0
LINE
  8
DETAIL
  6
CONTINUOUS
 62
     5
 10
96.455137619999732
 20
-240.52645391600251
 30
0.0
 11
93.528256939999665
 21
-240.52645391600251
 31
0.0
  0
LINE
  8
DETAIL
  6
CONTINUOUS
 62
     5
 10
84.964470973999596
 20
-240.52645391600251
 30
0.0
 11
82.037590292999084
 21
-240.52645391600251
 31
0.0
  0
LINE
  8
DETAIL
  6
CONTINUOUS
 62
     5
 10
89.0
 20
-220.09995660800359
 30
0.0
 11
89.0
 21
-217.29995660800071
 31
0.0
  0
LINE
  8
DETAIL
  6
CONTINUOUS
 62
     5
 10
88.7946931890001
 20
-249.1867079540034
 30
0.0
 11
88.7946931890001
 21
-243.41320526200161
 31
0.0
  0
LINE
  8
DETAIL
  6
CONTINUOUS
 62
     5
 10
88.477562700999442
 20
-223.29995660800429
 30
0.0
 11
88.477562700999442
 21
-220.09995660800359
 31
0.0
  0
LINE
  8
DETAIL
  6
CONTINUOUS
 62
     5
 10
86.449999999999818
 20
-223.29995660800429
 30
0.0
 11
86.449999999999818
 21
-220.09995660800359
 31
0.0
  0
LINE
  8
DETAIL
  6
CONTINUOUS
 62
     5
 10
82.0
 20
-286.09995660799899
 30
0.0
 11
82.0
 21
-258.79995660800068
 31
0.0
  0
LINE
  8
DETAIL
  6
CONTINUOUS
 62
     5
 10
74.581681360999937
 20
-234.29995660800429
 30
0.0
 11
64.981681360999573
 21
-234.29995660800429
 31
0.0
  0
LINE
  8
DETAIL
  6
CONTINUOUS
 62
     5
 10
-64.981681362000018
 20
-234.29995660800429
 30
0.0
 11
-74.581681362000381
 21
-234.29995660800429
 31
0.0
  0
LINE
  8
DETAIL
  6
CONTINUOUS
 62
     5
 10
77.218977517999519
 20
-233.79995660800071
 30
0.0
 11
229.67185848400001
 21
-233.79995660800071
 31
0.0
  0
LINE
  8
DETAIL
  6
CONTINUOUS
 62
     5
 10
-77.301477001999956
 20
-233.79995660800071
 30
0.0
 11
-237.5837626066004
 21
-233.79995660800341
 31
0.0
  0
LINE
  8
DETAIL
  6
CONTINUOUS
 62
     5
 10
101.32528041399929
 20
-230.29995660800429
 30
0.0
 11
-101.3252804140002
 21
-230.29995660800429
 31
0.0
  0
LINE
  8
DETAIL
  6
CONTINUOUS
 62
     5
 10
101.32528041399929
 20
-227.29995660800071
 30
0.0
 11
-101.3252804140002
 21
-227.29995660800071
 31
0.0
  0
LINE
  8
DETAIL
  6
CONTINUOUS
 62
     5
 10
95.999877847999414
 20
-223.29995660800429
 30
0.0
 11
-95.999877848000324
 21
-223.29995660800429
 31
0.0
  0
LINE
  8
DETAIL
  6
CONTINUOUS
 62
     5
 10
74.920844188999581
 20
-255.79995660800429
 30
0.0
 11
74.920844188999581
 21
-236.79995660800429
 31
0.0
  0
LINE
  8
DETAIL
  6
CONTINUOUS
 62
     5
 10
74.781681360999755
 20
-234.09995660800359
 30
0.0
 11
74.781681360999755
 21
-230.49995660800141
 31
0.0
  0
LINE
  8
DETAIL
  6
CONTINUOUS
 62
     5
 10
74.781681360999755
 20
-223.29995660800429
 30
0.0
 11
74.781681360999755
 21
-218.29995660800429
 31
0.0
  0
LINE
  8
DETAIL
  6
CONTINUOUS
 62
     5
 10
74.143954403999487
 20
-234.29995660800429
 30
0.0
 11
74.143954403999487
 21
-255.79995660800429
 31
0.0
  0
LINE
  8
DETAIL
  6
CONTINUOUS
 62
     5
 10
72.781681360999755
 20
-218.29995660800429
 30
0.0
 11
72.781681360999755
 21
-216.29995660800071
 31
0.0
  0
LINE
  8
DETAIL
  6
CONTINUOUS
 62
     5
 10
69.781681360999755
 20
-234.29995660800429
 30
0.0
 11
69.781681360999755
 21
-230.29995660800429
 31
0.0
  0
LINE
  8
DETAIL
  6
CONTINUOUS
 62
     5
 10
69.781681360999755
 20
-223.29995660800429
 30
0.0
 11
69.781681360999755
 21
-218.29995660800429
 31
0.0
  0
LINE
  8
DETAIL
  6
CONTINUOUS
 62
     5
 10
66.781681360999755
 20
-218.29995660800429
 30
0.0
 11
66.781681360999755
 21
-216.29995660800071
 31
0.0
  0
LINE
  8
DETAIL
  6
CONTINUOUS
 62
     5
 10
64.781681360999755
 20
-234.09995660800359
 30
0.0
 11
64.781681360999755
 21
-230.49995660800141
 31
0.0
  0
LINE
  8
DETAIL
  6
CONTINUOUS
 62
     5
 10
64.781681360999755
 20
-223.29995660800429
 30
0.0
 11
64.781681360999755
 21
-218.29995660800429
 31
0.0
  0
LINE
  8
DETAIL
  6
CONTINUOUS
 62
     5
 10
-94.550000000001091
 20
-220.09995660800359
 30
0.0
 11
-86.450000000000728
 21
-220.09995660800359
 31
0.0
  0
LINE
  8
DETAIL
  6
CONTINUOUS
 62
     5
 10
86.449999999999818
 20
-220.09995660800359
 30
0.0
 11
94.549999999999272
 21
-220.09995660800359
 31
0.0
  0
LINE
  8
DETAIL
  6
CONTINUOUS
 62
     5
 10
-74.781681362000199
 20
-218.29995660800429
 30
0.0
 11
-64.781681362000199
 21
-218.29995660800429
 31
0.0
  0
LINE
  8
DETAIL
  6
CONTINUOUS
 62
     5
 10
64.781681360999755
 20
-218.29995660800429
 30
0.0
 11
74.781681360999755
 21
-218.29995660800429
 31
0.0
  0
LINE
  8
DETAIL
  6
CONTINUOUS
 62
     5
 10
-91.994698137000341
 20
-217.29995660800071
 30
0.0
 11
-89.005301864001012
 21
-217.29995660800071
 31
0.0
  0
LINE
  8
DETAIL
  6
CONTINUOUS
 62
     5
 10
89.005301862999659
 20
-217.29995660800071
 30
0.0
 11
91.994698135998988
 21
-217.29995660800071
 31
0.0
  0
LINE
  8
DETAIL
  6
CONTINUOUS
 62
     5
 10
-72.781681362000199
 20
-216.29995660800071
 30
0.0
 11
-66.781681362000199
 21
-216.29995660800071
 31
0.0
  0
LINE
  8
DETAIL
  6
CONTINUOUS
 62
     5
 10
66.781681360999755
 20
-216.29995660800071
 30
0.0
 11
72.781681360999755
 21
-216.29995660800071
 31
0.0
  0
LINE
  8
DETAIL
  6
CONTINUOUS
 62
     5
 10
88.7946931890001
 20
-243.41320526200161
 30
0.0
 11
84.964470973999596
 21
-240.52645391600251
 31
0.0
  0
LINE
  8
DETAIL
  6
CONTINUOUS
 62
     5
 10
100.2853598359998
 20
-243.41320526200161
 30
0.0
 11
96.455137619999732
 21
-240.52645391600251
 31
0.0
  0
LINE
  8
BASIS
  6
DASHDOT
 62
     6
 10
0.0
 20
-324.68036032199961
 30
0.0
 11
0.0
 21
50.0
 31
0.0
  0
LINE
  8
DETAIL
  6
CONTINUOUS
 62
     5
 10
-84.961921433000498
 20
-240.52645391700301
 30
0.0
 11
-88.792143649000536
 21
-243.41320526200161
 31
0.0
  0
LINE
  8
DETAIL
  6
CONTINUOUS
 62
     5
 10
-96.537637104000169
 20
-240.52645391600251
 30
0.0
 11
-100.3678593190007
 21
-243.41320526200161
 31
0.0
  0
LINE
  8
DETAIL
  6
CONTINUOUS
 62
     5
 10
-268.22591899359941
 20
-93.000000000002728
 30
0.0
 11
260.31401487199952
 21
-93.0
 31
0.0
  0
LINE
  8
DETAIL
  6
CONTINUOUS
 62
     5
 10
-268.22591899359941
 20
-92.200000000003456
 30
0.0
 11
260.31401487199952
 21
-92.200000000000728
 31
0.0
  0
LINE
  8
DETAIL
  6
CONTINUOUS
 62
     5
 10
-64.781681362000199
 20
-234.09995660800359
 30
0.0
 11
-64.781681362000199
 21
-230.49995660800141
 31
0.0
  0
LINE
  8
DETAIL
  6
CONTINUOUS
 62
     5
 10
-64.781681362000199
 20
-223.29995660800429
 30
0.0
 11
-64.781681362000199
 21
-218.29995660800429
 31
0.0
  0
LINE
  8
DETAIL
  6
CONTINUOUS
 62
     5
 10
-66.781681362000199
 20
-218.29995660800429
 30
0.0
 11
-66.781681362000199
 21
-216.29995660800071
 31
0.0
  0
LINE
  8
DETAIL
  6
CONTINUOUS
 62
     5
 10
-69.781681362000199
 20
-234.29995660800429
 30
0.0
 11
-69.781681362000199
 21
-230.29995660800429
 31
0.0
  0
LINE
  8
DETAIL
  6
CONTINUOUS
 62
     5
 10
-69.781681362000199
 20
-223.29995660800429
 30
0.0
 11
-69.781681362000199
 21
-218.29995660800429
 31
0.0
  0
LINE
  8
DETAIL
  6
CONTINUOUS
 62
     5
 10
-72.781681362000199
 20
-218.29995660800429
 30
0.0
 11
-72.781681362000199
 21
-216.29995660800071
 31
0.0
  0
LINE
  8
DETAIL
  6
CONTINUOUS
 62
     5
 10
-74.143954405000841
 20
-234.29995660800429
 30
0.0
 11
-74.143954405000841
 21
-255.79995660800429
 31
0.0
  0
LINE
  8
DETAIL
  6
CONTINUOUS
 62
     5
 10
-74.781681362000199
 20
-234.09995660800359
 30
0.0
 11
-74.781681362000199
 21
-230.49995660800141
 31
0.0
  0
LINE
  8
DETAIL
  6
CONTINUOUS
 62
     5
 10
-74.781681362000199
 20
-223.29995660800429
 30
0.0
 11
-74.781681362000199
 21
-218.29995660800429
 31
0.0
  0
LINE
  8
DETAIL
  6
CONTINUOUS
 62
     5
 10
-75.003343673000927
 20
-255.79995660800429
 30
0.0
 11
-75.003343673000927
 21
-236.79995660800429
 31
0.0
  0
LINE
  8
DETAIL
  6
CONTINUOUS
 62
     5
 10
-82.0
 20
-286.09995660799899
 30
0.0
 11
-82.0
 21
-258.79995660800068
 31
0.0
  0
LINE
  8
DETAIL
  6
CONTINUOUS
 62
     5
 10
-81.700000000000728
 20
-218.79995660800071
 30
0.0
 11
-81.699999999999818
 21
-130.58309635081969
 31
0.0
  0
LINE
  8
DETAIL
  6
CONTINUOUS
 62
     5
 10
-86.450000000000728
 20
-223.29995660800429
 30
0.0
 11
-86.450000000000728
 21
-220.09995660800359
 31
0.0
  0
LINE
  8
DETAIL
  6
CONTINUOUS
 62
     5
 10
-88.477562702000796
 20
-223.29995660800429
 30
0.0
 11
-88.477562702000796
 21
-220.09995660800359
 31
0.0
  0
LINE
  8
DETAIL
  6
CONTINUOUS
 62
     5
 10
-88.792143649000536
 20
-243.41320526200161
 30
0.0
 11
-88.792143649000536
 21
-249.1867079540034
 31
0.0
  0
LINE
  8
DETAIL
  6
CONTINUOUS
 62
     5
 10
-89.0
 20
-220.09995660800359
 30
0.0
 11
-89.0
 21
-217.29995660800071
 31
0.0
  0
LINE
  8
DETAIL
  6
CONTINUOUS
 62
     5
 10
-92.0
 20
-220.09995660800359
 30
0.0
 11
-92.0
 21
-217.29995660800071
 31
0.0
  0
LINE
  8
DETAIL
  6
CONTINUOUS
 62
     5
 10
-92.522437299000558
 20
-223.29995660800429
 30
0.0
 11
-92.522437299000558
 21
-220.09995660800359
 31
0.0
  0
LINE
  8
DETAIL
  6
CONTINUOUS
 62
     5
 10
-94.550000000001091
 20
-223.29995660800429
 30
0.0
 11
-94.550000000001091
 21
-220.09995660800359
 31
0.0
  0
LINE
  8
DETAIL
  6
CONTINUOUS
 62
     5
 10
287.62782208699991
 20
-16.999999999996358
 30
0.0
 11
281.39348877900011
 21
-16.999999999996358
 31
0.0
  0
LINE
  8
DETAIL
  6
CONTINUOUS
 62
     5
 10
263.76218104600048
 20
-16.999999999996358
 30
0.0
 11
254.16218104600009
 21
-16.999999999996358
 31
0.0
  0
LINE
  8
DETAIL
  6
CONTINUOUS
 62
     5
 10
-289.30539290060011
 20
-16.999999999999091
 30
0.0
 11
-295.45722672660031
 21
-16.999999999999091
 31
0.0
  0
LINE
  8
DETAIL
  6
CONTINUOUS
 62
     5
 10
297.604757565
 20
-12.99999999999636
 30
0.0
 11
280.87186832400039
 21
-12.99999999999636
 31
0.0
  0
LINE
  8
DETAIL
  6
CONTINUOUS
 62
     5
 10
277.53676312100009
 20
-12.99999999999636
 30
0.0
 11
244.185245568
 21
-12.99999999999636
 31
0.0
  0
LINE
  8
DETAIL
  6
CONTINUOUS
 62
     5
 10
-291.23375572959958
 20
-12.999999999999091
 30
0.0
 11
-305.43416220459949
 21
-12.999999999999091
 31
0.0
  0
LINE
  8
DETAIL
  6
CONTINUOUS
 62
     5
 10
350.0
 20
-10.0
 30
0.0
 11
-350.0
 21
-10.0
 31
0.0
  0
LINE
  8
DETAIL
  6
CONTINUOUS
 62
     5
 10
-96.0
 20
-227.29995660800071
 30
0.0
 11
-96.0
 21
-223.29995660800429
 31
0.0
  0
LINE
  8
DETAIL
  6
CONTINUOUS
 62
     5
 10
-100.3678593190007
 20
-243.41320526200161
 30
0.0
 11
-100.3678593190007
 21
-249.1867079540034
 31
0.0
  0
LINE
  8
DETAIL
  6
CONTINUOUS
 62
     5
 10
-103.2536432430006
 20
-233.79995660800071
 30
0.0
 11
-103.2536432430006
 21
-233.29995660800429
 31
0.0
  0
LINE
  8
DETAIL
  6
CONTINUOUS
 62
     5
 10
-105.18200607200011
 20
-233.79995660800071
 30
0.0
 11
-105.18200607200011
 21
-233.29995660800429
 31
0.0
  0
LINE
  8
DETAIL
  6
CONTINUOUS
 62
     5
 10
355.0
 20
0.0
 30
0.0
 11
-355.0
 21
0.0
 31
0.0
  0
LINE
  8
DETAIL
  6
CONTINUOUS
 62
     5
 10
-268.22591899360032
 20
-193.79946229900821
 30
0.0
 11
-268.22591899359941
 21
-16.000000000002728
 31
0.0
  0
LINE
  8
DETAIL
  6
CONTINUOUS
 62
     5
 10
-287.37703007160047
 20
-16.000000000002728
 30
0.0
 11
-287.37703007160047
 21
-193.79946229900821
 31
0.0
  0
LINE
  8
DETAIL
  6
CONTINUOUS
 62
     5
 10
-289.30539290060011
 20
-16.000000000002728
 30
0.0
 11
-289.30539290060011
 21
-193.79946229900821
 31
0.0
  0
LINE
  8
DETAIL
  6
CONTINUOUS
 62
     5
 10
-290.65722672660007
 20
-16.999999999999091
 30
0.0
 11
-290.65736466946692
 21
-13.36078133595311
 31
0.0
  0
LINE
  8
DETAIL
  6
CONTINUOUS
 62
     5
 10
-295.65722672660007
 20
-16.799999999998359
 30
0.0
 11
-295.65722672660007
 21
-13.20000000000346
 31
0.0
  0
LINE
  8
DETAIL
  6
CONTINUOUS
 62
     5
 10
-305.43416220459949
 20
-10.00000000000273
 30
0.0
 11
-305.43416220459949
 21
-12.999999999999091
 31
0.0
  0
LINE
  8
DETAIL
  6
CONTINUOUS
 62
     5
 10
-355.0
 20
-5.0
 30
0.0
 11
-355.0
 21
0.0
 31
0.0
  0
ARC
  8
DETAIL
  6
CONTINUOUS
 62
     5
 10
229.67109043799971
 20
-220.63997533500611
 30
0.0
 40
38.159981281
 50
270.0011531929083
 51
272.89536028629738
  0
ARC
  8
DETAIL
  6
CONTINUOUS
 62
     5
 10
74.5
 20
-286.09995660799899
 30
0.0
 40
7.5
 50
270.0
 51
0.0
  0
ARC
  8
DETAIL
  6
CONTINUOUS
 62
     5
 10
86.199999999999818
 20
-218.79995660800071
 30
0.0
 40
4.5
 50
180.0
 51
270.0
  0
ARC
  8
DETAIL
  6
CONTINUOUS
 62
     5
 10
64.981681360999573
 20
-234.09995660800359
 30
0.0
 40
0.2
 50
180.00000000010431
 51
270.0
  0
ARC
  8
DETAIL
  6
CONTINUOUS
 62
     5
 10
74.581681360999937
 20
-234.09995660800359
 30
0.0
 40
0.2
 50
270.00000000010431
 51
0.0
  0
ARC
  8
DETAIL
  6
CONTINUOUS
 62
     5
 10
74.581681360999937
 20
-230.49995660800141
 30
0.0
 40
0.2
 50
0.0
 51
89.999999999895778
  0
ARC
  8
DETAIL
  6
CONTINUOUS
 62
     5
 10
64.981681360999573
 20
-230.49995660800141
 30
0.0
 40
0.2
 50
90.0
 51
180.00000000010431
  0
ARC
  8
DETAIL
  6
CONTINUOUS
 62
     5
 10
350.0
 20
-5.0
 30
0.0
 40
5.0
 50
270.0
 51
0.0
  0
ARC
  8
DETAIL
  6
CONTINUOUS
 62
     5
 10
287.62782208699991
 20
-16.799999999995631
 30
0.0
 40
0.2
 50
270.00000000010431
 51
0.0
  0
ARC
  8
DETAIL
  6
CONTINUOUS
 62
     5
 10
287.62782208699991
 20
-13.200000000000729
 30
0.0
 40
0.2
 50
0.0
 51
89.999999999895778
  0
ARC
  8
DETAIL
  6
CONTINUOUS
 62
     5
 10
254.16218104600009
 20
-16.799999999995631
 30
0.0
 40
0.2
 50
180.00000000010431
 51
270.0
  0
ARC
  8
DETAIL
  6
CONTINUOUS
 62
     5
 10
263.76218104600048
 20
-16.799999999995631
 30
0.0
 40
0.2
 50
270.00000000010431
 51
0.0
  0
ARC
  8
DETAIL
  6
CONTINUOUS
 62
     5
 10
254.16218104600009
 20
-13.200000000000729
 30
0.0
 40
0.2
 50
90.0
 51
180.00000000010431
  0
ARC
  8
DETAIL
  6
CONTINUOUS
 62
     5
 10
263.76218104600048
 20
-13.200000000000729
 30
0.0
 40
0.2
 50
0.0
 51
89.999999999895778
  0
ARC
  8
DETAIL
  6
CONTINUOUS
 62
     5
 10
-86.200000000000728
 20
-218.79995660800071
 30
0.0
 40
4.5
 50
270.0
 51
0.0
  0
ARC
  8
DETAIL
  6
CONTINUOUS
 62
     5
 10
-237.58299455960059
 20
-220.63997533500881
 30
0.0
 40
38.159981281
 50
267.10463971370262
 51
269.99884680709181
  0
ARC
  8
DETAIL
  6
CONTINUOUS
 62
     5
 10
-71.199999999999818
 20
-130.58309635081969
 30
0.0
 40
10.5
 50
90.0
 51
180.0
  0
ARC
  8
DETAIL
  6
CONTINUOUS
 62
     5
 10
-74.5
 20
-286.09995660799899
 30
0.0
 40
7.5
 50
180.0
 51
270.0
  0
ARC
  8
DETAIL
  6
CONTINUOUS
 62
     5
 10
-350.0
 20
-5.0
 30
0.0
 40
5.0
 50
180.0
 51
270.0
  0
ARC
  8
DETAIL
  6
CONTINUOUS
 62
     5
 10
-295.45722672660031
 20
-13.20000000000346
 30
0.0
 40
0.2
 50
90.0
 51
180.00000000010431
  0
ARC
  8
DETAIL
  6
CONTINUOUS
 62
     5
 10
-74.581681362000381
 20
-234.09995660800359
 30
0.0
 40
0.2
 50
180.00000000010431
 51
270.0
  0
ARC
  8
DETAIL
  6
CONTINUOUS
 62
     5
 10
-64.981681362000018
 20
-234.09995660800359
 30
0.0
 40
0.2
 50
270.00000000010431
 51
0.0
  0
ARC
  8
DETAIL
  6
CONTINUOUS
 62
     5
 10
-64.981681362000018
 20
-230.49995660800141
 30
0.0
 40
0.2
 50
0.0
 51
89.999999999895778
  0
ARC
  8
DETAIL
  6
CONTINUOUS
 62
     5
 10
-74.581681362000381
 20
-230.49995660800141
 30
0.0
 40
0.2
 50
90.0
 51
180.00000000010431
  0
ARC
  8
DETAIL
  6
CONTINUOUS
 62
     5
 10
-295.45722672660031
 20
-16.799999999998359
 30
0.0
 40
0.2
 50
180.00000000010431
 51
270.00000000010431
  0
LINE
  8
SIZE
  6
CONTINUOUS
 62
    30
 10
375.00000000000011
 20
0.0000000000000032
 30
0.0
 11
533.92540987028235
 21
0.0000000000000288
 31
0.0
  0
LINE
  8
SIZE
  6
CONTINUOUS
 62
    30
 10
370.00000000000011
 20
-10.0
 30
0.0
 11
533.92540987028235
 21
-9.9999999999999734
 31
0.0
  0
LINE
  8
SIZE
  6
CONTINUOUS
 62
    30
 10
513.92540987028235
 20
-21.999999999999979
 30
0.0
 11
513.92540987028235
 21
-33.999999999999993
 31
0.0
  0
LINE
  8
SIZE
  6
CONTINUOUS
 62
    30
 10
513.92540987028235
 20
12.00000000000003
 30
0.0
 11
513.92540987028235
 21
156.28571428571431
 31
0.0
  0
LINE
  8
SIZE
  6
CONTINUOUS
 62
    30
 10
513.92540987028235
 20
-9.9999999999999787
 30
0.0
 11
513.92540987028235
 21
0.0000000000000256
 31
0.0
  0
CIRCLE
  8
SIZE
  6
CONTINUOUS
 62
    30
 10
513.92540987028235
 20
-9.9999999999999787
 30
0.0
 40
6.0
  0
LINE
  8
SIZE
  6
CONTINUOUS
 62
    30
 10
513.92540987028235
 20
-9.9999999999999787
 30
0.0
 11
513.92540987028235
 21
-21.999999999999979
 31
0.0
  0
CIRCLE
  8
SIZE
  6
CONTINUOUS
 62
    30
 10
513.92540987028235
 20
0.0000000000000256
 30
0.0
 40
6.0
  0
LINE
  8
SIZE
  6
CONTINUOUS
 62
    30
 10
513.92540987028235
 20
0.0000000000000256
 30
0.0
 11
513.92540987028235
 21
12.000000000000025
 31
0.0
  0
TEXT
  8
SIZE
  6
CONTINUOUS
 62
    30
 10
488.92540987028218
 20
41.758857142857011
 30
0.0
 40
64.0
  1
10
 50
90.0
 41
0.9
 51
0.0
  7
STANDARD
 71
     0
 72
     1
 11
488.92540987028218
 21
90.142857142857025
 31
0.0
210
0.0
220
0.0
230
1.0
  0
POINT
  8
DEFPOINTS
  6
CONTINUOUS
 62
    30
 10
355.00000000000011
 20
0.0
 30
0.0
  0
POINT
  8
DEFPOINTS
  6
CONTINUOUS
 62
    30
 10
350.00000000000011
 20
-10.0
 30
0.0
  0
POINT
  8
DEFPOINTS
  6
CONTINUOUS
 62
    30
 10
513.92540987028235
 20
-9.9999999999999787
 30
0.0
  0
LINE
  8
SIZE
  6
CONTINUOUS
 62
    30
 10
-94.500000000000028
 20
-293.59995660799922
 30
0.0
 11
-604.7718747375344
 21
-293.59995660799922
 31
0.0
  0
LINE
  8
SIZE
  6
CONTINUOUS
 62
    30
 10
-375.00000000000011
 20
-0.0000000000000032
 30
0.0
 11
-604.77187473753452
 21
-0.0000000000000402
 31
0.0
  0
LINE
  8
SIZE
  6
CONTINUOUS
 62
    30
 10
-584.7718747375344
 20
-281.59995660799922
 30
0.0
 11
-584.77187473753452
 21
-12.000000000000041
 31
0.0
  0
CIRCLE
  8
SIZE
  6
CONTINUOUS
 62
    30
 10
-584.7718747375344
 20
-293.59995660799922
 30
0.0
 40
6.0
  0
LINE
  8
SIZE
  6
CONTINUOUS
 62
    30
 10
-584.7718747375344
 20
-293.59995660799922
 30
0.0
 11
-584.7718747375344
 21
-281.59995660799922
 31
0.0
  0
CIRCLE
  8
SIZE
  6
CONTINUOUS
 62
    30
 10
-584.77187473753452
 20
-0.000000000000037
 30
0.0
 40
6.0
  0
LINE
  8
SIZE
  6
CONTINUOUS
 62
    30
 10
-584.77187473753452
 20
-0.000000000000037
 30
0.0
 11
-584.77187473753452
 21
-12.000000000000037
 31
0.0
  0
TEXT
  8
SIZE
  6
CONTINUOUS
 62
    30
 10
-609.7718747375344
 20
-227.72797830399941
 30
0.0
 40
64.0
  1
294
 50
90.0
 41
0.9
 51
0.0
  7
STANDARD
 71
     0
 72
     1
 11
-609.7718747375344
 21
-146.79997830399941
 31
0.0
210
0.0
220
0.0
230
1.0
  0
POINT
  8
DEFPOINTS
  6
CONTINUOUS
 62
    30
 10
-74.500000000000028
 20
-293.59995660799922
 30
0.0
  0
POINT
  8
DEFPOINTS
  6
CONTINUOUS
 62
    30
 10
-355.00000000000011
 20
0.0
 30
0.0
  0
POINT
  8
DEFPOINTS
  6
CONTINUOUS
 62
    30
 10
-584.77187473753452
 20
-0.000000000000037
 30
0.0
  0
ARC
  8
DETAIL
  6
CONTINUOUS
 62
     5
 10
229.66239761521231
 20
-212.81617926271059
 30
0.0
 40
46.028137966857138
 50
272.51570448906648
 51
328.76687302311382
  0
ARC
  8
DETAIL
  6
CONTINUOUS
 62
     5
 10
203.8167594429415
 20
-194.64147085056271
 30
0.0
 40
77.581298731593932
 50
327.18694313949698
 51
0.6218571263818001
  0
LINE
  8
SIZE
  6
CONTINUOUS
 62
    30
 10
-372.50000000000011
 20
-93.000000000000028
 30
0.0
 11
-458.95613316558598
 21
-93.000000000000043
 31
0.0
  0
LINE
  8
SIZE
  6
CONTINUOUS
 62
    30
 10
-375.00000000000011
 20
-0.0000000000000032
 30
0.0
 11
-458.95613316558598
 21
-0.0000000000000167
 31
0.0
  0
LINE
  8
SIZE
  6
CONTINUOUS
 62
    30
 10
-438.95613316558598
 20
-81.000000000000043
 30
0.0
 11
-438.95613316558598
 21
-12.00000000000002
 31
0.0
  0
LINE
  8
SIZE
  6
CONTINUOUS
 62
    30
 10
-438.95613316558598
 20
-0.0000000000000135
 30
0.0
 11
-438.9561331655861
 21
155.2571428571429
 31
0.0
  0
CIRCLE
  8
SIZE
  6
CONTINUOUS
 62
    30
 10
-438.95613316558598
 20
-93.000000000000043
 30
0.0
 40
6.0
  0
LINE
  8
SIZE
  6
CONTINUOUS
 62
    30
 10
-438.95613316558598
 20
-93.000000000000043
 30
0.0
 11
-438.95613316558598
 21
-81.000000000000043
 31
0.0
  0
CIRCLE
  8
SIZE
  6
CONTINUOUS
 62
    30
 10
-438.95613316558598
 20
-0.0000000000000135
 30
0.0
 40
6.0
  0
LINE
  8
SIZE
  6
CONTINUOUS
 62
    30
 10
-438.95613316558598
 20
-0.0000000000000135
 30
0.0
 11
-438.95613316558598
 21
-12.000000000000014
 31
0.0
  0
TEXT
  8
SIZE
  6
CONTINUOUS
 62
    30
 10
-463.95613316558592
 20
30.060571428571564
 30
0.0
 40
64.0
  1
93
 50
90.0
 41
0.9
 51
0.0
  7
STANDARD
 71
     0
 72
     1
 11
-463.95613316558592
 21
83.628571428571547
 31
0.0
210
0.0
220
0.0
230
1.0
  0
POINT
  8
DEFPOINTS
  6
CONTINUOUS
 62
    30
 10
-352.50000000000011
 20
-93.000000000000028
 30
0.0
  0
POINT
  8
DEFPOINTS
  6
CONTINUOUS
 62
    30
 10
-355.00000000000011
 20
0.0
 30
0.0
  0
POINT
  8
DEFPOINTS
  6
CONTINUOUS
 62
    30
 10
-438.95613316558598
 20
-0.0000000000000135
 30
0.0
  0
ARC
  8
DETAIL
  6
CONTINUOUS
 62
     5
 10
227.073898480754
 20
-211.93583153390139
 30
0.0
 40
47.090205585602753
 50
275.61665577093271
 51
329.4392300471784
  0
ARC
  8
DETAIL
  6
CONTINUOUS
 62
     5
 10
201.58960653352551
 20
-194.58929107547371
 30
0.0
 40
77.879524612582131
 50
327.98283277567248
 51
0.5810850983349573
  0
ARC
  8
DETAIL
  6
CONTINUOUS
 62
     5
 10
-237.39970075878591
 20
-212.51339667483529
 30
0.0
 40
46.334738247475073
 50
211.44132036321599
 51
267.3869500481822
  0
ARC
  8
DETAIL
  6
CONTINUOUS
 62
     5
 10
-209.88333767887161
 20
-194.10899842175419
 30
0.0
 40
79.422658405864723
 50
179.7766990088985
 51
212.41450072276299
  0
ARC
  8
DETAIL
  6
CONTINUOUS
 62
     5
 10
-235.26147246074649
 20
-212.07598304058871
 30
0.0
 40
46.78157267749738
 50
210.58463026602001
 51
267.15650363007279
  0
ARC
  8
DETAIL
  6
CONTINUOUS
 62
     5
 10
-207.55122540572671
 20
-194.0404279405175
 30
0.0
 40
79.826168359721649
 50
179.82704499645081
 51
211.60903712713051
  0
ARC
  8
DETAIL
  6
CONTINUOUS
 62
     5
 10
-99.758059528696322
 20
-232.54687450810891
 30
0.0
 40
5.4759774245160129
 50
106.6305496256678
 51
187.90463595671861
  0
ARC
  8
DETAIL
  6
CONTINUOUS
 62
     5
 10
-100.5416699711313
 20
-232.92341555819709
 30
0.0
 40
2.7379887124529589
 50
106.63054962917541
 51
187.90463595319409
  0
ARC
  8
DETAIL
  6
CONTINUOUS
 62
     5
 10
99.758059528695412
 20
-232.54687450810891
 30
0.0
 40
5.4759774245160129
 50
352.09536404328139
 51
73.369450374332246
  0
ARC
  8
DETAIL
  6
CONTINUOUS
 62
     5
 10
100.5416699711304
 20
-232.92341555819709
 30
0.0
 40
2.7379887124529589
 50
352.09536404680603
 51
73.369450370824637
  0
ARC
  8
DETAIL
  6
CONTINUOUS
 62
     5
 10
275.64791702392091
 20
-15.453654601190459
 30
0.0
 40
5.7714892434764504
 50
354.56808712115458
 51
70.896727296420437
  0
ARC
  8
DETAIL
  6
CONTINUOUS
 62
     5
 10
275.98785422506722
 20
-16.11538331351403
 30
0.0
 40
3.4791855308451418
 50
1.9004992035984469
 51
63.564315213883809
  0
ARC
  8
DETAIL
  6
CONTINUOUS
 62
     5
 10
-293.12260182667711
 20
-15.45365460119319
 30
0.0
 40
5.7714892434764504
 50
354.56808712115458
 51
70.896727296420437
  0
ARC
  8
DETAIL
  6
CONTINUOUS
 62
     5
 10
-292.78266462553069
 20
-16.115383313516759
 30
0.0
 40
3.4791855308451418
 50
1.9004992035984469
 51
63.564315213883809
  0
ARC
  8
DETAIL
  6
CONTINUOUS
 62
     5
 10
-227.5135482513588
 20
-194.34885089320051
 30
0.0
 40
40.716077405382038
 50
179.22687535220311
 51
255.6805637612311
  0
ARC
  8
DETAIL
  6
CONTINUOUS
 62
     5
 10
219.68414361275791
 20
-194.34885089319781
 30
0.0
 40
40.716077405382038
 50
284.3194362387689
 51
0.773124647796936
  0
ARC
  8
DETAIL
  6
CONTINUOUS
 62
     5
 10
-275.30407212875798
 20
-16.310221401721719
 30
0.0
 40
7.0849480677583792
 50
2.5095542423970638
 51
62.955260188725433
  0
ARC
  8
DETAIL
  6
CONTINUOUS
 62
     5
 10
77.232100642670048
 20
-255.81453547567159
 30
0.0
 40
3.0881806512569732
 50
179.72951365726021
 51
255.1779254484544
  0
ARC
  8
DETAIL
  6
CONTINUOUS
 62
     5
 10
78.1657392842626
 20
-255.69445888513289
 30
0.0
 40
3.2466096083136091
 50
181.86213904848341
 51
253.04530005720031
  0
ARC
  8
DETAIL
  6
CONTINUOUS
 62
     5
 10
-77.232100642670957
 20
-255.81453547567159
 30
0.0
 40
3.0881806512569732
 50
284.8220745515456
 51
0.2704863427397747
  0
ARC
  8
DETAIL
  6
CONTINUOUS
 62
     5
 10
-78.040405948721855
 20
-255.87512284136761
 30
0.0
 40
3.0379923023658701
 50
285.68719515054431
 51
1.4177611502506009
  0
ARC
  8
DETAIL
  6
CONTINUOUS
 62
     5
 10
-77.742182801629497
 20
-236.51779296978111
 30
0.0
 40
2.7533354483688122
 50
354.11796400412379
 51
80.789475101383516
  0
ARC
  8
DETAIL
  6
CONTINUOUS
 62
     5
 10
77.829182211763509
 20
-236.6632828190404
 30
0.0
 40
2.9115476604787638
 50
100.44232102866491
 51
182.69056563146631
  0
LINE
  8
DETAIL
  6
CONTINUOUS
 62
     5
 10
93.528256939999665
 20
-252.0734593000025
 30
0.0
 11
89.698034723999626
 21
-249.1867079540034
 31
0.0
  0
LINE
  8
DETAIL
  6
CONTINUOUS
 62
     5
 10
89.698034723999626
 20
-249.1867079540034
 30
0.0
 11
89.698034723999626
 21
-243.41320526200161
 31
0.0
  0
LINE
  8
DETAIL
  6
CONTINUOUS
 62
     5
 10
89.698034723999626
 20
-243.41320526200161
 30
0.0
 11
93.528256939999665
 21
-240.52645391600251
 31
0.0
  0
LINE
  8
DETAIL
  6
CONTINUOUS
 62
     5
 10
82.037590292999084
 20
-252.0734593000025
 30
0.0
 11
78.207368076999046
 21
-249.1867079540034
 31
0.0
  0
LINE
  8
DETAIL
  6
CONTINUOUS
 62
     5
 10
78.207368076999046
 20
-249.1867079540034
 30
0.0
 11
78.207368076999046
 21
-243.41320526200161
 31
0.0
  0
LINE
  8
DETAIL
  6
CONTINUOUS
 62
     5
 10
78.207368076999046
 20
-243.41320526200161
 30
0.0
 11
82.037590292999084
 21
-240.52645391600251
 31
0.0
  0
LINE
  8
DETAIL
  6
CONTINUOUS
 62
     5
 10
-93.610756423000566
 20
-252.0734593000025
 30
0.0
 11
-89.780534208000972
 21
-249.1867079540034
 31
0.0
  0
LINE
  8
DETAIL
  6
CONTINUOUS
 62
     5
 10
-89.780534208000972
 20
-249.1867079540034
 30
0.0
 11
-89.780534208000972
 21
-243.41320526200161
 31
0.0
  0
LINE
  8
DETAIL
  6
CONTINUOUS
 62
     5
 10
-89.780534208000972
 20
-243.41320526200161
 30
0.0
 11
-93.610756423000566
 21
-240.52645391600251
 31
0.0
  0
LINE
  8
DETAIL
  6
CONTINUOUS
 62
     5
 10
-82.03504075300043
 20
-252.0734593000025
 30
0.0
 11
-78.204818538000836
 21
-249.1867079540034
 31
0.0
  0
LINE
  8
DETAIL
  6
CONTINUOUS
 62
     5
 10
-78.204818538000836
 20
-249.1867079540034
 30
0.0
 11
-78.204818538000836
 21
-243.41320526200161
 31
0.0
  0
LINE
  8
DETAIL
  6
CONTINUOUS
 62
     5
 10
-78.204818538000836
 20
-243.41320526200161
 30
0.0
 11
-82.03504075300043
 21
-240.52645391600251
 31
0.0
  0
LINE
  8
SIZE
  6
CONTINUOUS
 62
    30
 10
-355.0
 20
20.0
 30
0.0
 11
-355.0
 21
234.23111990307279
 31
0.0
  0
LINE
  8
SIZE
  6
CONTINUOUS
 62
    30
 10
355.0
 20
20.0
 30
0.0
 11
355.0
 21
234.23111990307279
 31
0.0
  0
LINE
  8
SIZE
  6
CONTINUOUS
 62
    30
 10
-343.0
 20
214.23111990307279
 30
0.0
 11
343.0
 21
214.23111990307279
 31
0.0
  0
CIRCLE
  8
SIZE
  6
CONTINUOUS
 62
    30
 10
-355.0
 20
214.23111990307279
 30
0.0
 40
6.0
  0
LINE
  8
SIZE
  6
CONTINUOUS
 62
    30
 10
-355.0
 20
214.23111990307279
 30
0.0
 11
-343.0
 21
214.23111990307279
 31
0.0
  0
CIRCLE
  8
SIZE
  6
CONTINUOUS
 62
    30
 10
355.0
 20
214.23111990307279
 30
0.0
 40
6.0
  0
LINE
  8
SIZE
  6
CONTINUOUS
 62
    30
 10
355.0
 20
214.23111990307279
 30
0.0
 11
343.0
 21
214.23111990307279
 31
0.0
  0
TEXT
  8
SIZE
  6
CONTINUOUS
 62
    30
 10
-75.168000000000006
 20
239.23111990307279
 30
0.0
 40
64.0
  1
710
 50
0.0
 41
0.9
 51
0.0
  7
STANDARD
 71
     0
 72
     1
 11
0.0
 21
239.23111990307279
 31
0.0
210
0.0
220
0.0
230
1.0
  0
POINT
  8
DEFPOINTS
  6
CONTINUOUS
 62
    30
 10
-355.0
 20
0.0
 30
0.0
  0
POINT
  8
DEFPOINTS
  6
CONTINUOUS
 62
    30
 10
355.0
 20
0.0
 30
0.0
  0
POINT
  8
DEFPOINTS
  6
CONTINUOUS
 62
    30
 10
355.0
 20
214.23111990307279
 30
0.0
  0
LINE
  8
SIZE
  6
CONTINUOUS
 62
    30
 10
352.5
 20
-113.0
 30
0.0
 11
352.49999999999989
 21
-575.71222001134856
 31
0.0
  0
LINE
  8
SIZE
  6
CONTINUOUS
 62
    30
 10
-352.5
 20
-113.0000000000027
 30
0.0
 11
-352.50000000000011
 21
-575.71222001134856
 31
0.0
  0
LINE
  8
SIZE
  6
CONTINUOUS
 62
    30
 10
340.5
 20
-555.71222001134856
 30
0.0
 11
-340.5
 21
-555.71222001134856
 31
0.0
  0
CIRCLE
  8
SIZE
  6
CONTINUOUS
 62
    30
 10
352.5
 20
-555.71222001134856
 30
0.0
 40
6.0
  0
LINE
  8
SIZE
  6
CONTINUOUS
 62
    30
 10
352.5
 20
-555.71222001134856
 30
0.0
 11
340.5
 21
-555.71222001134856
 31
0.0
  0
CIRCLE
  8
SIZE
  6
CONTINUOUS
 62
    30
 10
-352.5
 20
-555.71222001134856
 30
0.0
 40
6.0
  0
LINE
  8
SIZE
  6
CONTINUOUS
 62
    30
 10
-352.5
 20
-555.71222001134856
 30
0.0
 11
-340.5
 21
-555.71222001134856
 31
0.0
  0
TEXT
  8
SIZE
  6
CONTINUOUS
 62
    30
 10
-115.488
 20
-530.71222001134856
 30
0.0
 40
64.0
  1
φ705
 50
0.0
 41
0.9
 51
0.0
  7
STANDARD
 71
     0
 72
     1
 11
0.0
 21
-530.71222001134856
 31
0.0
210
0.0
220
0.0
230
1.0
  0
POINT
  8
DEFPOINTS
  6
CONTINUOUS
 62
    30
 10
352.5
 20
-93.0
 30
0.0
  0
POINT
  8
DEFPOINTS
  6
CONTINUOUS
 62
    30
 10
-352.5
 20
-93.000000000002728
 30
0.0
  0
POINT
  8
DEFPOINTS
  6
CONTINUOUS
 62
    30
 10
-352.5
 20
-555.71222001134856
 30
0.0
  0
LINE
  8
BASIS
  6
DASHDOT
 62
     6
 10
325.0
 20
20.73928719599644
 30
0.0
 11
325.0
 21
-20.739287195003271
 31
0.0
  0
LINE
  8
BASIS
  6
DASHDOT
 62
     6
 10
-344.76906066999982
 20
0.0
 30
0.0
 11
-305.23093933099972
 21
0.0
 31
0.0
  0
LINE
  8
BASIS
  6
DASHDOT
 62
     6
 10
304.26071280399992
 20
0.0
 30
0.0
 11
345.73928719499958
 21
0.0
 31
0.0
  0
LINE
  8
BASIS
  6
DASHDOT
 62
     6
 10
-325.0
 20
19.769060669998002
 30
0.0
 11
-325.0
 21
-19.769060669001188
 31
0.0
  0
CIRCLE
  8
FIX
  6
CONTINUOUS
 62
    11
 10
-325.0
 20
0.0
 30
0.0
 40
7.5
  0
CIRCLE
  8
FIX
  6
CONTINUOUS
 62
    11
 10
325.0
 20
0.0
 30
0.0
 40
7.5
  0
LINE
  8
SIZE
  6
CONTINUOUS
 62
    30
 10
-325.0
 20
39.769060669997998
 30
0.0
 11
-325.0
 21
115.01266888555119
 31
0.0
  0
LINE
  8
SIZE
  6
CONTINUOUS
 62
    30
 10
325.0
 20
40.73928719599644
 30
0.0
 11
325.0
 21
115.01266888555119
 31
0.0
  0
LINE
  8
SIZE
  6
CONTINUOUS
 62
    30
 10
-313.0
 20
95.012668885551193
 30
0.0
 11
313.0
 21
95.012668885551193
 31
0.0
  0
CIRCLE
  8
SIZE
  6
CONTINUOUS
 62
    30
 10
-325.0
 20
95.012668885551193
 30
0.0
 40
6.0
  0
LINE
  8
SIZE
  6
CONTINUOUS
 62
    30
 10
-325.0
 20
95.012668885551193
 30
0.0
 11
-313.0
 21
95.012668885551193
 31
0.0
  0
CIRCLE
  8
SIZE
  6
CONTINUOUS
 62
    30
 10
325.0
 20
95.012668885551193
 30
0.0
 40
6.0
  0
LINE
  8
SIZE
  6
CONTINUOUS
 62
    30
 10
325.0
 20
95.012668885551193
 30
0.0
 11
313.0
 21
95.012668885551193
 31
0.0
  0
TEXT
  8
SIZE
  6
CONTINUOUS
 62
    30
 10
-80.927999999999997
 20
120.01266888555119
 30
0.0
 40
64.0
  1
650
 50
0.0
 41
0.9
 51
0.0
  7
STANDARD
 71
     0
 72
     1
 11
0.0
 21
120.01266888555119
 31
0.0
210
0.0
220
0.0
230
1.0
  0
POINT
  8
DEFPOINTS
  6
CONTINUOUS
 62
    30
 10
-325.0
 20
19.769060669998002
 30
0.0
  0
POINT
  8
DEFPOINTS
  6
CONTINUOUS
 62
    30
 10
325.0
 20
20.73928719599644
 30
0.0
  0
POINT
  8
DEFPOINTS
  6
CONTINUOUS
 62
    30
 10
325.0
 20
95.012668885551193
 30
0.0
  0
POINT
  8
ARRANGE
  6
CONTINUOUS
 62
     1
 10
0.0
 20
0.0
 30
0.0
 50
90.0
  0
LINE
  8
SIZE
  6
CONTINUOUS
 62
    30
 10
-82.0
 20
-306.09995660799899
 30
0.0
 11
-82.000000000000014
 21
-444.96222466519163
 31
0.0
  0
LINE
  8
SIZE
  6
CONTINUOUS
 62
    30
 10
82.0
 20
-306.09995660799899
 30
0.0
 11
81.999999999999986
 21
-444.96222466519163
 31
0.0
  0
LINE
  8
SIZE
  6
CONTINUOUS
 62
    30
 10
-70.000000000000014
 20
-424.96222466519163
 30
0.0
 11
69.999999999999986
 21
-424.96222466519163
 31
0.0
  0
LINE
  8
SIZE
  6
CONTINUOUS
 62
    30
 10
81.999999999999986
 20
-424.96222466519163
 30
0.0
 11
336.0
 21
-424.96222466519163
 31
0.0
  0
CIRCLE
  8
SIZE
  6
CONTINUOUS
 62
    30
 10
-82.000000000000014
 20
-424.96222466519163
 30
0.0
 40
6.0
  0
LINE
  8
SIZE
  6
CONTINUOUS
 62
    30
 10
-82.000000000000014
 20
-424.96222466519163
 30
0.0
 11
-70.000000000000014
 21
-424.96222466519163
 31
0.0
  0
CIRCLE
  8
SIZE
  6
CONTINUOUS
 62
    30
 10
81.999999999999986
 20
-424.96222466519163
 30
0.0
 40
6.0
  0
LINE
  8
SIZE
  6
CONTINUOUS
 62
    30
 10
81.999999999999986
 20
-424.96222466519163
 30
0.0
 11
69.999999999999986
 21
-424.96222466519163
 31
0.0
  0
TEXT
  8
SIZE
  6
CONTINUOUS
 62
    30
 10
105.27200000000001
 20
-399.96222466519163
 30
0.0
 40
64.0
  1
φ164
 50
0.0
 41
0.9
 51
0.0
  7
STANDARD
 71
     0
 72
     1
 11
215.0
 21
-399.96222466519163
 31
0.0
210
0.0
220
0.0
230
1.0
  0
POINT
  8
DEFPOINTS
  6
CONTINUOUS
 62
    30
 10
-82.0
 20
-286.09995660799899
 30
0.0
  0
POINT
  8
DEFPOINTS
  6
CONTINUOUS
 62
    30
 10
82.0
 20
-286.09995660799899
 30
0.0
  0
POINT
  8
DEFPOINTS
  6
CONTINUOUS
 62
    30
 10
81.999999999999986
 20
-424.96222466519163
 30
0.0
  0
CIRCLE
  8
ARRANGE
  6
CONTINUOUS
 62
     1
 10
0.0
 20
0.0
 30
0.0
 40
40.0
  0
LINE
  8
DETAIL
  6
CONTINUOUS
 62
     5
 10
81.699999999998909
 20
-218.79995660800071
 30
0.0
 11
81.699999999997999
 21
-130.58309635081969
 31
0.0
  0
ARC
  8
OUTLINE
  6
CONTINUOUS
 62
     3
 10
-237.39970075878608
 20
-212.51339667483501
 30
0.0
 40
46.334738247475698
 50
211.44132036320707
 51
267.38695004819806
  0
ARC
  8
OUTLINE
  6
CONTINUOUS
 62
     3
 10
-209.88333767886974
 20
-194.10899842175476
 30
0.0
 40
79.422658405865988
 50
179.77669900890601
 51
212.41450072279122
  0
LINE
  8
OUTLINE
  6
CONTINUOUS
 62
     3
 10
-289.30539290060011
 20
-193.79946229901
 30
0.0
 11
-289.30539290060011
 21
-93.000000000002728
 31
0.0
  0
LINE
  8
OUTLINE
  6
CONTINUOUS
 62
     3
 10
-289.30539290060011
 20
-93.000000000002728
 30
0.0
 11
-352.5
 21
-93.000000000002728
 31
0.0
  0
LINE
  8
OUTLINE
  6
CONTINUOUS
 62
     3
 10
-352.5
 20
-93.000000000002728
 30
0.0
 11
-352.5
 21
-91.500000000002728
 31
0.0
  0
ARC
  8
OUTLINE
  6
CONTINUOUS
 62
     3
 10
-356.01731101284389
 20
-41.950080995818389
 30
0.0
 40
49.674600653475828
 50
274.06034174218962
 51
355.43926161741922
  0
LINE
  8
OUTLINE
  6
CONTINUOUS
 62
     3
 10
-306.5
 20
-45.899999999999643
 30
0.0
 11
-306.5
 21
-30.0
 31
0.0
  0
ARC
  8
OUTLINE
  6
CONTINUOUS
 62
     3
 10
-326.07401855986637
 20
-29.578418095869697
 30
0.0
 40
19.578558013395241
 50
358.7661639422796
 51
89.78338745960184
  0
LINE
  8
OUTLINE
  6
CONTINUOUS
 62
     3
 10
-326.0
 20
-10.0
 30
0.0
 11
-350.0
 21
-10.0
 31
0.0
  0
ARC
  8
OUTLINE
  6
CONTINUOUS
 62
     3
 10
-350.00000000000011
 20
-5.0000000000000977
 30
0.0
 40
4.9999999999999023
 50
180.0
 51
270.0
  0
LINE
  8
OUTLINE
  6
CONTINUOUS
 62
     3
 10
-355.0
 20
-5.0
 30
0.0
 11
-355.0
 21
0.0
 31
0.0
  0
LINE
  8
OUTLINE
  6
CONTINUOUS
 62
     3
 10
-355.0
 20
0.0
 30
0.0
 11
355.0
 21
0.0
 31
0.0
  0
LINE
  8
OUTLINE
  6
CONTINUOUS
 62
     3
 10
355.0
 20
0.0
 30
0.0
 11
355.0
 21
-5.0
 31
0.0
  0
ARC
  8
OUTLINE
  6
CONTINUOUS
 62
     3
 10
350.00000000000011
 20
-5.0000000000000977
 30
0.0
 40
4.9999999999999023
 50
270.0
 51
0.0
  0
LINE
  8
OUTLINE
  6
CONTINUOUS
 62
     3
 10
350.0
 20
-10.0
 30
0.0
 11
326.5
 21
-10.0
 31
0.0
  0
ARC
  8
OUTLINE
  6
CONTINUOUS
 62
     3
 10
326.5000000000008
 20
-30.000000000000774
 30
0.0
 40
20.000000000000774
 50
90.0
 51
180.0
  0
LINE
  8
OUTLINE
  6
CONTINUOUS
 62
     3
 10
306.5
 20
-30.0
 30
0.0
 11
306.5
 21
-45.899999999999643
 31
0.0
  0
ARC
  8
OUTLINE
  6
CONTINUOUS
 62
     3
 10
356.01731101282081
 20
-41.950080995827676
 30
0.0
 40
49.674600653452089
 50
184.56073838257225
 51
265.93965825798557
  0
LINE
  8
OUTLINE
  6
CONTINUOUS
 62
     3
 10
352.50000000013011
 20
-91.499999999999091
 30
0.0
 11
352.5
 21
-93.0
 31
0.0
  0
LINE
  8
OUTLINE
  6
CONTINUOUS
 62
     3
 10
352.5
 20
-93.0
 30
0.0
 11
281.39348877900011
 21
-93.0
 31
0.0
  0
LINE
  8
OUTLINE
  6
CONTINUOUS
 62
     3
 10
281.39348877900011
 20
-93.0
 30
0.0
 11
281.39348877900011
 21
-193.7994622990154
 31
0.0
  0
ARC
  8
OUTLINE
  6
CONTINUOUS
 62
     3
 10
203.81675944294216
 20
-194.64147085056118
 30
0.0
 40
77.581298731594273
 50
327.186943139493
 51
0.6218571263999593
  0
ARC
  8
OUTLINE
  6
CONTINUOUS
 62
     3
 10
229.66239761521209
 20
-212.81617926271105
 30
0.0
 40
46.028137966856768
 50
272.5157044890791
 51
328.76687302308756
  0
LINE
  8
OUTLINE
  6
CONTINUOUS
 62
     3
 10
231.68272079599959
 20
-258.79995660800068
 30
0.0
 11
82.0
 21
-258.79995660800068
 31
0.0
  0
LINE
  8
OUTLINE
  6
CONTINUOUS
 62
     3
 10
82.0
 20
-258.79995660800068
 30
0.0
 11
82.0
 21
-286.09995660799899
 31
0.0
  0
ARC
  8
OUTLINE
  6
CONTINUOUS
 62
     3
 10
74.499999999999957
 20
-286.09995660799893
 30
0.0
 40
7.500000000000048
 50
270.0
 51
0.0
  0
LINE
  8
OUTLINE
  6
CONTINUOUS
 62
     3
 10
74.5
 20
-293.59995660799899
 30
0.0
 11
-74.5
 21
-293.59995660799899
 31
0.0
  0
ARC
  8
OUTLINE
  6
CONTINUOUS
 62
     3
 10
-74.499999999999957
 20
-286.09995660799893
 30
0.0
 40
7.500000000000048
 50
180.0
 51
270.0
  0
LINE
  8
OUTLINE
  6
CONTINUOUS
 62
     3
 10
-82.0
 20
-286.09995660799899
 30
0.0
 11
-82.0
 21
-258.79995660800068
 31
0.0
  0
LINE
  8
OUTLINE
  6
CONTINUOUS
 62
     3
 10
-82.0
 20
-258.79995660800068
 30
0.0
 11
-239.51212543560001
 21
-258.79995660800432
 31
0.0
  0
LINE
  8
DETAIL
  6
CONTINUOUS
 62
     5
 10
-352.5
 20
-93.000000000002728
 30
0.0
 11
-289.30539290060011
 21
-93.000000000002728
 31
0.0
  0
LINE
  8
DETAIL
  6
CONTINUOUS
 62
     5
 10
352.5
 20
-93.0
 30
0.0
 11
352.5
 21
-91.5
 31
0.0
  0
LINE
  8
DETAIL
  6
CONTINUOUS
 62
     5
 10
352.5
 20
-93.0
 30
0.0
 11
281.39348877900011
 21
-93.0
 31
0.0
  0
LINE
  8
DETAIL
  6
CONTINUOUS
 62
     5
 10
-352.5
 20
-91.500000000002728
 30
0.0
 11
-352.5
 21
-93.000000000002728
 31
0.0
  0
ARC
  8
DETAIL
  6
CONTINUOUS
 62
     5
 10
356.01731101284167
 20
-41.950080995818098
 30
0.0
 40
49.674600653473263
 50
184.5607383825556
 51
265.93965825782158
  0
ARC
  8
DETAIL
  6
CONTINUOUS
 62
     5
 10
-356.0173110128444
 20
-41.950080995816279
 30
0.0
 40
49.674600653477967
 50
274.06034174217831
 51
355.43926161739142
  0
ARC
  8
DETAIL
  6
CONTINUOUS
 62
     5
 10
29.543950243636569
 20
292.52475698071339
 30
0.0
 40
468.22749575797928
 50
276.39547244950347
 51
299.52865925644318
  0
ARC
  8
DETAIL
  6
CONTINUOUS
 62
     5
 10
-2.7637440418711781
 20
-122.1336005587132
 30
0.0
 40
49.636474387161307
 50
2.3675871402903961
 51
35.940115454017509
  0
ARC
  8
DETAIL
  6
CONTINUOUS
 62
     5
 10
-802.65739254644177
 20
1355.7908874547361
 30
0.0
 40
1628.564531769453
 50
289.15719766081139
 51
297.17544261494999
  0
ARC
  8
DETAIL
  6
CONTINUOUS
 62
     5
 10
65.175013391929497
 20
-657.52817051625425
 30
0.0
 40
632.80749078883639
 50
116.8615484120976
 51
121.7935397763862
  0
LINE
  8
DETAIL
  6
CONTINUOUS
 62
     5
 10
306.5
 20
-30.0
 30
0.0
 11
306.5
 21
-45.899999999999643
 31
0.0
  0
LINE
  8
DETAIL
  6
CONTINUOUS
 62
     5
 10
-306.5
 20
-30.0
 30
0.0
 11
-306.5
 21
-45.899999999999643
 31
0.0
  0
ARC
  8
DETAIL
  6
CONTINUOUS
 62
     5
 10
326.5
 20
-30.0
 30
0.0
 40
20.0
 50
90.0
 51
180.0
  0
ARC
  8
DETAIL
  6
CONTINUOUS
 62
     5
 10
-326.07401855986609
 20
-29.57841809586898
 30
0.0
 40
19.578558013394581
 50
358.76616394230319
 51
89.783387459599382
  0
LINE
  8
DETAIL
  6
CONTINUOUS
 62
     5
 10
15.99956912860034
 20
-93.783096350818596
 30
0.0
 11
-15.99956912860034
 21
-93.783096350818596
 31
0.0
  0
LINE
  8
DETAIL
  6
CONTINUOUS
 62
     5
 10
-12.999963276400189
 20
-96.183096350818232
 30
0.0
 11
12.999963276400189
 21
-96.183096350818232
 31
0.0
  0
LINE
  8
DETAIL
  6
CONTINUOUS
 62
     5
 10
14.53074678200028
 20
-98.683096350818232
 30
0.0
 11
20.63826083579988
 21
-99.217434592817881
 31
0.0
  0
LINE
  8
DETAIL
  6
CONTINUOUS
 62
     5
 10
-14.530542661599609
 20
-98.683096350818232
 30
0.0
 11
14.530542661599609
 21
-98.683096350818232
 31
0.0
  0
LINE
  8
DETAIL
  6
CONTINUOUS
 62
     5
 10
-26.007465073200361
 20
-113.1830963508182
 30
0.0
 11
26.007465073200361
 21
-113.1830963508182
 31
0.0
  0
LINE
  8
DETAIL
  6
CONTINUOUS
 62
     5
 10
-71.349907605799672
 20
-120.0830963508179
 30
0.0
 11
71.199999999999818
 21
-120.0830963508179
 31
0.0
  0
LINE
  8
DETAIL
  6
CONTINUOUS
 62
     5
 10
26.007639678400661
 20
-113.1830963508182
 30
0.0
 11
25.18345561259957
 21
-103.7626293696194
 31
0.0
  0
LINE
  8
DETAIL
  6
CONTINUOUS
 62
     5
 10
11.73431049379997
 20
-116.07999541761821
 30
0.0
 11
12.77280140000039
 21
-115.04148951401839
 31
0.0
  0
LINE
  8
DETAIL
  6
CONTINUOUS
 62
     5
 10
16.000000003399691
 20
-93.783096350818596
 30
0.0
 11
16.000000003399691
 21
-93.000000000001819
 31
0.0
  0
LINE
  8
DETAIL
  6
CONTINUOUS
 62
     5
 10
13.30000000339987
 20
-113.7687064984184
 30
0.0
 11
13.30000000339987
 21
-113.1830963508182
 31
0.0
  0
LINE
  8
DETAIL
  6
CONTINUOUS
 62
     5
 10
13.000000003399689
 20
-96.183096350818232
 30
0.0
 11
13.000000003399689
 21
-98.683096350818232
 31
0.0
  0
LINE
  8
DETAIL
  6
CONTINUOUS
 62
     5
 10
11.500000003399689
 20
-120.0830963508179
 30
0.0
 11
11.500000003399689
 21
-116.64567675781841
 31
0.0
  0
LINE
  8
DETAIL
  6
CONTINUOUS
 62
     5
 10
10.000000003399689
 20
-96.183096350818232
 30
0.0
 11
10.000000003399689
 21
-93.783096350818596
 31
0.0
  0
ARC
  8
DETAIL
  6
CONTINUOUS
 62
     5
 10
20.20248212200022
 20
-104.1984080834191
 30
0.0
 40
5.0
 50
4.9999999999735039
 51
84.999999999999972
  0
ARC
  8
DETAIL
  6
CONTINUOUS
 62
     5
 10
11.500000003399689
 20
-113.7687064984184
 30
0.0
 40
1.8
 50
315.00041371817338
 51
0.0
  0
ARC
  8
DETAIL
  6
CONTINUOUS
 62
     5
 10
12.30000000339987
 20
-116.64567675781841
 30
0.0
 40
0.8
 50
135.00041371817341
 51
180.0
  0
LINE
  8
DETAIL
  6
CONTINUOUS
 62
     5
 10
-14.53074678200028
 20
-98.683096350818232
 30
0.0
 11
-20.63826083579988
 21
-99.217434592817881
 31
0.0
  0
LINE
  8
DETAIL
  6
CONTINUOUS
 62
     5
 10
-26.007639678400661
 20
-113.1830963508182
 30
0.0
 11
-25.18345561259957
 21
-103.7626293696194
 31
0.0
  0
LINE
  8
DETAIL
  6
CONTINUOUS
 62
     5
 10
-11.73431049379997
 20
-116.07999541761821
 30
0.0
 11
-12.77280140000039
 21
-115.04148951401839
 31
0.0
  0
LINE
  8
DETAIL
  6
CONTINUOUS
 62
     5
 10
-16.000000003399691
 20
-93.783096350818596
 30
0.0
 11
-16.000000003399691
 21
-93.000000000001819
 31
0.0
  0
LINE
  8
DETAIL
  6
CONTINUOUS
 62
     5
 10
-13.30000000339987
 20
-113.7687064984184
 30
0.0
 11
-13.30000000339987
 21
-113.1830963508182
 31
0.0
  0
LINE
  8
DETAIL
  6
CONTINUOUS
 62
     5
 10
-13.000000003399689
 20
-96.183096350818232
 30
0.0
 11
-13.000000003399689
 21
-98.683096350818232
 31
0.0
  0
LINE
  8
DETAIL
  6
CONTINUOUS
 62
     5
 10
-11.500000003399689
 20
-120.0830963508179
 30
0.0
 11
-11.500000003399689
 21
-116.64567675781841
 31
0.0
  0
LINE
  8
DETAIL
  6
CONTINUOUS
 62
     5
 10
-10.000000003399689
 20
-96.183096350818232
 30
0.0
 11
-10.000000003399689
 21
-93.783096350818596
 31
0.0
  0
ARC
  8
DETAIL
  6
CONTINUOUS
 62
     5
 10
-20.20248212200022
 20
-104.1984080834191
 30
0.0
 40
5.0
 50
95.000000000000043
 51
175.00000000002649
  0
ARC
  8
DETAIL
  6
CONTINUOUS
 62
     5
 10
-11.500000003399689
 20
-113.7687064984184
 30
0.0
 40
1.8
 50
180.0
 51
224.99958628182659
  0
ARC
  8
DETAIL
  6
CONTINUOUS
 62
     5
 10
-12.30000000339987
 20
-116.64567675781841
 30
0.0
 40
0.8
 50
0.0
 51
44.999586281826602
  0
CIRCLE
  8
DETAIL
  6
CONTINUOUS
 62
     5
 10
270.05596986781529
 20
-32.572085167482328
 30
0.0
 40
5.0
  0
ARC
  8
DETAIL
  6
CONTINUOUS
 62
     5
 10
71.199999999999818
 20
-130.58309635081969
 30
0.0
 40
10.5
 50
0.0
 51
90.0
  0
TEXT
  8
NOTE
  6
CONTINUOUS
 62
     4
 10
455.05362563834927
 20
-144.34132305447019
 30
0.0
 40
64.0
  1
4-15×15
 50
0.0
 41
0.9
 51
0.0
  7
STANDARD
 71
     0
 11
0.0
 21
0.0
 31
0.0
210
0.0
220
0.0
230
1.0
  0
LINE
  8
NOTE
  6
CONTINUOUS
 62
     4
 10
454.96362563834919
 20
-157.1413230544704
 30
0.0
 11
833.56791135263484
 21
-157.1413230544704
 31
0.0
  0
LINE
  8
NOTE
  6
CONTINUOUS
 62
     4
 10
335.61407357768417
 20
-29.18833541566746
 30
0.0
 11
325.0
 21
0.0
 31
0.0
  0
LINE
  8
NOTE
  6
CONTINUOUS
 62
     4
 10
325.0
 20
0.0
 30
0.0
 11
348.78625515859511
 21
-19.97076733078142
 31
0.0
  0
LINE
  8
NOTE
  6
CONTINUOUS
 62
     4
 10
325.0
 20
0.0
 30
0.0
 11
359.40032873627928
 21
-49.15910274644888
 31
0.0
  0
LINE
  8
NOTE
  6
CONTINUOUS
 62
     4
 10
359.40032873627928
 20
-49.159102746448873
 30
0.0
 11
434.96362563834919
 21
-157.1413230544704
 31
0.0
  0
LINE
  8
NOTE
  6
CONTINUOUS
 62
     4
 10
434.96362563834919
 20
-157.1413230544704
 30
0.0
 11
454.96362563834919
 21
-157.1413230544704
 31
0.0
  0
TEXT
  8
NOTE
  6
CONTINUOUS
 62
     4
 10
461.5681993130529
 20
-237.04155111653739
 30
0.0
 40
64.0
  1
EL
 50
0.0
 41
0.9
 51
0.0
  7
STANDARD
 71
     0
 11
0.0
 21
0.0
 31
0.0
210
0.0
220
0.0
230
1.0
  0
LINE
  8
NOTE
  6
CONTINUOUS
 62
     4
 10
461.47819931305281
 20
-249.8415511165376
 30
0.0
 11
546.59677074162414
 21
-249.8415511165376
 31
0.0
  0
LINE
  8
NOTE
  6
CONTINUOUS
 62
     4
 10
282.327417905027
 20
-61.103279417285705
 30
0.0
 11
270.05596986781529
 21
-32.572085167482328
 31
0.0
  0
LINE
  8
NOTE
  6
CONTINUOUS
 62
     4
 10
270.05596986781529
 20
-32.572085167482328
 30
0.0
 11
294.94898072262333
 21
-51.145062657169014
 31
0.0
  0
LINE
  8
NOTE
  6
CONTINUOUS
 62
     4
 10
270.05596986781529
 20
-32.572085167482328
 30
0.0
 11
307.22042875983504
 21
-79.676256906972384
 31
0.0
  0
LINE
  8
NOTE
  6
CONTINUOUS
 62
     4
 10
307.22042875983499
 20
-79.676256906972426
 30
0.0
 11
441.47819931305281
 21
-249.8415511165376
 31
0.0
  0
LINE
  8
NOTE
  6
CONTINUOUS
 62
     4
 10
441.47819931305281
 20
-249.8415511165376
 30
0.0
 11
461.47819931305281
 21
-249.8415511165376
 31
0.0
  0
ENDSEC
  0
EOF
