  0
SECTION
  2
HEADER
  9
$ACADVER
  1
AC1009
  9
$INSBASE
 10
0.0
 20
0.0
 30
0.0
  9
$EXTMIN
 10
-568.7484574955306
 20
-281.02110626760623
 30
-0.0015258207003583
  9
$EXTMAX
 10
1109.3994257266149
 20
886.00159527966935
 30
0.0000000349246037
  9
$LIMMIN
 10
-2970.0
 20
-2100.0
  9
$LIMMAX
 10
2970.0
 20
2100.0
  9
$ORTHOMODE
 70
     1
  9
$REGENMODE
 70
     0
  9
$FILLMODE
 70
     1
  9
$QTEXTMODE
 70
     0
  9
$MIRRTEXT
 70
     0
  9
$DRAGMODE
 70
     2
  9
$LTSCALE
 40
20.0
  9
$OSMODE
 70
    37
  9
$ATTMODE
 70
     1
  9
$TEXTSIZE
 40
64.0
  9
$TRACEWID
 40
0.05
  9
$TEXTSTYLE
  7
STANDARD
  9
$CLAYER
  8
OUTLINE
  9
$CELTYPE
  6
CONTINUOUS
  9
$CECOLOR
 62
     3
  9
$DIMSCALE
 40
1.0
  9
$DIMASZ
 40
2.0
  9
$DIMEXO
 40
20.0
  9
$DIMDLI
 40
200.0
  9
$DIMRND
 40
0.0
  9
$DIMDLE
 40
0.0
  9
$DIMEXE
 40
30.0
  9
$DIMTP
 40
0.0
  9
$DIMTM
 40
0.0
  9
$DIMTXT
 40
64.0
  9
$DIMCEN
 40
0.09
  9
$DIMTSZ
 40
0.0
  9
$DIMTOL
 70
     0
  9
$DIMLIM
 70
     0
  9
$DIMTIH
 70
     0
  9
$DIMTOH
 70
     0
  9
$DIMSE1
 70
     0
  9
$DIMSE2
 70
     0
  9
$DIMTAD
 70
     1
  9
$DIMZIN
 70
     8
  9
$DIMBLK
  1

  9
$DIMASO
 70
     1
  9
$DIMSHO
 70
     0
  9
$DIMPOST
  1

  9
$DIMAPOST
  1

  9
$DIMALT
 70
     0
  9
$DIMALTD
 70
     2
  9
$DIMALTF
 40
25.399999999999999
  9
$DIMLFAC
 40
1.0
  9
$DIMTOFL
 70
     1
  9
$DIMTVP
 40
0.0
  9
$DIMTIX
 70
     1
  9
$DIMSOXD
 70
     0
  9
$DIMSAH
 70
     0
  9
$DIMBLK1
  1

  9
$DIMBLK2
  1

  9
$DIMSTYLE
  2
STANDARD
  9
$DIMCLRD
 70
     0
  9
$DIMCLRE
 70
     0
  9
$DIMCLRT
 70
     0
  9
$DIMTFAC
 40
1.0
  9
$DIMGAP
 40
0.09
  9
$LUNITS
 70
     2
  9
$LUPREC
 70
     4
  9
$SKETCHINC
 40
0.1
  9
$FILLETRAD
 40
30.0
  9
$AUNITS
 70
     1
  9
$AUPREC
 70
     3
  9
$MENU
  1
ACAD
  9
$ELEVATION
 40
0.0
  9
$PELEVATION
 40
0.0
  9
$THICKNESS
 40
0.0
  9
$LIMCHECK
 70
     0
  9
$BLIPMODE
 70
     0
  9
$CHAMFERA
 40
0.0
  9
$CHAMFERB
 40
0.0
  9
$SKPOLY
 70
     0
  9
$TDCREATE
 40
2450967.6822222229
  9
$TDUPDATE
 40
2454960.8135394561
  9
$TDINDWG
 40
0.0295176273
  9
$TDUSRTIMER
 40
0.0295174537
  9
$USRTIMER
 70
     1
  9
$ANGBASE
 50
0.0
  9
$ANGDIR
 70
     0
  9
$PDMODE
 70
     3
  9
$PDSIZE
 40
-2.0
  9
$PLINEWID
 40
0.0
  9
$COORDS
 70
     0
  9
$SPLFRAME
 70
     0
  9
$SPLINETYPE
 70
     6
  9
$SPLINESEGS
 70
     8
  9
$ATTDIA
 70
     0
  9
$ATTREQ
 70
     1
  9
$HANDLING
 70
     1
  9
$HANDSEED
  5
1C8
  9
$SURFTAB1
 70
     6
  9
$SURFTAB2
 70
     6
  9
$SURFTYPE
 70
     6
  9
$SURFU
 70
     6
  9
$SURFV
 70
     6
  9
$UCSNAME
  2

  9
$UCSORG
 10
0.0
 20
0.0
 30
0.0
  9
$UCSXDIR
 10
1.0
 20
0.0
 30
0.0
  9
$UCSYDIR
 10
0.0
 20
1.0
 30
0.0
  9
$PUCSNAME
  2

  9
$PUCSORG
 10
0.0
 20
0.0
 30
0.0
  9
$PUCSXDIR
 10
1.0
 20
0.0
 30
0.0
  9
$PUCSYDIR
 10
0.0
 20
1.0
 30
0.0
  9
$USERI1
 70
     0
  9
$USERI2
 70
     0
  9
$USERI3
 70
     0
  9
$USERI4
 70
     0
  9
$USERI5
 70
     0
  9
$USERR1
 40
20.0
  9
$USERR2
 40
0.0
  9
$USERR3
 40
0.0
  9
$USERR4
 40
0.0
  9
$USERR5
 40
0.0
  9
$WORLDVIEW
 70
     1
  9
$SHADEDGE
 70
     3
  9
$SHADEDIF
 70
    70
  9
$TILEMODE
 70
     1
  9
$MAXACTVP
 70
    64
  9
$PLIMCHECK
 70
     0
  9
$PEXTMIN
 10
1.0000000000000000E+020
 20
1.0000000000000000E+020
 30
1.0000000000000000E+020
  9
$PEXTMAX
 10
-1.0000000000000000E+020
 20
-1.0000000000000000E+020
 30
-1.0000000000000000E+020
  9
$PLIMMIN
 10
0.0
 20
0.0
  9
$PLIMMAX
 10
12.0
 20
9.0
  9
$UNITMODE
 70
     0
  9
$VISRETAIN
 70
     1
  9
$PLINEGEN
 70
     0
  9
$PSLTSCALE
 70
     1
  0
ENDSEC
  0
SECTION
  2
TABLES
  0
TABLE
  2
VPORT
 70
     1
  0
VPORT
  2
*ACTIVE
 70
     0
 10
0.0
 20
0.0
 11
1.0
 21
1.0
 12
298.10669145028282
 22
310.61835089993451
 13
0.0
 23
0.0
 14
50.0
 24
50.0
 15
100.0
 25
100.0
 16
0.0
 26
0.0
 36
1.0
 17
0.0
 27
0.0
 37
0.0
 40
1448.3123856877471
 41
1.3098995695839311
 42
50.0
 43
0.0
 44
0.0
 50
0.0
 51
0.0
 71
     0
 72
  1000
 73
     1
 74
     0
 75
     0
 76
     0
 77
     0
 78
     2
  0
ENDTAB
  0
TABLE
  2
LTYPE
 70
     8
  0
LTYPE
  2
CONTINUOUS
 70
     0
  3
実線
 72
    65
 73
     0
 40
0.0
  0
LTYPE
  2
DASHDOT
 70
     0
  3
____ _ ____ _ ____ _ ____ _ ____ _ ____ _ ____
 72
    65
 73
     4
 40
5.5
 49
4.0
 49
-0.6
 49
0.3
 49
-0.6
  0
LTYPE
  2
DASHED
 70
     0
  3
_ _ _ _ _ _ _ _ _ _ _ _ _ _ _ _ _ _ _ _ _ _ _
 72
    65
 73
     2
 40
2.0
 49
1.1999999999999991
 49
-0.8
  0
LTYPE
  2
DOT
 70
     0
  3
...............................................
 72
    65
 73
     2
 40
0.8
 49
0.5
 49
-0.3
  0
LTYPE
  2
DASHDOT1
 70
     0
  3
____ _ ____ _ ____ _ ____ _ ____ _ ____ _ ____
 72
    65
 73
     4
 40
2.0
 49
1.5
 49
-0.2
 49
0.1
 49
-0.2
  0
LTYPE
  2
DIVIDE
 70
     0
  3
_____ _ _ _____ _ _ _____ _ _ _____ _ _ ____
 72
    65
 73
     6
 40
6.4000000000000004
 49
4.0
 49
-0.6
 49
0.3
 49
-0.6
 49
0.3
 49
-0.6
  0
LTYPE
  2
DIVIDE1
 70
     0
  3
_____ _ _ _____ _ _ _____ _ _ _____ _ _ ____
 72
    65
 73
     6
 40
3.2000000000000002
 49
2.0
 49
-0.3
 49
0.15
 49
-0.3
 49
0.15
 49
-0.3
  0
ENDTAB
  0
TABLE
  2
LAYER
 70
    12
  0
LAYER
  2
0
 70
     0
 62
     7
  6
CONTINUOUS
  0
LAYER
  2
OUTLINE
 70
     0
 62
     3
  6
CONTINUOUS
  0
LAYER
  2
DETAIL
 70
     0
 62
     5
  6
CONTINUOUS
  0
LAYER
  2
BASIS
 70
     0
 62
     6
  6
DASHDOT
  0
LAYER
  2
SIZE
 70
     0
 62
    30
  6
CONTINUOUS
  0
LAYER
  2
NOTE
 70
     0
 62
     4
  6
CONTINUOUS
  0
LAYER
  2
DEFPOINTS
 70
     0
 62
     7
  6
CONTINUOUS
  0
LAYER
  2
ETC
 70
     0
 62
    61
  6
CONTINUOUS
  0
LAYER
  2
ARRANGE
 70
     0
 62
     1
  6
CONTINUOUS
  0
LAYER
  2
FIX
 70
     0
 62
    11
  6
CONTINUOUS
  0
LAYER
  2
SERVICESPACE
 70
     0
 62
     2
  6
DASHDOT
  0
LAYER
  2
SYMBOLLINE
 70
     0
 62
    15
  6
CONTINUOUS
  0
ENDTAB
  0
TABLE
  2
STYLE
 70
     2
  0
STYLE
  2
STANDARD
 70
     0
 40
0.0
 41
0.9
 50
0.0
 71
     0
 42
64.0
  3
SIMPLEX
  4
BIGFONT
  0
STYLE
  2
ANNOTATIVE
 70
     0
 40
0.0
 41
1.0
 50
0.0
 71
     0
 42
0.2
  3
txt
  4

  0
ENDTAB
  0
TABLE
  2
VIEW
 70
     1
  0
VIEW
  2
ALL
 70
     0
 40
4282.6198079999976
 10
0.0
 20
41.309903999999989
 41
5940.0
 11
0.0
 21
0.0
 31
1.0
 12
0.0
 22
0.0
 32
0.0
 42
50.0
 43
0.0
 44
0.0
 50
0.0
 71
     0
  0
ENDTAB
  0
TABLE
  2
UCS
 70
     0
  0
ENDTAB
  0
TABLE
  2
APPID
 70
     4
  0
APPID
  2
ACAD
 70
     0
  0
APPID
  2
ACADANNOTATIVE
 70
     0
  0
APPID
  2
ACAD_MLEADERVER
 70
     0
  0
APPID
  2
ACAD_EXEMPT_FROM_CAD_STANDARDS
 70
     0
  0
ENDTAB
  0
TABLE
  2
DIMSTYLE
 70
     2
  0
DIMSTYLE
  2
STANDARD
 70
     0
  3

  4

  5

  6

  7

 40
1.0
 41
0.18
 42
0.0625
 43
0.38
 44
0.18
 45
0.0
 46
0.0
 47
0.0
 48
0.0
140
0.18
141
0.09
142
0.0
143
25.399999999999999
144
1.0
145
0.0
146
1.0
147
0.09
 71
     0
 72
     0
 73
     1
 74
     1
 75
     0
 76
     0
 77
     0
 78
     0
170
     0
171
     2
172
     0
173
     0
174
     0
175
     0
176
     0
177
     0
178
     0
  0
DIMSTYLE
  2
ANNOTATIVE
 70
     0
  3

  4

  5

  6

  7

 40
1.0
 41
0.18
 42
0.0625
 43
0.38
 44
0.18
 45
0.0
 46
0.0
 47
0.0
 48
0.0
140
0.18
141
0.09
142
0.0
143
25.399999999999999
144
1.0
145
0.0
146
1.0
147
0.09
 71
     0
 72
     0
 73
     1
 74
     1
 75
     0
 76
     0
 77
     0
 78
     0
170
     0
171
     2
172
     0
173
     0
174
     0
175
     0
176
     0
177
     0
178
     0
  0
ENDTAB
  0
ENDSEC
  0
SECTION
  2
BLOCKS
  0
BLOCK
  8
0
  2
$MODEL_SPACE
 70
     0
 10
0.0
 20
0.0
 30
0.0
  3
$MODEL_SPACE
  1

  0
ENDBLK
  5
150
  8
0
  0
BLOCK
 67
     1
  8
0
  2
$PAPER_SPACE
 70
     0
 10
0.0
 20
0.0
 30
0.0
  3
$PAPER_SPACE
  1

  0
ENDBLK
  5
14C
 67
     1
  8
0
  0
ENDSEC
  0
SECTION
  2
ENTITIES
  0
TEXT
  5
37
  8
ETC
  6
CONTINUOUS
 62
    61
 10
459.08378881603682
 20
821.9715302770062
 30
0.0
 40
64.0
  1
EGG-50MFTB_1
 41
0.9
  0
LINE
  5
38
  8
NOTE
  6
CONTINUOUS
 62
     4
 10
-262.0
 20
0.0
 30
0.0
 11
-432.35023799999988
 21
260.60537099999988
 31
0.0
  0
LINE
  5
39
  8
NOTE
  6
CONTINUOUS
 62
     4
 10
-432.35023799999988
 20
260.60537099999988
 30
0.0
 11
-541.37686199999985
 21
260.60537099999988
 31
0.0
  0
LINE
  5
3A
  8
BASIS
  6
DASHDOT
 62
     6
 10
0.0
 20
224.69903299999999
 30
0.0
 11
0.0
 21
-280.8521859999999
 31
0.0
  0
POINT
  5
3B
  8
ARRANGE
  6
CONTINUOUS
 62
     1
 10
0.0
 20
0.0
 30
0.0
  0
LINE
  5
3C
  8
DETAIL
  6
CONTINUOUS
 62
     5
 10
-262.0
 20
189.0
 30
0.0
 11
-262.0
 21
0.0
 31
0.0
  0
LINE
  5
3D
  8
DETAIL
  6
CONTINUOUS
 62
     5
 10
262.0
 20
189.0
 30
0.0
 11
262.0
 21
0.0
 31
0.0
  0
LINE
  5
3E
  8
DETAIL
  6
CONTINUOUS
 62
     5
 10
310.0
 20
0.0
 30
0.0
 11
310.0
 21
-194.0
 31
0.0
  0
LINE
  5
3F
  8
DETAIL
  6
CONTINUOUS
 62
     5
 10
-310.0
 20
0.0
 30
0.0
 11
-310.0
 21
-194.0
 31
0.0
  0
LINE
  5
40
  8
NOTE
  6
CONTINUOUS
 62
     4
 10
280.0
 20
0.0
 30
0.0
 11
403.87313799999993
 21
-102.6040129999999
 31
0.0
  0
LINE
  5
41
  8
NOTE
  6
CONTINUOUS
 62
     4
 10
403.87313799999993
 20
-102.6040129999999
 30
0.0
 11
696.84105799999975
 21
-102.6040129999999
 31
0.0
  0
LINE
  5
42
  8
NOTE
  6
CONTINUOUS
 62
     4
 10
-300.91379899999998
 20
0.0
 30
0.0
 11
-246.431039
 21
0.0
 31
0.0
  0
LINE
  5
43
  8
DETAIL
  6
CONTINUOUS
 62
     5
 10
-310.0
 20
0.0
 30
0.0
 11
310.0
 21
0.0
 31
0.0
  0
TEXT
  5
44
  8
ETC
  6
CONTINUOUS
 62
    61
 10
451.01031081603679
 20
712.06485798116705
 30
0.0
 40
64.0
  1
産業扇
 41
0.9
  0
CIRCLE
  5
45
  8
ARRANGE
  6
CONTINUOUS
 62
     1
 10
0.0
 20
0.0
 30
0.0
 40
54.482759999999992
  0
TEXT
  5
46
  8
NOTE
  6
CONTINUOUS
 62
     4
 10
-528.40925500000003
 20
275.37209599999989
 30
0.0
 40
64.0
  1
EL
 41
0.9
  0
TEXT
  5
47
  8
NOTE
  6
CONTINUOUS
 62
     4
 10
406.40581700000001
 20
-76.338026999999983
 30
0.0
 40
64.0
  1
4-φ14
 41
0.9
  0
LINE
  5
48
  8
DETAIL
  6
CONTINUOUS
 62
     5
 10
-262.0
 20
189.0
 30
0.0
 11
262.5
 21
189.0
 31
0.0
  0
LINE
  5
49
  8
DETAIL
  6
CONTINUOUS
 62
     5
 10
-280.0
 20
-224.0
 30
0.0
 11
280.0
 21
-224.0
 31
0.0
  0
LINE
  5
4A
  8
OUTLINE
  6
CONTINUOUS
 62
     3
 10
-310.0
 20
0.0
 30
0.0
 11
310.0
 21
0.0
 31
0.0
  0
LINE
  5
4B
  8
OUTLINE
  6
CONTINUOUS
 62
     3
 10
-262.0
 20
189.0
 30
0.0
 11
262.5
 21
189.0
 31
0.0
  0
LINE
  5
4C
  8
OUTLINE
  6
CONTINUOUS
 62
     3
 10
-262.0
 20
189.0
 30
0.0
 11
-262.0
 21
0.0
 31
0.0
  0
LINE
  5
4D
  8
OUTLINE
  6
CONTINUOUS
 62
     3
 10
262.0
 20
189.0
 30
0.0
 11
262.0
 21
0.0
 31
0.0
  0
LINE
  5
4E
  8
OUTLINE
  6
CONTINUOUS
 62
     3
 10
310.0
 20
0.0
 30
0.0
 11
310.0
 21
-194.0
 31
0.0
  0
LINE
  5
4F
  8
OUTLINE
  6
CONTINUOUS
 62
     3
 10
-310.0
 20
0.0
 30
0.0
 11
-310.0
 21
-194.0
 31
0.0
  0
LINE
  5
50
  8
OUTLINE
  6
CONTINUOUS
 62
     3
 10
-280.0
 20
-224.0
 30
0.0
 11
280.0
 21
-224.0
 31
0.0
  0
ARC
  5
51
  8
OUTLINE
  6
CONTINUOUS
 62
     3
 10
280.0
 20
-194.0
 30
0.0
 40
30.0
 50
270.0
 51
0.0
  0
ARC
  5
52
  8
OUTLINE
  6
CONTINUOUS
 62
     3
 10
-280.0
 20
-194.0
 30
0.0
 40
30.0
 50
180.0
 51
270.0
  0
ARC
  5
53
  8
DETAIL
  6
CONTINUOUS
 62
     5
 10
-280.0
 20
-194.0
 30
0.0
 40
30.0
 50
180.0
 51
270.0
  0
ARC
  5
54
  8
DETAIL
  6
CONTINUOUS
 62
     5
 10
280.0
 20
-194.0
 30
0.0
 40
30.0
 50
270.0
 51
0.0
  0
LINE
  5
55
  8
SIZE
  6
BYBLOCK
 62
    30
 10
-330.0
 20
0.0
 30
0.0
 11
-502.56581599999993
 21
0.0
 31
0.0
  0
LINE
  5
56
  8
SIZE
  6
BYBLOCK
 62
    30
 10
-300.0
 20
-224.0
 30
0.0
 11
-502.56581599999993
 21
-224.0
 31
0.0
  0
LINE
  5
57
  8
SIZE
  6
BYBLOCK
 62
    30
 10
-472.56581599999998
 20
-2.0
 30
0.0
 11
-472.56581599999998
 21
-222.0
 31
0.0
  0
TEXT
  5
58
  8
SIZE
  6
BYBLOCK
 62
    30
 10
-504.56581599999998
 20
-187.42857100000001
 30
0.0
 40
64.0
  1
224
 50
90.0
 41
0.9
  0
LINE
  5
59
  8
SIZE
  6
BYBLOCK
 62
    30
 10
-282.0
 20
189.0
 30
0.0
 11
-502.56581599999993
 21
189.0
 31
0.0
  0
LINE
  5
5A
  8
SIZE
  6
BYBLOCK
 62
    30
 10
-320.0
 20
0.0
 30
0.0
 11
-502.56581599999993
 21
0.0
 31
0.0
  0
LINE
  5
5B
  8
SIZE
  6
BYBLOCK
 62
    30
 10
-472.56581599999998
 20
187.0
 30
0.0
 11
-472.56581599999998
 21
94.500000000000014
 31
0.0
  0
LINE
  5
5C
  8
SIZE
  6
BYBLOCK
 62
    30
 10
-472.56581599999998
 20
2.0
 30
0.0
 11
-472.56581599999998
 21
94.500000000000014
 31
0.0
  0
TEXT
  5
5D
  8
SIZE
  6
BYBLOCK
 62
    30
 10
-504.56581599999998
 20
27.300000000000001
 30
0.0
 40
64.0
  1
189
 50
90.0
 41
0.9
  0
LINE
  5
5E
  8
SIZE
  6
BYBLOCK
 62
    30
 10
-310.0
 20
20.0
 30
0.0
 11
-310.0
 21
632.21055699999977
 31
0.0
  0
LINE
  5
5F
  8
SIZE
  6
BYBLOCK
 62
    30
 10
310.0
 20
20.0
 30
0.0
 11
310.0
 21
632.21055699999977
 31
0.0
  0
LINE
  5
60
  8
SIZE
  6
BYBLOCK
 62
    30
 10
-308.0
 20
602.21055699999988
 30
0.0
 11
308.0
 21
602.21055699999988
 31
0.0
  0
TEXT
  5
61
  8
SIZE
  6
BYBLOCK
 62
    30
 10
-74.057143000000025
 20
634.21055699999999
 30
0.0
 40
64.0
  1
620
 41
0.9
  0
LINE
  5
62
  8
SIZE
  6
BYBLOCK
 62
    30
 10
-280.0
 20
40.0
 30
0.0
 11
-280.0
 21
492.03857699999998
 31
0.0
  0
LINE
  5
63
  8
SIZE
  6
BYBLOCK
 62
    30
 10
280.0
 20
40.0
 30
0.0
 11
280.0
 21
492.03857699999998
 31
0.0
  0
LINE
  5
64
  8
SIZE
  6
BYBLOCK
 62
    30
 10
-278.0
 20
462.03857699999992
 30
0.0
 11
278.0
 21
462.03857699999992
 31
0.0
  0
TEXT
  5
65
  8
SIZE
  6
BYBLOCK
 62
    30
 10
-74.057143000000025
 20
494.0385769999998
 30
0.0
 40
64.0
  1
560
 41
0.9
  0
LINE
  5
66
  8
SIZE
  6
BYBLOCK
 62
    30
 10
-262.0
 20
209.0
 30
0.0
 11
-262.0
 21
335.26728500000002
 31
0.0
  0
LINE
  5
67
  8
SIZE
  6
BYBLOCK
 62
    30
 10
262.0
 20
209.0
 30
0.0
 11
262.0
 21
335.26728500000002
 31
0.0
  0
LINE
  5
68
  8
SIZE
  6
BYBLOCK
 62
    30
 10
-260.0
 20
305.26728500000002
 30
0.0
 11
260.0
 21
305.26728500000002
 31
0.0
  0
TEXT
  5
69
  8
SIZE
  6
BYBLOCK
 62
    30
 10
-108.06857100000001
 20
337.26728500000002
 30
0.0
 40
64.0
  1
□524
 41
0.9
  0
CIRCLE
  5
6A
  8
SIZE
  6
CONTINUOUS
 62
    30
 10
262.0
 20
305.26728500000002
 30
0.0
 40
6.0
  0
CIRCLE
  5
6B
  8
SIZE
  6
CONTINUOUS
 62
    30
 10
-262.0
 20
305.26728500000002
 30
0.0
 40
6.0
  0
CIRCLE
  5
6C
  8
SIZE
  6
CONTINUOUS
 62
    30
 10
280.0
 20
462.03857699999992
 30
0.0
 40
6.0
  0
CIRCLE
  5
6D
  8
SIZE
  6
CONTINUOUS
 62
    30
 10
-280.0
 20
462.03857699999992
 30
0.0
 40
6.0
  0
CIRCLE
  5
6E
  8
SIZE
  6
CONTINUOUS
 62
    30
 10
310.0
 20
602.21055699999988
 30
0.0
 40
6.0
  0
CIRCLE
  5
6F
  8
SIZE
  6
CONTINUOUS
 62
    30
 10
-310.0
 20
602.21055699999988
 30
0.0
 40
6.0
  0
CIRCLE
  5
70
  8
SIZE
  6
CONTINUOUS
 62
    30
 10
-472.56581599999998
 20
0.0
 30
0.0
 40
6.0
  0
CIRCLE
  5
71
  8
SIZE
  6
CONTINUOUS
 62
    30
 10
-472.56581599999998
 20
189.0
 30
0.0
 40
6.0
  0
CIRCLE
  5
72
  8
SIZE
  6
CONTINUOUS
 62
    30
 10
-472.56581599999998
 20
-224.0
 30
0.0
 40
6.0
  0
CIRCLE
  5
73
  8
SIZE
  6
CONTINUOUS
 62
    30
 10
-472.56581599999998
 20
0.0
 30
0.0
 40
6.0
  0
POLYLINE
  5
74
  8
NOTE
  6
CONTINUOUS
 62
     4
 66
     1
 10
0.0
 20
0.0
 30
0.0
  0
VERTEX
  5
1B4
  8
NOTE
  6
CONTINUOUS
 62
     4
 10
316.34707200000008
 20
-16.700012000000001
 30
0.0
  0
VERTEX
  5
1B5
  8
NOTE
  6
CONTINUOUS
 62
     4
 10
280.0
 20
0.0
 30
0.0
  0
VERTEX
  5
1B6
  8
NOTE
  6
CONTINUOUS
 62
     4
 10
303.12748199999999
 20
-32.636169999999993
 30
0.0
  0
SEQEND
  5
1B7
  8
NOTE
  6
CONTINUOUS
 62
     4
  0
POLYLINE
  5
79
  8
NOTE
  6
CONTINUOUS
 62
     4
 66
     1
 10
0.0
 20
0.0
 30
0.0
  0
VERTEX
  5
1B8
  8
NOTE
  6
CONTINUOUS
 62
     4
 10
-291.80576999999988
 20
26.676133
 30
0.0
  0
VERTEX
  5
1B9
  8
NOTE
  6
CONTINUOUS
 62
     4
 10
-262.0
 20
0.0
 30
0.0
  0
VERTEX
  5
1BA
  8
NOTE
  6
CONTINUOUS
 62
     4
 10
-274.47448800000001
 20
38.005094
 30
0.0
  0
SEQEND
  5
1BB
  8
NOTE
  6
CONTINUOUS
 62
     4
  0
LINE
  5
7E
  8
NOTE
  6
CONTINUOUS
 62
     4
 10
280.0
 20
-20.0
 30
0.0
 11
280.0
 21
20.0
 31
0.0
  0
LINE
  5
7F
  8
NOTE
  6
CONTINUOUS
 62
     4
 10
260.0
 20
0.0
 30
0.0
 11
300.0
 21
0.0
 31
0.0
  0
LINE
  5
80
  8
NOTE
  6
CONTINUOUS
 62
     4
 10
-262.0
 20
-20.0
 30
0.0
 11
-262.0
 21
20.0
 31
0.0
  0
LINE
  5
81
  8
NOTE
  6
CONTINUOUS
 62
     4
 10
-282.0
 20
0.0
 30
0.0
 11
-242.0
 21
0.0
 31
0.0
  0
LINE
  5
82
  8
NOTE
  6
CONTINUOUS
 62
     4
 10
-280.0
 20
-20.0
 30
0.0
 11
-280.0
 21
20.0
 31
0.0
  0
LINE
  5
83
  8
NOTE
  6
CONTINUOUS
 62
     4
 10
-300.0
 20
0.0
 30
0.0
 11
-260.0
 21
0.0
 31
0.0
  0
TEXT
  5
86
  8
ETC
  6
CONTINUOUS
 62
    61
 10
560.87529082070819
 20
626.44725170655204
 30
0.0
 40
50.0
  1
EGG-50MFTA
 41
0.9
  0
TEXT
  5
87
  8
ETC
  6
CONTINUOUS
 62
    61
 10
560.87529082070819
 20
534.67054914458697
 30
0.0
 40
50.0
  1
EGG-50MFSTA
 41
0.9
  0
ARC
  5
88
  8
OUTLINE
  6
CONTINUOUS
 62
     3
 10
-280.0
 20
-194.0
 30
0.0
 40
30.0
 50
180.0
 51
270.0
  0
ARC
  5
89
  8
OUTLINE
  6
CONTINUOUS
 62
     3
 10
280.0
 20
-194.0
 30
0.0
 40
30.0
 50
270.0
 51
0.0
  0
TEXT
  5
16E
  8
ETC
  6
CONTINUOUS
 62
    61
 10
560.87529082070819
 20
453.44896577455989
 30
0.0
 40
50.0
  1
EGG-50MFTB
 41
0.9
  0
TEXT
  5
16F
  8
ETC
  6
CONTINUOUS
 62
    61
 10
560.87529082070819
 20
361.672263212595
 30
0.0
 40
50.0
  1
EGG-50MFSTB
 41
0.9
  0
ENDSEC
  0
EOF
