  0
SECTION
  2
HEADER
  9
$ACADVER
  1
AC1009
  9
$INSBASE
 10
0.0
 20
0.0
 30
0.0
  9
$EXTMIN
 10
-541.55729535449973
 20
-447.00621388271242
 30
-0.0015258207003583
  9
$EXTMAX
 10
1152.4406154783851
 20
946.88416370992127
 30
0.0000000349246037
  9
$LIMMIN
 10
-2970.0
 20
-2100.0
  9
$LIMMAX
 10
2970.0
 20
2100.0
  9
$ORTHOMODE
 70
     1
  9
$REGENMODE
 70
     0
  9
$FILLMODE
 70
     1
  9
$QTEXTMODE
 70
     0
  9
$MIRRTEXT
 70
     0
  9
$DRAGMODE
 70
     2
  9
$LTSCALE
 40
20.0
  9
$OSMODE
 70
    37
  9
$ATTMODE
 70
     1
  9
$TEXTSIZE
 40
64.0
  9
$TRACEWID
 40
0.05
  9
$TEXTSTYLE
  7
STANDARD
  9
$CLAYER
  8
0
  9
$CELTYPE
  6
CONTINUOUS
  9
$CECOLOR
 62
     2
  9
$DIMSCALE
 40
1.0
  9
$DIMASZ
 40
2.0
  9
$DIMEXO
 40
20.0
  9
$DIMDLI
 40
200.0
  9
$DIMRND
 40
0.0
  9
$DIMDLE
 40
0.0
  9
$DIMEXE
 40
30.0
  9
$DIMTP
 40
0.0
  9
$DIMTM
 40
0.0
  9
$DIMTXT
 40
64.0
  9
$DIMCEN
 40
0.09
  9
$DIMTSZ
 40
0.0
  9
$DIMTOL
 70
     0
  9
$DIMLIM
 70
     0
  9
$DIMTIH
 70
     0
  9
$DIMTOH
 70
     0
  9
$DIMSE1
 70
     0
  9
$DIMSE2
 70
     0
  9
$DIMTAD
 70
     1
  9
$DIMZIN
 70
     8
  9
$DIMBLK
  1

  9
$DIMASO
 70
     1
  9
$DIMSHO
 70
     0
  9
$DIMPOST
  1

  9
$DIMAPOST
  1

  9
$DIMALT
 70
     0
  9
$DIMALTD
 70
     2
  9
$DIMALTF
 40
25.399999999999999
  9
$DIMLFAC
 40
1.0
  9
$DIMTOFL
 70
     1
  9
$DIMTVP
 40
0.0
  9
$DIMTIX
 70
     1
  9
$DIMSOXD
 70
     0
  9
$DIMSAH
 70
     0
  9
$DIMBLK1
  1

  9
$DIMBLK2
  1

  9
$DIMSTYLE
  2
STANDARD
  9
$DIMCLRD
 70
     0
  9
$DIMCLRE
 70
     0
  9
$DIMCLRT
 70
     0
  9
$DIMTFAC
 40
1.0
  9
$DIMGAP
 40
0.09
  9
$LUNITS
 70
     2
  9
$LUPREC
 70
     4
  9
$SKETCHINC
 40
0.1
  9
$FILLETRAD
 40
30.0
  9
$AUNITS
 70
     1
  9
$AUPREC
 70
     3
  9
$MENU
  1
ACAD
  9
$ELEVATION
 40
0.0
  9
$PELEVATION
 40
0.0
  9
$THICKNESS
 40
0.0
  9
$LIMCHECK
 70
     0
  9
$BLIPMODE
 70
     0
  9
$CHAMFERA
 40
0.0
  9
$CHAMFERB
 40
0.0
  9
$SKPOLY
 70
     0
  9
$TDCREATE
 40
2450967.7019791668
  9
$TDUPDATE
 40
2454960.8143084841
  9
$TDINDWG
 40
0.0270151042
  9
$TDUSRTIMER
 40
0.0270147338
  9
$USRTIMER
 70
     1
  9
$ANGBASE
 50
0.0
  9
$ANGDIR
 70
     0
  9
$PDMODE
 70
     3
  9
$PDSIZE
 40
-2.0
  9
$PLINEWID
 40
0.0
  9
$COORDS
 70
     0
  9
$SPLFRAME
 70
     0
  9
$SPLINETYPE
 70
     6
  9
$SPLINESEGS
 70
     8
  9
$ATTDIA
 70
     0
  9
$ATTREQ
 70
     1
  9
$HANDLING
 70
     1
  9
$HANDSEED
  5
5A2
  9
$SURFTAB1
 70
     6
  9
$SURFTAB2
 70
     6
  9
$SURFTYPE
 70
     6
  9
$SURFU
 70
     6
  9
$SURFV
 70
     6
  9
$UCSNAME
  2

  9
$UCSORG
 10
0.0
 20
0.0
 30
0.0
  9
$UCSXDIR
 10
1.0
 20
0.0
 30
0.0
  9
$UCSYDIR
 10
0.0
 20
1.0
 30
0.0
  9
$PUCSNAME
  2

  9
$PUCSORG
 10
0.0
 20
0.0
 30
0.0
  9
$PUCSXDIR
 10
1.0
 20
0.0
 30
0.0
  9
$PUCSYDIR
 10
0.0
 20
1.0
 30
0.0
  9
$USERI1
 70
     0
  9
$USERI2
 70
     0
  9
$USERI3
 70
     0
  9
$USERI4
 70
     0
  9
$USERI5
 70
     0
  9
$USERR1
 40
20.0
  9
$USERR2
 40
0.0
  9
$USERR3
 40
0.0
  9
$USERR4
 40
0.0
  9
$USERR5
 40
0.0
  9
$WORLDVIEW
 70
     1
  9
$SHADEDGE
 70
     3
  9
$SHADEDIF
 70
    70
  9
$TILEMODE
 70
     1
  9
$MAXACTVP
 70
    64
  9
$PLIMCHECK
 70
     0
  9
$PEXTMIN
 10
1.0000000000000000E+020
 20
1.0000000000000000E+020
 30
1.0000000000000000E+020
  9
$PEXTMAX
 10
-1.0000000000000000E+020
 20
-1.0000000000000000E+020
 30
-1.0000000000000000E+020
  9
$PLIMMIN
 10
0.0
 20
0.0
  9
$PLIMMAX
 10
12.0
 20
9.0
  9
$UNITMODE
 70
     0
  9
$VISRETAIN
 70
     1
  9
$PLINEGEN
 70
     0
  9
$PSLTSCALE
 70
     1
  0
ENDSEC
  0
SECTION
  2
TABLES
  0
TABLE
  2
VPORT
 70
     1
  0
VPORT
  2
*ACTIVE
 70
     0
 10
0.0
 20
0.0
 11
1.0
 21
1.0
 12
294.43058278363702
 22
255.19711622399899
 13
0.0
 23
0.0
 14
50.0
 24
50.0
 15
100.0
 25
100.0
 16
0.0
 26
0.0
 36
1.0
 17
0.0
 27
0.0
 37
0.0
 40
1578.9747975392929
 41
1.3098995695839311
 42
50.0
 43
0.0
 44
0.0
 50
0.0
 51
0.0
 71
     0
 72
  1000
 73
     1
 74
     0
 75
     0
 76
     0
 77
     0
 78
     1
  0
ENDTAB
  0
TABLE
  2
LTYPE
 70
     8
  0
LTYPE
  2
CONTINUOUS
 70
     0
  3
実線
 72
    65
 73
     0
 40
0.0
  0
LTYPE
  2
DASHDOT
 70
     0
  3
____ _ ____ _ ____ _ ____ _ ____ _ ____ _ ____
 72
    65
 73
     4
 40
5.5
 49
4.0
 49
-0.6
 49
0.3
 49
-0.6
  0
LTYPE
  2
DASHED
 70
     0
  3
_ _ _ _ _ _ _ _ _ _ _ _ _ _ _ _ _ _ _ _ _ _ _
 72
    65
 73
     2
 40
2.0
 49
1.1999999999999991
 49
-0.8
  0
LTYPE
  2
DOT
 70
     0
  3
...............................................
 72
    65
 73
     2
 40
0.8
 49
0.5
 49
-0.3
  0
LTYPE
  2
DASHDOT1
 70
     0
  3
____ _ ____ _ ____ _ ____ _ ____ _ ____ _ ____
 72
    65
 73
     4
 40
2.0
 49
1.5
 49
-0.2
 49
0.1
 49
-0.2
  0
LTYPE
  2
DIVIDE
 70
     0
  3
_____ _ _ _____ _ _ _____ _ _ _____ _ _ ____
 72
    65
 73
     6
 40
6.4000000000000004
 49
4.0
 49
-0.6
 49
0.3
 49
-0.6
 49
0.3
 49
-0.6
  0
LTYPE
  2
DIVIDE1
 70
     0
  3
_____ _ _ _____ _ _ _____ _ _ _____ _ _ ____
 72
    65
 73
     6
 40
3.2000000000000002
 49
2.0
 49
-0.3
 49
0.15
 49
-0.3
 49
0.15
 49
-0.3
  0
ENDTAB
  0
TABLE
  2
LAYER
 70
    12
  0
LAYER
  2
0
 70
     0
 62
     7
  6
CONTINUOUS
  0
LAYER
  2
OUTLINE
 70
     0
 62
     3
  6
CONTINUOUS
  0
LAYER
  2
DETAIL
 70
     0
 62
     5
  6
CONTINUOUS
  0
LAYER
  2
BASIS
 70
     0
 62
     6
  6
DASHDOT
  0
LAYER
  2
SIZE
 70
     0
 62
    30
  6
CONTINUOUS
  0
LAYER
  2
NOTE
 70
     0
 62
     4
  6
CONTINUOUS
  0
LAYER
  2
DEFPOINTS
 70
     0
 62
     7
  6
CONTINUOUS
  0
LAYER
  2
ETC
 70
     0
 62
    61
  6
CONTINUOUS
  0
LAYER
  2
ARRANGE
 70
     0
 62
     1
  6
CONTINUOUS
  0
LAYER
  2
FIX
 70
     0
 62
    11
  6
CONTINUOUS
  0
LAYER
  2
SERVICESPACE
 70
     0
 62
     2
  6
DASHDOT
  0
LAYER
  2
SYMBOLLINE
 70
     0
 62
    15
  6
CONTINUOUS
  0
ENDTAB
  0
TABLE
  2
STYLE
 70
     2
  0
STYLE
  2
STANDARD
 70
     0
 40
0.0
 41
0.9
 50
0.0
 71
     0
 42
64.0
  3
SIMPLEX
  4
BIGFONT
  0
STYLE
  2
ANNOTATIVE
 70
     0
 40
0.0
 41
1.0
 50
0.0
 71
     0
 42
0.2
  3
txt
  4

  0
ENDTAB
  0
TABLE
  2
VIEW
 70
     1
  0
VIEW
  2
ALL
 70
     0
 40
4282.6198079999976
 10
0.0
 20
41.309903999999989
 41
5940.0
 11
0.0
 21
0.0
 31
1.0
 12
0.0
 22
0.0
 32
0.0
 42
50.0
 43
0.0
 44
0.0
 50
0.0
 71
     0
  0
ENDTAB
  0
TABLE
  2
UCS
 70
     0
  0
ENDTAB
  0
TABLE
  2
APPID
 70
     4
  0
APPID
  2
ACAD
 70
     0
  0
APPID
  2
ACADANNOTATIVE
 70
     0
  0
APPID
  2
ACAD_MLEADERVER
 70
     0
  0
APPID
  2
ACAD_EXEMPT_FROM_CAD_STANDARDS
 70
     0
  0
ENDTAB
  0
TABLE
  2
DIMSTYLE
 70
     2
  0
DIMSTYLE
  2
STANDARD
 70
     0
  3

  4

  5

  6

  7

 40
1.0
 41
0.18
 42
0.0625
 43
0.38
 44
0.18
 45
0.0
 46
0.0
 47
0.0
 48
0.0
140
0.18
141
0.09
142
0.0
143
25.399999999999999
144
1.0
145
0.0
146
1.0
147
0.09
 71
     0
 72
     0
 73
     1
 74
     1
 75
     0
 76
     0
 77
     0
 78
     0
170
     0
171
     2
172
     0
173
     0
174
     0
175
     0
176
     0
177
     0
178
     0
  0
DIMSTYLE
  2
ANNOTATIVE
 70
     0
  3

  4

  5

  6

  7

 40
1.0
 41
0.18
 42
0.0625
 43
0.38
 44
0.18
 45
0.0
 46
0.0
 47
0.0
 48
0.0
140
0.18
141
0.09
142
0.0
143
25.399999999999999
144
1.0
145
0.0
146
1.0
147
0.09
 71
     0
 72
     0
 73
     1
 74
     1
 75
     0
 76
     0
 77
     0
 78
     0
170
     0
171
     2
172
     0
173
     0
174
     0
175
     0
176
     0
177
     0
178
     0
  0
ENDTAB
  0
ENDSEC
  0
SECTION
  2
BLOCKS
  0
BLOCK
  8
0
  2
$MODEL_SPACE
 70
     0
 10
0.0
 20
0.0
 30
0.0
  3
$MODEL_SPACE
  1

  0
ENDBLK
  5
534
  8
0
  0
BLOCK
 67
     1
  8
0
  2
$PAPER_SPACE
 70
     0
 10
0.0
 20
0.0
 30
0.0
  3
$PAPER_SPACE
  1

  0
ENDBLK
  5
530
 67
     1
  8
0
  0
ENDSEC
  0
SECTION
  2
ENTITIES
  0
LINE
  5
38
  8
NOTE
  6
CONTINUOUS
 62
     4
 10
-262.0
 20
-262.0
 30
0.0
 11
-432.35023799999988
 21
-1.394628999999999
 31
0.0
  0
LINE
  5
39
  8
NOTE
  6
CONTINUOUS
 62
     4
 10
-432.35023799999988
 20
-1.394628999999999
 30
0.0
 11
-541.37686199999985
 21
-1.394628999999999
 31
0.0
  0
LINE
  5
3A
  8
BASIS
  6
DASHDOT
 62
     6
 10
0.0
 20
364.337108
 30
0.0
 11
0.0
 21
-379.74981500000001
 31
0.0
  0
LINE
  5
3B
  8
DETAIL
  6
CONTINUOUS
 62
     5
 10
310.0
 20
280.0
 30
0.0
 11
310.0
 21
-280.0
 31
0.0
  0
LINE
  5
3C
  8
DETAIL
  6
CONTINUOUS
 62
     5
 10
-310.0
 20
280.0
 30
0.0
 11
-310.0
 21
-280.0
 31
0.0
  0
LINE
  5
3D
  8
NOTE
  6
CONTINUOUS
 62
     4
 10
280.0
 20
-280.0
 30
0.0
 11
418.89837899999992
 21
-446.95066900000012
 31
0.0
  0
LINE
  5
3E
  8
NOTE
  6
CONTINUOUS
 62
     4
 10
418.89837899999992
 20
-446.95066900000012
 30
0.0
 11
711.86629800000003
 21
-446.95066900000012
 31
0.0
  0
LINE
  5
3F
  8
NOTE
  6
CONTINUOUS
 62
     4
 10
-300.91379899999998
 20
-262.0
 30
0.0
 11
-246.431039
 21
-262.0
 31
0.0
  0
LINE
  5
41
  8
BASIS
  6
DASHDOT
 62
     6
 10
-396.142405
 20
0.0
 30
0.0
 11
369.098546
 21
0.0
 31
0.0
  0
TEXT
  5
42
  8
NOTE
  6
CONTINUOUS
 62
     4
 10
-528.40925500000003
 20
13.37209599999999
 30
0.0
 40
64.0
  1
EL
 41
0.9
  0
TEXT
  5
43
  8
NOTE
  6
CONTINUOUS
 62
     4
 10
421.43105800000001
 20
-420.68468299999989
 30
0.0
 40
64.0
  1
4-φ14
 41
0.9
  0
LINE
  5
44
  8
DETAIL
  6
CONTINUOUS
 62
     5
 10
-280.0
 20
309.0
 30
0.0
 11
280.0
 21
309.0
 31
0.0
  0
LINE
  5
45
  8
DETAIL
  6
CONTINUOUS
 62
     5
 10
-280.0
 20
-309.0
 30
0.0
 11
280.0
 21
-309.0
 31
0.0
  0
ARC
  5
46
  8
DETAIL
  6
CONTINUOUS
 62
     5
 10
-280.0
 20
279.0
 30
0.0
 40
30.0
 50
90.0
 51
180.0
  0
ARC
  5
47
  8
DETAIL
  6
CONTINUOUS
 62
     5
 10
-280.0
 20
-279.0
 30
0.0
 40
30.0
 50
180.0
 51
270.0
  0
ARC
  5
48
  8
DETAIL
  6
CONTINUOUS
 62
     5
 10
280.0
 20
-279.0
 30
0.0
 40
30.0
 50
270.0
 51
0.0
  0
ARC
  5
49
  8
DETAIL
  6
CONTINUOUS
 62
     5
 10
280.0
 20
279.0
 30
0.0
 40
30.0
 50
0.0
 51
90.0
  0
LINE
  5
4A
  8
DETAIL
  6
CONTINUOUS
 62
     5
 10
-310.00000399999988
 20
-263.09615400000001
 30
0.0
 11
310.0
 21
-263.09615400000001
 31
0.0
  0
LINE
  5
4B
  8
DETAIL
  6
CONTINUOUS
 62
     5
 10
-310.00000399999988
 20
262.71154199999989
 30
0.0
 11
310.0
 21
262.71154199999989
 31
0.0
  0
LINE
  5
4C
  8
DETAIL
  6
CONTINUOUS
 62
     5
 10
-310.00000399999988
 20
87.442309999999964
 30
0.0
 11
310.0
 21
87.442309999999964
 31
0.0
  0
LINE
  5
4D
  8
DETAIL
  6
CONTINUOUS
 62
     5
 10
-310.00000399999988
 20
82.673079000000001
 30
0.0
 11
310.0
 21
82.673079000000001
 31
0.0
  0
LINE
  5
4E
  8
DETAIL
  6
CONTINUOUS
 62
     5
 10
-310.00000399999988
 20
-83.057691000000005
 30
0.0
 11
310.0
 21
-83.057691000000005
 31
0.0
  0
LINE
  5
4F
  8
DETAIL
  6
CONTINUOUS
 62
     5
 10
-310.00000399999988
 20
-87.826921999999968
 30
0.0
 11
310.0
 21
-87.826921999999968
 31
0.0
  0
LINE
  5
50
  8
DETAIL
  6
CONTINUOUS
 62
     5
 10
-310.00000399999988
 20
257.9423109999999
 30
0.0
 11
310.0
 21
257.9423109999999
 31
0.0
  0
LINE
  5
51
  8
DETAIL
  6
CONTINUOUS
 62
     5
 10
-310.00000399999988
 20
253.17308099999991
 30
0.0
 11
310.0
 21
253.17308099999991
 31
0.0
  0
LINE
  5
52
  8
DETAIL
  6
CONTINUOUS
 62
     5
 10
-310.00000399999988
 20
-258.32692300000002
 30
0.0
 11
310.0
 21
-258.32692300000002
 31
0.0
  0
LINE
  5
53
  8
DETAIL
  6
CONTINUOUS
 62
     5
 10
-310.00000399999988
 20
-253.557692
 30
0.0
 11
310.0
 21
-253.557692
 31
0.0
  0
LINE
  5
54
  8
DETAIL
  6
CONTINUOUS
 62
     5
 10
-262.30769600000002
 20
262.71154199999989
 30
0.0
 11
-262.30769600000002
 21
-263.09615400000001
 31
0.0
  0
LINE
  5
55
  8
DETAIL
  6
CONTINUOUS
 62
     5
 10
262.30769199999992
 20
-263.09615400000001
 30
0.0
 11
262.30769199999992
 21
262.71154199999989
 31
0.0
  0
LINE
  5
56
  8
DETAIL
  6
CONTINUOUS
 62
     5
 10
-238.48646099999999
 20
238.2692339999999
 30
0.0
 11
-238.48646099999999
 21
208.46154199999989
 31
0.0
  0
LINE
  5
57
  8
DETAIL
  6
CONTINUOUS
 62
     5
 10
-232.524923
 20
238.2692339999999
 30
0.0
 11
-232.524923
 21
208.46154199999989
 31
0.0
  0
LINE
  5
58
  8
DETAIL
  6
CONTINUOUS
 62
     5
 10
-214.64030699999989
 20
238.2692339999999
 30
0.0
 11
-214.64030699999989
 21
208.46154199999989
 31
0.0
  0
ARC
  5
59
  8
DETAIL
  6
CONTINUOUS
 62
     5
 10
-247.42876899999999
 20
238.2692339999999
 30
0.0
 40
8.9423080000000006
 50
0.0
 51
180.0
  0
ARC
  5
5A
  8
DETAIL
  6
CONTINUOUS
 62
     5
 10
-247.42876899999999
 20
208.46154199999989
 30
0.0
 40
8.9423080000000006
 50
180.0
 51
0.0
  0
ARC
  5
5B
  8
DETAIL
  6
CONTINUOUS
 62
     5
 10
-223.582615
 20
208.46154199999989
 30
0.0
 40
8.9423080000000006
 50
180.0
 51
0.0
  0
ARC
  5
5C
  8
DETAIL
  6
CONTINUOUS
 62
     5
 10
-223.582615
 20
238.2692339999999
 30
0.0
 40
8.9423080000000006
 50
0.0
 51
180.0
  0
LINE
  5
5D
  8
DETAIL
  6
CONTINUOUS
 62
     5
 10
-214.64030699999989
 20
238.2692339999999
 30
0.0
 11
-214.64030699999989
 21
208.46154199999989
 31
0.0
  0
ARC
  5
5E
  8
DETAIL
  6
CONTINUOUS
 62
     5
 10
-247.42876899999999
 20
156.00000299999991
 30
0.0
 40
8.9423080000000006
 50
180.0
 51
0.0
  0
ARC
  5
5F
  8
DETAIL
  6
CONTINUOUS
 62
     5
 10
-247.42876899999999
 20
185.80769599999991
 30
0.0
 40
8.9423080000000006
 50
0.0
 51
180.0
  0
LINE
  5
60
  8
DETAIL
  6
CONTINUOUS
 62
     5
 10
-238.48646099999999
 20
185.80769599999991
 30
0.0
 11
-238.48646099999999
 21
156.00000299999991
 31
0.0
  0
LINE
  5
61
  8
DETAIL
  6
CONTINUOUS
 62
     5
 10
-238.48646099999999
 20
133.34615700000001
 30
0.0
 11
-238.48646099999999
 21
103.53846399999991
 31
0.0
  0
ARC
  5
62
  8
DETAIL
  6
CONTINUOUS
 62
     5
 10
-247.42876899999999
 20
133.34615700000001
 30
0.0
 40
8.9423080000000006
 50
0.0
 51
180.0
  0
ARC
  5
63
  8
DETAIL
  6
CONTINUOUS
 62
     5
 10
-247.42876899999999
 20
103.53846399999991
 30
0.0
 40
8.9423080000000006
 50
180.0
 51
0.0
  0
LINE
  5
64
  8
DETAIL
  6
CONTINUOUS
 62
     5
 10
-214.64030699999989
 20
185.80769599999991
 30
0.0
 11
-214.64030699999989
 21
156.00000299999991
 31
0.0
  0
ARC
  5
65
  8
DETAIL
  6
CONTINUOUS
 62
     5
 10
-223.582615
 20
185.80769599999991
 30
0.0
 40
8.9423080000000006
 50
0.0
 51
180.0
  0
ARC
  5
66
  8
DETAIL
  6
CONTINUOUS
 62
     5
 10
-223.582615
 20
156.00000299999991
 30
0.0
 40
8.9423080000000006
 50
180.0
 51
0.0
  0
LINE
  5
67
  8
DETAIL
  6
CONTINUOUS
 62
     5
 10
-214.64030699999989
 20
185.80769599999991
 30
0.0
 11
-214.64030699999989
 21
156.00000299999991
 31
0.0
  0
LINE
  5
68
  8
DETAIL
  6
CONTINUOUS
 62
     5
 10
-232.524923
 20
185.80769599999991
 30
0.0
 11
-232.524923
 21
156.00000299999991
 31
0.0
  0
LINE
  5
69
  8
DETAIL
  6
CONTINUOUS
 62
     5
 10
-214.64030699999989
 20
133.34615700000001
 30
0.0
 11
-214.64030699999989
 21
103.53846399999991
 31
0.0
  0
ARC
  5
6A
  8
DETAIL
  6
CONTINUOUS
 62
     5
 10
-223.582615
 20
133.34615700000001
 30
0.0
 40
8.9423080000000006
 50
0.0
 51
180.0
  0
ARC
  5
6B
  8
DETAIL
  6
CONTINUOUS
 62
     5
 10
-223.582615
 20
103.53846399999991
 30
0.0
 40
8.9423080000000006
 50
180.0
 51
0.0
  0
LINE
  5
6C
  8
DETAIL
  6
CONTINUOUS
 62
     5
 10
-214.64030699999989
 20
133.34615700000001
 30
0.0
 11
-214.64030699999989
 21
103.53846399999991
 31
0.0
  0
LINE
  5
6D
  8
DETAIL
  6
CONTINUOUS
 62
     5
 10
-232.524923
 20
133.34615700000001
 30
0.0
 11
-232.524923
 21
103.53846399999991
 31
0.0
  0
LINE
  5
6E
  8
DETAIL
  6
CONTINUOUS
 62
     5
 10
-184.832615
 20
133.34615700000001
 30
0.0
 11
-184.832615
 21
103.53846399999991
 31
0.0
  0
LINE
  5
6F
  8
DETAIL
  6
CONTINUOUS
 62
     5
 10
-166.94799900000001
 20
133.34615700000001
 30
0.0
 11
-166.94799900000001
 21
103.53846399999991
 31
0.0
  0
ARC
  5
70
  8
DETAIL
  6
CONTINUOUS
 62
     5
 10
-175.89030700000001
 20
103.53846399999991
 30
0.0
 40
8.9423080000000006
 50
180.0
 51
0.0
  0
ARC
  5
71
  8
DETAIL
  6
CONTINUOUS
 62
     5
 10
-175.89030700000001
 20
133.34615700000001
 30
0.0
 40
8.9423080000000006
 50
0.0
 51
180.0
  0
LINE
  5
72
  8
DETAIL
  6
CONTINUOUS
 62
     5
 10
-166.94799900000001
 20
133.34615700000001
 30
0.0
 11
-166.94799900000001
 21
103.53846399999991
 31
0.0
  0
LINE
  5
73
  8
DETAIL
  6
CONTINUOUS
 62
     5
 10
-184.832615
 20
185.80769599999991
 30
0.0
 11
-184.832615
 21
156.00000299999991
 31
0.0
  0
LINE
  5
74
  8
DETAIL
  6
CONTINUOUS
 62
     5
 10
-166.94799900000001
 20
185.80769599999991
 30
0.0
 11
-166.94799900000001
 21
156.00000299999991
 31
0.0
  0
ARC
  5
75
  8
DETAIL
  6
CONTINUOUS
 62
     5
 10
-175.89030700000001
 20
156.00000299999991
 30
0.0
 40
8.9423080000000006
 50
180.0
 51
0.0
  0
ARC
  5
76
  8
DETAIL
  6
CONTINUOUS
 62
     5
 10
-175.89030700000001
 20
185.80769599999991
 30
0.0
 40
8.9423080000000006
 50
0.0
 51
180.0
  0
LINE
  5
77
  8
DETAIL
  6
CONTINUOUS
 62
     5
 10
-166.94799900000001
 20
185.80769599999991
 30
0.0
 11
-166.94799900000001
 21
156.00000299999991
 31
0.0
  0
LINE
  5
78
  8
DETAIL
  6
CONTINUOUS
 62
     5
 10
-166.94799900000001
 20
238.2692339999999
 30
0.0
 11
-166.94799900000001
 21
208.46154199999989
 31
0.0
  0
ARC
  5
79
  8
DETAIL
  6
CONTINUOUS
 62
     5
 10
-175.89030700000001
 20
238.2692339999999
 30
0.0
 40
8.9423080000000006
 50
0.0
 51
180.0
  0
ARC
  5
7A
  8
DETAIL
  6
CONTINUOUS
 62
     5
 10
-175.89030700000001
 20
208.46154199999989
 30
0.0
 40
8.9423080000000006
 50
180.0
 51
0.0
  0
LINE
  5
7B
  8
DETAIL
  6
CONTINUOUS
 62
     5
 10
-166.94799900000001
 20
238.2692339999999
 30
0.0
 11
-166.94799900000001
 21
208.46154199999989
 31
0.0
  0
LINE
  5
7C
  8
DETAIL
  6
CONTINUOUS
 62
     5
 10
-184.832615
 20
238.2692339999999
 30
0.0
 11
-184.832615
 21
208.46154199999989
 31
0.0
  0
LINE
  5
7D
  8
DETAIL
  6
CONTINUOUS
 62
     5
 10
-208.6787689999999
 20
238.2692339999999
 30
0.0
 11
-208.6787689999999
 21
208.46154199999989
 31
0.0
  0
LINE
  5
7E
  8
DETAIL
  6
CONTINUOUS
 62
     5
 10
-190.79415299999999
 20
238.2692339999999
 30
0.0
 11
-190.79415299999999
 21
208.46154199999989
 31
0.0
  0
ARC
  5
7F
  8
DETAIL
  6
CONTINUOUS
 62
     5
 10
-199.73646099999999
 20
208.46154199999989
 30
0.0
 40
8.9423080000000006
 50
180.0
 51
0.0
  0
ARC
  5
80
  8
DETAIL
  6
CONTINUOUS
 62
     5
 10
-199.73646099999999
 20
238.2692339999999
 30
0.0
 40
8.9423080000000006
 50
0.0
 51
180.0
  0
LINE
  5
81
  8
DETAIL
  6
CONTINUOUS
 62
     5
 10
-190.79415299999999
 20
238.2692339999999
 30
0.0
 11
-190.79415299999999
 21
208.46154199999989
 31
0.0
  0
LINE
  5
82
  8
DETAIL
  6
CONTINUOUS
 62
     5
 10
-190.79415299999999
 20
185.80769599999991
 30
0.0
 11
-190.79415299999999
 21
156.00000299999991
 31
0.0
  0
ARC
  5
83
  8
DETAIL
  6
CONTINUOUS
 62
     5
 10
-199.73646099999999
 20
185.80769599999991
 30
0.0
 40
8.9423080000000006
 50
0.0
 51
180.0
  0
ARC
  5
84
  8
DETAIL
  6
CONTINUOUS
 62
     5
 10
-199.73646099999999
 20
156.00000299999991
 30
0.0
 40
8.9423080000000006
 50
180.0
 51
0.0
  0
LINE
  5
85
  8
DETAIL
  6
CONTINUOUS
 62
     5
 10
-190.79415299999999
 20
185.80769599999991
 30
0.0
 11
-190.79415299999999
 21
156.00000299999991
 31
0.0
  0
LINE
  5
86
  8
DETAIL
  6
CONTINUOUS
 62
     5
 10
-208.6787689999999
 20
185.80769599999991
 30
0.0
 11
-208.6787689999999
 21
156.00000299999991
 31
0.0
  0
LINE
  5
87
  8
DETAIL
  6
CONTINUOUS
 62
     5
 10
-190.79415299999999
 20
133.34615700000001
 30
0.0
 11
-190.79415299999999
 21
103.53846399999991
 31
0.0
  0
ARC
  5
88
  8
DETAIL
  6
CONTINUOUS
 62
     5
 10
-199.73646099999999
 20
133.34615700000001
 30
0.0
 40
8.9423080000000006
 50
0.0
 51
180.0
  0
ARC
  5
89
  8
DETAIL
  6
CONTINUOUS
 62
     5
 10
-199.73646099999999
 20
103.53846399999991
 30
0.0
 40
8.9423080000000006
 50
180.0
 51
0.0
  0
LINE
  5
8A
  8
DETAIL
  6
CONTINUOUS
 62
     5
 10
-190.79415299999999
 20
133.34615700000001
 30
0.0
 11
-190.79415299999999
 21
103.53846399999991
 31
0.0
  0
LINE
  5
8B
  8
DETAIL
  6
CONTINUOUS
 62
     5
 10
-208.6787689999999
 20
133.34615700000001
 30
0.0
 11
-208.6787689999999
 21
103.53846399999991
 31
0.0
  0
LINE
  5
8C
  8
DETAIL
  6
CONTINUOUS
 62
     5
 10
-137.14030700000001
 20
133.34615700000001
 30
0.0
 11
-137.14030700000001
 21
103.53846399999991
 31
0.0
  0
LINE
  5
8D
  8
DETAIL
  6
CONTINUOUS
 62
     5
 10
-119.2556909999999
 20
133.34615700000001
 30
0.0
 11
-119.2556909999999
 21
103.53846399999991
 31
0.0
  0
ARC
  5
8E
  8
DETAIL
  6
CONTINUOUS
 62
     5
 10
-128.19799900000001
 20
103.53846399999991
 30
0.0
 40
8.9423080000000006
 50
180.0
 51
0.0
  0
ARC
  5
8F
  8
DETAIL
  6
CONTINUOUS
 62
     5
 10
-128.19799900000001
 20
133.34615700000001
 30
0.0
 40
8.9423080000000006
 50
0.0
 51
180.0
  0
LINE
  5
90
  8
DETAIL
  6
CONTINUOUS
 62
     5
 10
-119.2556909999999
 20
133.34615700000001
 30
0.0
 11
-119.2556909999999
 21
103.53846399999991
 31
0.0
  0
LINE
  5
91
  8
DETAIL
  6
CONTINUOUS
 62
     5
 10
-137.14030700000001
 20
185.80769599999991
 30
0.0
 11
-137.14030700000001
 21
156.00000299999991
 31
0.0
  0
LINE
  5
92
  8
DETAIL
  6
CONTINUOUS
 62
     5
 10
-119.2556909999999
 20
185.80769599999991
 30
0.0
 11
-119.2556909999999
 21
156.00000299999991
 31
0.0
  0
ARC
  5
93
  8
DETAIL
  6
CONTINUOUS
 62
     5
 10
-128.19799900000001
 20
156.00000299999991
 30
0.0
 40
8.9423080000000006
 50
180.0
 51
0.0
  0
ARC
  5
94
  8
DETAIL
  6
CONTINUOUS
 62
     5
 10
-128.19799900000001
 20
185.80769599999991
 30
0.0
 40
8.9423080000000006
 50
0.0
 51
180.0
  0
LINE
  5
95
  8
DETAIL
  6
CONTINUOUS
 62
     5
 10
-119.2556909999999
 20
185.80769599999991
 30
0.0
 11
-119.2556909999999
 21
156.00000299999991
 31
0.0
  0
LINE
  5
96
  8
DETAIL
  6
CONTINUOUS
 62
     5
 10
-119.2556909999999
 20
238.2692339999999
 30
0.0
 11
-119.2556909999999
 21
208.46154199999989
 31
0.0
  0
ARC
  5
97
  8
DETAIL
  6
CONTINUOUS
 62
     5
 10
-128.19799900000001
 20
238.2692339999999
 30
0.0
 40
8.9423080000000006
 50
0.0
 51
180.0
  0
ARC
  5
98
  8
DETAIL
  6
CONTINUOUS
 62
     5
 10
-128.19799900000001
 20
208.46154199999989
 30
0.0
 40
8.9423080000000006
 50
180.0
 51
0.0
  0
LINE
  5
99
  8
DETAIL
  6
CONTINUOUS
 62
     5
 10
-119.2556909999999
 20
238.2692339999999
 30
0.0
 11
-119.2556909999999
 21
208.46154199999989
 31
0.0
  0
LINE
  5
9A
  8
DETAIL
  6
CONTINUOUS
 62
     5
 10
-137.14030700000001
 20
238.2692339999999
 30
0.0
 11
-137.14030700000001
 21
208.46154199999989
 31
0.0
  0
LINE
  5
9B
  8
DETAIL
  6
CONTINUOUS
 62
     5
 10
-113.29415299999999
 20
238.2692339999999
 30
0.0
 11
-113.29415299999999
 21
208.46154199999989
 31
0.0
  0
LINE
  5
9C
  8
DETAIL
  6
CONTINUOUS
 62
     5
 10
-95.409537000000014
 20
238.2692339999999
 30
0.0
 11
-95.409537000000014
 21
208.46154199999989
 31
0.0
  0
ARC
  5
9D
  8
DETAIL
  6
CONTINUOUS
 62
     5
 10
-104.351845
 20
208.46154199999989
 30
0.0
 40
8.9423080000000006
 50
180.0
 51
0.0
  0
ARC
  5
9E
  8
DETAIL
  6
CONTINUOUS
 62
     5
 10
-104.351845
 20
238.2692339999999
 30
0.0
 40
8.9423080000000006
 50
0.0
 51
180.0
  0
LINE
  5
9F
  8
DETAIL
  6
CONTINUOUS
 62
     5
 10
-95.409537000000014
 20
238.2692339999999
 30
0.0
 11
-95.409537000000014
 21
208.46154199999989
 31
0.0
  0
LINE
  5
A0
  8
DETAIL
  6
CONTINUOUS
 62
     5
 10
-95.409537000000014
 20
185.80769599999991
 30
0.0
 11
-95.409537000000014
 21
156.00000299999991
 31
0.0
  0
ARC
  5
A1
  8
DETAIL
  6
CONTINUOUS
 62
     5
 10
-104.351845
 20
185.80769599999991
 30
0.0
 40
8.9423080000000006
 50
0.0
 51
180.0
  0
ARC
  5
A2
  8
DETAIL
  6
CONTINUOUS
 62
     5
 10
-104.351845
 20
156.00000299999991
 30
0.0
 40
8.9423080000000006
 50
180.0
 51
0.0
  0
LINE
  5
A3
  8
DETAIL
  6
CONTINUOUS
 62
     5
 10
-95.409537000000014
 20
185.80769599999991
 30
0.0
 11
-95.409537000000014
 21
156.00000299999991
 31
0.0
  0
LINE
  5
A4
  8
DETAIL
  6
CONTINUOUS
 62
     5
 10
-113.29415299999999
 20
185.80769599999991
 30
0.0
 11
-113.29415299999999
 21
156.00000299999991
 31
0.0
  0
LINE
  5
A5
  8
DETAIL
  6
CONTINUOUS
 62
     5
 10
-95.409537000000014
 20
133.34615700000001
 30
0.0
 11
-95.409537000000014
 21
103.53846399999991
 31
0.0
  0
ARC
  5
A6
  8
DETAIL
  6
CONTINUOUS
 62
     5
 10
-104.351845
 20
133.34615700000001
 30
0.0
 40
8.9423080000000006
 50
0.0
 51
180.0
  0
ARC
  5
A7
  8
DETAIL
  6
CONTINUOUS
 62
     5
 10
-104.351845
 20
103.53846399999991
 30
0.0
 40
8.9423080000000006
 50
180.0
 51
0.0
  0
LINE
  5
A8
  8
DETAIL
  6
CONTINUOUS
 62
     5
 10
-95.409537000000014
 20
133.34615700000001
 30
0.0
 11
-95.409537000000014
 21
103.53846399999991
 31
0.0
  0
LINE
  5
A9
  8
DETAIL
  6
CONTINUOUS
 62
     5
 10
-113.29415299999999
 20
133.34615700000001
 30
0.0
 11
-113.29415299999999
 21
103.53846399999991
 31
0.0
  0
LINE
  5
AA
  8
DETAIL
  6
CONTINUOUS
 62
     5
 10
-160.98646099999999
 20
133.34615700000001
 30
0.0
 11
-160.98646099999999
 21
103.53846399999991
 31
0.0
  0
LINE
  5
AB
  8
DETAIL
  6
CONTINUOUS
 62
     5
 10
-143.101845
 20
133.34615700000001
 30
0.0
 11
-143.101845
 21
103.53846399999991
 31
0.0
  0
ARC
  5
AC
  8
DETAIL
  6
CONTINUOUS
 62
     5
 10
-152.04415299999999
 20
103.53846399999991
 30
0.0
 40
8.9423080000000006
 50
180.0
 51
0.0
  0
ARC
  5
AD
  8
DETAIL
  6
CONTINUOUS
 62
     5
 10
-152.04415299999999
 20
133.34615700000001
 30
0.0
 40
8.9423080000000006
 50
0.0
 51
180.0
  0
LINE
  5
AE
  8
DETAIL
  6
CONTINUOUS
 62
     5
 10
-143.101845
 20
133.34615700000001
 30
0.0
 11
-143.101845
 21
103.53846399999991
 31
0.0
  0
LINE
  5
AF
  8
DETAIL
  6
CONTINUOUS
 62
     5
 10
-160.98646099999999
 20
185.80769599999991
 30
0.0
 11
-160.98646099999999
 21
156.00000299999991
 31
0.0
  0
LINE
  5
B0
  8
DETAIL
  6
CONTINUOUS
 62
     5
 10
-143.101845
 20
185.80769599999991
 30
0.0
 11
-143.101845
 21
156.00000299999991
 31
0.0
  0
ARC
  5
B1
  8
DETAIL
  6
CONTINUOUS
 62
     5
 10
-152.04415299999999
 20
156.00000299999991
 30
0.0
 40
8.9423080000000006
 50
180.0
 51
0.0
  0
ARC
  5
B2
  8
DETAIL
  6
CONTINUOUS
 62
     5
 10
-152.04415299999999
 20
185.80769599999991
 30
0.0
 40
8.9423080000000006
 50
0.0
 51
180.0
  0
LINE
  5
B3
  8
DETAIL
  6
CONTINUOUS
 62
     5
 10
-143.101845
 20
185.80769599999991
 30
0.0
 11
-143.101845
 21
156.00000299999991
 31
0.0
  0
LINE
  5
B4
  8
DETAIL
  6
CONTINUOUS
 62
     5
 10
-143.101845
 20
238.2692339999999
 30
0.0
 11
-143.101845
 21
208.46154199999989
 31
0.0
  0
ARC
  5
B5
  8
DETAIL
  6
CONTINUOUS
 62
     5
 10
-152.04415299999999
 20
238.2692339999999
 30
0.0
 40
8.9423080000000006
 50
0.0
 51
180.0
  0
ARC
  5
B6
  8
DETAIL
  6
CONTINUOUS
 62
     5
 10
-152.04415299999999
 20
208.46154199999989
 30
0.0
 40
8.9423080000000006
 50
180.0
 51
0.0
  0
LINE
  5
B7
  8
DETAIL
  6
CONTINUOUS
 62
     5
 10
-143.101845
 20
238.2692339999999
 30
0.0
 11
-143.101845
 21
208.46154199999989
 31
0.0
  0
LINE
  5
B8
  8
DETAIL
  6
CONTINUOUS
 62
     5
 10
-160.98646099999999
 20
238.2692339999999
 30
0.0
 11
-160.98646099999999
 21
208.46154199999989
 31
0.0
  0
LINE
  5
B9
  8
DETAIL
  6
CONTINUOUS
 62
     5
 10
-17.88463599999999
 20
238.2692339999999
 30
0.0
 11
-17.88463599999999
 21
208.46154199999989
 31
0.0
  0
LINE
  5
BA
  8
DETAIL
  6
CONTINUOUS
 62
     5
 10
-0.00002
 20
238.2692339999999
 30
0.0
 11
-0.00002
 21
208.46154199999989
 31
0.0
  0
ARC
  5
BB
  8
DETAIL
  6
CONTINUOUS
 62
     5
 10
-8.9423279999999998
 20
208.46154199999989
 30
0.0
 40
8.9423080000000006
 50
180.0
 51
0.0
  0
ARC
  5
BC
  8
DETAIL
  6
CONTINUOUS
 62
     5
 10
-8.9423279999999998
 20
238.2692339999999
 30
0.0
 40
8.9423080000000006
 50
0.0
 51
180.0
  0
LINE
  5
BD
  8
DETAIL
  6
CONTINUOUS
 62
     5
 10
-0.00002
 20
238.2692339999999
 30
0.0
 11
-0.00002
 21
208.46154199999989
 31
0.0
  0
LINE
  5
BE
  8
DETAIL
  6
CONTINUOUS
 62
     5
 10
-0.00002
 20
185.80769599999991
 30
0.0
 11
-0.00002
 21
156.00000299999991
 31
0.0
  0
ARC
  5
BF
  8
DETAIL
  6
CONTINUOUS
 62
     5
 10
-8.9423279999999998
 20
185.80769599999991
 30
0.0
 40
8.9423080000000006
 50
0.0
 51
180.0
  0
ARC
  5
C0
  8
DETAIL
  6
CONTINUOUS
 62
     5
 10
-8.9423279999999998
 20
156.00000299999991
 30
0.0
 40
8.9423080000000006
 50
180.0
 51
0.0
  0
LINE
  5
C1
  8
DETAIL
  6
CONTINUOUS
 62
     5
 10
-0.00002
 20
185.80769599999991
 30
0.0
 11
-0.00002
 21
156.00000299999991
 31
0.0
  0
LINE
  5
C2
  8
DETAIL
  6
CONTINUOUS
 62
     5
 10
-17.88463599999999
 20
185.80769599999991
 30
0.0
 11
-17.88463599999999
 21
156.00000299999991
 31
0.0
  0
LINE
  5
C3
  8
DETAIL
  6
CONTINUOUS
 62
     5
 10
-0.00002
 20
133.34615700000001
 30
0.0
 11
-0.00002
 21
103.53846399999991
 31
0.0
  0
ARC
  5
C4
  8
DETAIL
  6
CONTINUOUS
 62
     5
 10
-8.9423279999999998
 20
133.34615700000001
 30
0.0
 40
8.9423080000000006
 50
0.0
 51
180.0
  0
ARC
  5
C5
  8
DETAIL
  6
CONTINUOUS
 62
     5
 10
-8.9423279999999998
 20
103.53846399999991
 30
0.0
 40
8.9423080000000006
 50
180.0
 51
0.0
  0
LINE
  5
C6
  8
DETAIL
  6
CONTINUOUS
 62
     5
 10
-0.00002
 20
133.34615700000001
 30
0.0
 11
-0.00002
 21
103.53846399999991
 31
0.0
  0
LINE
  5
C7
  8
DETAIL
  6
CONTINUOUS
 62
     5
 10
-17.88463599999999
 20
133.34615700000001
 30
0.0
 11
-17.88463599999999
 21
103.53846399999991
 31
0.0
  0
LINE
  5
C8
  8
DETAIL
  6
CONTINUOUS
 62
     5
 10
29.80767199999999
 20
133.34615700000001
 30
0.0
 11
29.80767199999999
 21
103.53846399999991
 31
0.0
  0
LINE
  5
C9
  8
DETAIL
  6
CONTINUOUS
 62
     5
 10
47.692287999999991
 20
133.34615700000001
 30
0.0
 11
47.692287999999991
 21
103.53846399999991
 31
0.0
  0
ARC
  5
CA
  8
DETAIL
  6
CONTINUOUS
 62
     5
 10
38.749980000000001
 20
103.53846399999991
 30
0.0
 40
8.9423080000000006
 50
180.0
 51
0.0
  0
ARC
  5
CB
  8
DETAIL
  6
CONTINUOUS
 62
     5
 10
38.749980000000001
 20
133.34615700000001
 30
0.0
 40
8.9423080000000006
 50
0.0
 51
180.0
  0
LINE
  5
CC
  8
DETAIL
  6
CONTINUOUS
 62
     5
 10
47.692287999999991
 20
133.34615700000001
 30
0.0
 11
47.692287999999991
 21
103.53846399999991
 31
0.0
  0
LINE
  5
CD
  8
DETAIL
  6
CONTINUOUS
 62
     5
 10
29.80767199999999
 20
185.80769599999991
 30
0.0
 11
29.80767199999999
 21
156.00000299999991
 31
0.0
  0
LINE
  5
CE
  8
DETAIL
  6
CONTINUOUS
 62
     5
 10
47.692287999999991
 20
185.80769599999991
 30
0.0
 11
47.692287999999991
 21
156.00000299999991
 31
0.0
  0
ARC
  5
CF
  8
DETAIL
  6
CONTINUOUS
 62
     5
 10
38.749980000000001
 20
156.00000299999991
 30
0.0
 40
8.9423080000000006
 50
180.0
 51
0.0
  0
ARC
  5
D0
  8
DETAIL
  6
CONTINUOUS
 62
     5
 10
38.749980000000001
 20
185.80769599999991
 30
0.0
 40
8.9423080000000006
 50
0.0
 51
180.0
  0
LINE
  5
D1
  8
DETAIL
  6
CONTINUOUS
 62
     5
 10
47.692287999999991
 20
185.80769599999991
 30
0.0
 11
47.692287999999991
 21
156.00000299999991
 31
0.0
  0
LINE
  5
D2
  8
DETAIL
  6
CONTINUOUS
 62
     5
 10
47.692287999999991
 20
238.2692339999999
 30
0.0
 11
47.692287999999991
 21
208.46154199999989
 31
0.0
  0
ARC
  5
D3
  8
DETAIL
  6
CONTINUOUS
 62
     5
 10
38.749980000000001
 20
238.2692339999999
 30
0.0
 40
8.9423080000000006
 50
0.0
 51
180.0
  0
ARC
  5
D4
  8
DETAIL
  6
CONTINUOUS
 62
     5
 10
38.749980000000001
 20
208.46154199999989
 30
0.0
 40
8.9423080000000006
 50
180.0
 51
0.0
  0
LINE
  5
D5
  8
DETAIL
  6
CONTINUOUS
 62
     5
 10
47.692287999999991
 20
238.2692339999999
 30
0.0
 11
47.692287999999991
 21
208.46154199999989
 31
0.0
  0
LINE
  5
D6
  8
DETAIL
  6
CONTINUOUS
 62
     5
 10
29.80767199999999
 20
238.2692339999999
 30
0.0
 11
29.80767199999999
 21
208.46154199999989
 31
0.0
  0
LINE
  5
D7
  8
DETAIL
  6
CONTINUOUS
 62
     5
 10
5.9615179999999981
 20
238.2692339999999
 30
0.0
 11
5.9615179999999981
 21
208.46154199999989
 31
0.0
  0
LINE
  5
D8
  8
DETAIL
  6
CONTINUOUS
 62
     5
 10
23.846133999999999
 20
238.2692339999999
 30
0.0
 11
23.846133999999999
 21
208.46154199999989
 31
0.0
  0
ARC
  5
D9
  8
DETAIL
  6
CONTINUOUS
 62
     5
 10
14.903826
 20
208.46154199999989
 30
0.0
 40
8.9423080000000006
 50
180.0
 51
0.0
  0
ARC
  5
DA
  8
DETAIL
  6
CONTINUOUS
 62
     5
 10
14.903826
 20
238.2692339999999
 30
0.0
 40
8.9423080000000006
 50
0.0
 51
180.0
  0
LINE
  5
DB
  8
DETAIL
  6
CONTINUOUS
 62
     5
 10
23.846133999999999
 20
238.2692339999999
 30
0.0
 11
23.846133999999999
 21
208.46154199999989
 31
0.0
  0
LINE
  5
DC
  8
DETAIL
  6
CONTINUOUS
 62
     5
 10
23.846133999999999
 20
185.80769599999991
 30
0.0
 11
23.846133999999999
 21
156.00000299999991
 31
0.0
  0
ARC
  5
DD
  8
DETAIL
  6
CONTINUOUS
 62
     5
 10
14.903826
 20
185.80769599999991
 30
0.0
 40
8.9423080000000006
 50
0.0
 51
180.0
  0
ARC
  5
DE
  8
DETAIL
  6
CONTINUOUS
 62
     5
 10
14.903826
 20
156.00000299999991
 30
0.0
 40
8.9423080000000006
 50
180.0
 51
0.0
  0
LINE
  5
DF
  8
DETAIL
  6
CONTINUOUS
 62
     5
 10
23.846133999999999
 20
185.80769599999991
 30
0.0
 11
23.846133999999999
 21
156.00000299999991
 31
0.0
  0
LINE
  5
E0
  8
DETAIL
  6
CONTINUOUS
 62
     5
 10
5.9615179999999981
 20
185.80769599999991
 30
0.0
 11
5.9615179999999981
 21
156.00000299999991
 31
0.0
  0
LINE
  5
E1
  8
DETAIL
  6
CONTINUOUS
 62
     5
 10
23.846133999999999
 20
133.34615700000001
 30
0.0
 11
23.846133999999999
 21
103.53846399999991
 31
0.0
  0
ARC
  5
E2
  8
DETAIL
  6
CONTINUOUS
 62
     5
 10
14.903826
 20
133.34615700000001
 30
0.0
 40
8.9423080000000006
 50
0.0
 51
180.0
  0
ARC
  5
E3
  8
DETAIL
  6
CONTINUOUS
 62
     5
 10
14.903826
 20
103.53846399999991
 30
0.0
 40
8.9423080000000006
 50
180.0
 51
0.0
  0
LINE
  5
E4
  8
DETAIL
  6
CONTINUOUS
 62
     5
 10
23.846133999999999
 20
133.34615700000001
 30
0.0
 11
23.846133999999999
 21
103.53846399999991
 31
0.0
  0
LINE
  5
E5
  8
DETAIL
  6
CONTINUOUS
 62
     5
 10
5.9615179999999981
 20
133.34615700000001
 30
0.0
 11
5.9615179999999981
 21
103.53846399999991
 31
0.0
  0
LINE
  5
E6
  8
DETAIL
  6
CONTINUOUS
 62
     5
 10
-65.576943999999983
 20
133.34615700000001
 30
0.0
 11
-65.576943999999983
 21
103.53846399999991
 31
0.0
  0
LINE
  5
E7
  8
DETAIL
  6
CONTINUOUS
 62
     5
 10
-47.692328000000003
 20
133.34615700000001
 30
0.0
 11
-47.692328000000003
 21
103.53846399999991
 31
0.0
  0
ARC
  5
E8
  8
DETAIL
  6
CONTINUOUS
 62
     5
 10
-56.634636
 20
103.53846399999991
 30
0.0
 40
8.9423080000000006
 50
180.0
 51
0.0
  0
ARC
  5
E9
  8
DETAIL
  6
CONTINUOUS
 62
     5
 10
-56.634636
 20
133.34615700000001
 30
0.0
 40
8.9423080000000006
 50
0.0
 51
180.0
  0
LINE
  5
EA
  8
DETAIL
  6
CONTINUOUS
 62
     5
 10
-47.692328000000003
 20
133.34615700000001
 30
0.0
 11
-47.692328000000003
 21
103.53846399999991
 31
0.0
  0
LINE
  5
EB
  8
DETAIL
  6
CONTINUOUS
 62
     5
 10
-65.576943999999983
 20
185.80769599999991
 30
0.0
 11
-65.576943999999983
 21
156.00000299999991
 31
0.0
  0
LINE
  5
EC
  8
DETAIL
  6
CONTINUOUS
 62
     5
 10
-47.692328000000003
 20
185.80769599999991
 30
0.0
 11
-47.692328000000003
 21
156.00000299999991
 31
0.0
  0
ARC
  5
ED
  8
DETAIL
  6
CONTINUOUS
 62
     5
 10
-56.634636
 20
156.00000299999991
 30
0.0
 40
8.9423080000000006
 50
180.0
 51
0.0
  0
ARC
  5
EE
  8
DETAIL
  6
CONTINUOUS
 62
     5
 10
-56.634636
 20
185.80769599999991
 30
0.0
 40
8.9423080000000006
 50
0.0
 51
180.0
  0
LINE
  5
EF
  8
DETAIL
  6
CONTINUOUS
 62
     5
 10
-47.692328000000003
 20
185.80769599999991
 30
0.0
 11
-47.692328000000003
 21
156.00000299999991
 31
0.0
  0
LINE
  5
F0
  8
DETAIL
  6
CONTINUOUS
 62
     5
 10
-47.692328000000003
 20
238.2692339999999
 30
0.0
 11
-47.692328000000003
 21
208.46154199999989
 31
0.0
  0
ARC
  5
F1
  8
DETAIL
  6
CONTINUOUS
 62
     5
 10
-56.634636
 20
238.2692339999999
 30
0.0
 40
8.9423080000000006
 50
0.0
 51
180.0
  0
ARC
  5
F2
  8
DETAIL
  6
CONTINUOUS
 62
     5
 10
-56.634636
 20
208.46154199999989
 30
0.0
 40
8.9423080000000006
 50
180.0
 51
0.0
  0
LINE
  5
F3
  8
DETAIL
  6
CONTINUOUS
 62
     5
 10
-47.692328000000003
 20
238.2692339999999
 30
0.0
 11
-47.692328000000003
 21
208.46154199999989
 31
0.0
  0
LINE
  5
F4
  8
DETAIL
  6
CONTINUOUS
 62
     5
 10
-65.576943999999983
 20
238.2692339999999
 30
0.0
 11
-65.576943999999983
 21
208.46154199999989
 31
0.0
  0
LINE
  5
F5
  8
DETAIL
  6
CONTINUOUS
 62
     5
 10
-41.730789999999999
 20
238.2692339999999
 30
0.0
 11
-41.730789999999999
 21
208.46154199999989
 31
0.0
  0
LINE
  5
F6
  8
DETAIL
  6
CONTINUOUS
 62
     5
 10
-23.846173999999991
 20
238.2692339999999
 30
0.0
 11
-23.846173999999991
 21
208.46154199999989
 31
0.0
  0
ARC
  5
F7
  8
DETAIL
  6
CONTINUOUS
 62
     5
 10
-32.788482000000002
 20
208.46154199999989
 30
0.0
 40
8.9423080000000006
 50
180.0
 51
0.0
  0
ARC
  5
F8
  8
DETAIL
  6
CONTINUOUS
 62
     5
 10
-32.788482000000002
 20
238.2692339999999
 30
0.0
 40
8.9423080000000006
 50
0.0
 51
180.0
  0
LINE
  5
F9
  8
DETAIL
  6
CONTINUOUS
 62
     5
 10
-23.846173999999991
 20
238.2692339999999
 30
0.0
 11
-23.846173999999991
 21
208.46154199999989
 31
0.0
  0
LINE
  5
FA
  8
DETAIL
  6
CONTINUOUS
 62
     5
 10
-23.846173999999991
 20
185.80769599999991
 30
0.0
 11
-23.846173999999991
 21
156.00000299999991
 31
0.0
  0
ARC
  5
FB
  8
DETAIL
  6
CONTINUOUS
 62
     5
 10
-32.788482000000002
 20
185.80769599999991
 30
0.0
 40
8.9423080000000006
 50
0.0
 51
180.0
  0
ARC
  5
FC
  8
DETAIL
  6
CONTINUOUS
 62
     5
 10
-32.788482000000002
 20
156.00000299999991
 30
0.0
 40
8.9423080000000006
 50
180.0
 51
0.0
  0
LINE
  5
FD
  8
DETAIL
  6
CONTINUOUS
 62
     5
 10
-23.846173999999991
 20
185.80769599999991
 30
0.0
 11
-23.846173999999991
 21
156.00000299999991
 31
0.0
  0
LINE
  5
FE
  8
DETAIL
  6
CONTINUOUS
 62
     5
 10
-41.730789999999999
 20
185.80769599999991
 30
0.0
 11
-41.730789999999999
 21
156.00000299999991
 31
0.0
  0
LINE
  5
FF
  8
DETAIL
  6
CONTINUOUS
 62
     5
 10
-23.846173999999991
 20
133.34615700000001
 30
0.0
 11
-23.846173999999991
 21
103.53846399999991
 31
0.0
  0
ARC
  5
100
  8
DETAIL
  6
CONTINUOUS
 62
     5
 10
-32.788482000000002
 20
133.34615700000001
 30
0.0
 40
8.9423080000000006
 50
0.0
 51
180.0
  0
ARC
  5
101
  8
DETAIL
  6
CONTINUOUS
 62
     5
 10
-32.788482000000002
 20
103.53846399999991
 30
0.0
 40
8.9423080000000006
 50
180.0
 51
0.0
  0
LINE
  5
102
  8
DETAIL
  6
CONTINUOUS
 62
     5
 10
-23.846173999999991
 20
133.34615700000001
 30
0.0
 11
-23.846173999999991
 21
103.53846399999991
 31
0.0
  0
LINE
  5
103
  8
DETAIL
  6
CONTINUOUS
 62
     5
 10
-41.730789999999999
 20
133.34615700000001
 30
0.0
 11
-41.730789999999999
 21
103.53846399999991
 31
0.0
  0
LINE
  5
104
  8
DETAIL
  6
CONTINUOUS
 62
     5
 10
-89.423097999999982
 20
133.34615700000001
 30
0.0
 11
-89.423097999999982
 21
103.53846399999991
 31
0.0
  0
LINE
  5
105
  8
DETAIL
  6
CONTINUOUS
 62
     5
 10
-71.538482000000002
 20
133.34615700000001
 30
0.0
 11
-71.538482000000002
 21
103.53846399999991
 31
0.0
  0
ARC
  5
106
  8
DETAIL
  6
CONTINUOUS
 62
     5
 10
-80.480789999999985
 20
103.53846399999991
 30
0.0
 40
8.9423080000000006
 50
180.0
 51
0.0
  0
ARC
  5
107
  8
DETAIL
  6
CONTINUOUS
 62
     5
 10
-80.480789999999985
 20
133.34615700000001
 30
0.0
 40
8.9423080000000006
 50
0.0
 51
180.0
  0
LINE
  5
108
  8
DETAIL
  6
CONTINUOUS
 62
     5
 10
-71.538482000000002
 20
133.34615700000001
 30
0.0
 11
-71.538482000000002
 21
103.53846399999991
 31
0.0
  0
LINE
  5
109
  8
DETAIL
  6
CONTINUOUS
 62
     5
 10
-89.423097999999982
 20
185.80769599999991
 30
0.0
 11
-89.423097999999982
 21
156.00000299999991
 31
0.0
  0
LINE
  5
10A
  8
DETAIL
  6
CONTINUOUS
 62
     5
 10
-71.538482000000002
 20
185.80769599999991
 30
0.0
 11
-71.538482000000002
 21
156.00000299999991
 31
0.0
  0
ARC
  5
10B
  8
DETAIL
  6
CONTINUOUS
 62
     5
 10
-80.480789999999985
 20
156.00000299999991
 30
0.0
 40
8.9423080000000006
 50
180.0
 51
0.0
  0
ARC
  5
10C
  8
DETAIL
  6
CONTINUOUS
 62
     5
 10
-80.480789999999985
 20
185.80769599999991
 30
0.0
 40
8.9423080000000006
 50
0.0
 51
180.0
  0
LINE
  5
10D
  8
DETAIL
  6
CONTINUOUS
 62
     5
 10
-71.538482000000002
 20
185.80769599999991
 30
0.0
 11
-71.538482000000002
 21
156.00000299999991
 31
0.0
  0
LINE
  5
10E
  8
DETAIL
  6
CONTINUOUS
 62
     5
 10
-71.538482000000002
 20
238.2692339999999
 30
0.0
 11
-71.538482000000002
 21
208.46154199999989
 31
0.0
  0
ARC
  5
10F
  8
DETAIL
  6
CONTINUOUS
 62
     5
 10
-80.480789999999985
 20
238.2692339999999
 30
0.0
 40
8.9423080000000006
 50
0.0
 51
180.0
  0
ARC
  5
110
  8
DETAIL
  6
CONTINUOUS
 62
     5
 10
-80.480789999999985
 20
208.46154199999989
 30
0.0
 40
8.9423080000000006
 50
180.0
 51
0.0
  0
LINE
  5
111
  8
DETAIL
  6
CONTINUOUS
 62
     5
 10
-71.538482000000002
 20
238.2692339999999
 30
0.0
 11
-71.538482000000002
 21
208.46154199999989
 31
0.0
  0
LINE
  5
112
  8
DETAIL
  6
CONTINUOUS
 62
     5
 10
-89.423097999999982
 20
238.2692339999999
 30
0.0
 11
-89.423097999999982
 21
208.46154199999989
 31
0.0
  0
LINE
  5
113
  8
DETAIL
  6
CONTINUOUS
 62
     5
 10
119.2556509999999
 20
238.2692339999999
 30
0.0
 11
119.2556509999999
 21
208.46154199999989
 31
0.0
  0
LINE
  5
114
  8
DETAIL
  6
CONTINUOUS
 62
     5
 10
137.14026599999991
 20
238.2692339999999
 30
0.0
 11
137.14026599999991
 21
208.46154199999989
 31
0.0
  0
ARC
  5
115
  8
DETAIL
  6
CONTINUOUS
 62
     5
 10
128.19795899999991
 20
208.46154199999989
 30
0.0
 40
8.9423080000000006
 50
180.0
 51
0.0
  0
ARC
  5
116
  8
DETAIL
  6
CONTINUOUS
 62
     5
 10
128.19795899999991
 20
238.2692339999999
 30
0.0
 40
8.9423080000000006
 50
0.0
 51
180.0
  0
LINE
  5
117
  8
DETAIL
  6
CONTINUOUS
 62
     5
 10
137.14026599999991
 20
238.2692339999999
 30
0.0
 11
137.14026599999991
 21
208.46154199999989
 31
0.0
  0
LINE
  5
118
  8
DETAIL
  6
CONTINUOUS
 62
     5
 10
137.14026599999991
 20
185.80769599999991
 30
0.0
 11
137.14026599999991
 21
156.00000299999991
 31
0.0
  0
ARC
  5
119
  8
DETAIL
  6
CONTINUOUS
 62
     5
 10
128.19795899999991
 20
185.80769599999991
 30
0.0
 40
8.9423080000000006
 50
0.0
 51
180.0
  0
ARC
  5
11A
  8
DETAIL
  6
CONTINUOUS
 62
     5
 10
128.19795899999991
 20
156.00000299999991
 30
0.0
 40
8.9423080000000006
 50
180.0
 51
0.0
  0
LINE
  5
11B
  8
DETAIL
  6
CONTINUOUS
 62
     5
 10
137.14026599999991
 20
185.80769599999991
 30
0.0
 11
137.14026599999991
 21
156.00000299999991
 31
0.0
  0
LINE
  5
11C
  8
DETAIL
  6
CONTINUOUS
 62
     5
 10
119.2556509999999
 20
185.80769599999991
 30
0.0
 11
119.2556509999999
 21
156.00000299999991
 31
0.0
  0
LINE
  5
11D
  8
DETAIL
  6
CONTINUOUS
 62
     5
 10
137.14026599999991
 20
133.34615700000001
 30
0.0
 11
137.14026599999991
 21
103.53846399999991
 31
0.0
  0
ARC
  5
11E
  8
DETAIL
  6
CONTINUOUS
 62
     5
 10
128.19795899999991
 20
133.34615700000001
 30
0.0
 40
8.9423080000000006
 50
0.0
 51
180.0
  0
ARC
  5
11F
  8
DETAIL
  6
CONTINUOUS
 62
     5
 10
128.19795899999991
 20
103.53846399999991
 30
0.0
 40
8.9423080000000006
 50
180.0
 51
0.0
  0
LINE
  5
120
  8
DETAIL
  6
CONTINUOUS
 62
     5
 10
137.14026599999991
 20
133.34615700000001
 30
0.0
 11
137.14026599999991
 21
103.53846399999991
 31
0.0
  0
LINE
  5
121
  8
DETAIL
  6
CONTINUOUS
 62
     5
 10
119.2556509999999
 20
133.34615700000001
 30
0.0
 11
119.2556509999999
 21
103.53846399999991
 31
0.0
  0
LINE
  5
122
  8
DETAIL
  6
CONTINUOUS
 62
     5
 10
166.94795899999991
 20
133.34615700000001
 30
0.0
 11
166.94795899999991
 21
103.53846399999991
 31
0.0
  0
LINE
  5
123
  8
DETAIL
  6
CONTINUOUS
 62
     5
 10
184.83257399999991
 20
133.34615700000001
 30
0.0
 11
184.83257399999991
 21
103.53846399999991
 31
0.0
  0
ARC
  5
124
  8
DETAIL
  6
CONTINUOUS
 62
     5
 10
175.89026699999991
 20
103.53846399999991
 30
0.0
 40
8.9423080000000006
 50
180.0
 51
0.0
  0
ARC
  5
125
  8
DETAIL
  6
CONTINUOUS
 62
     5
 10
175.89026699999991
 20
133.34615700000001
 30
0.0
 40
8.9423080000000006
 50
0.0
 51
180.0
  0
LINE
  5
126
  8
DETAIL
  6
CONTINUOUS
 62
     5
 10
184.83257399999991
 20
133.34615700000001
 30
0.0
 11
184.83257399999991
 21
103.53846399999991
 31
0.0
  0
LINE
  5
127
  8
DETAIL
  6
CONTINUOUS
 62
     5
 10
166.94795899999991
 20
185.80769599999991
 30
0.0
 11
166.94795899999991
 21
156.00000299999991
 31
0.0
  0
LINE
  5
128
  8
DETAIL
  6
CONTINUOUS
 62
     5
 10
184.83257399999991
 20
185.80769599999991
 30
0.0
 11
184.83257399999991
 21
156.00000299999991
 31
0.0
  0
ARC
  5
129
  8
DETAIL
  6
CONTINUOUS
 62
     5
 10
175.89026699999991
 20
156.00000299999991
 30
0.0
 40
8.9423080000000006
 50
180.0
 51
0.0
  0
ARC
  5
12A
  8
DETAIL
  6
CONTINUOUS
 62
     5
 10
175.89026699999991
 20
185.80769599999991
 30
0.0
 40
8.9423080000000006
 50
0.0
 51
180.0
  0
LINE
  5
12B
  8
DETAIL
  6
CONTINUOUS
 62
     5
 10
184.83257399999991
 20
185.80769599999991
 30
0.0
 11
184.83257399999991
 21
156.00000299999991
 31
0.0
  0
LINE
  5
12C
  8
DETAIL
  6
CONTINUOUS
 62
     5
 10
184.83257399999991
 20
238.2692339999999
 30
0.0
 11
184.83257399999991
 21
208.46154199999989
 31
0.0
  0
ARC
  5
12D
  8
DETAIL
  6
CONTINUOUS
 62
     5
 10
175.89026699999991
 20
238.2692339999999
 30
0.0
 40
8.9423080000000006
 50
0.0
 51
180.0
  0
ARC
  5
12E
  8
DETAIL
  6
CONTINUOUS
 62
     5
 10
175.89026699999991
 20
208.46154199999989
 30
0.0
 40
8.9423080000000006
 50
180.0
 51
0.0
  0
LINE
  5
12F
  8
DETAIL
  6
CONTINUOUS
 62
     5
 10
184.83257399999991
 20
238.2692339999999
 30
0.0
 11
184.83257399999991
 21
208.46154199999989
 31
0.0
  0
LINE
  5
130
  8
DETAIL
  6
CONTINUOUS
 62
     5
 10
166.94795899999991
 20
238.2692339999999
 30
0.0
 11
166.94795899999991
 21
208.46154199999989
 31
0.0
  0
LINE
  5
131
  8
DETAIL
  6
CONTINUOUS
 62
     5
 10
143.10180500000001
 20
238.2692339999999
 30
0.0
 11
143.10180500000001
 21
208.46154199999989
 31
0.0
  0
LINE
  5
132
  8
DETAIL
  6
CONTINUOUS
 62
     5
 10
160.9864199999999
 20
238.2692339999999
 30
0.0
 11
160.9864199999999
 21
208.46154199999989
 31
0.0
  0
ARC
  5
133
  8
DETAIL
  6
CONTINUOUS
 62
     5
 10
152.0441129999999
 20
208.46154199999989
 30
0.0
 40
8.9423080000000006
 50
180.0
 51
0.0
  0
ARC
  5
134
  8
DETAIL
  6
CONTINUOUS
 62
     5
 10
152.0441129999999
 20
238.2692339999999
 30
0.0
 40
8.9423080000000006
 50
0.0
 51
180.0
  0
LINE
  5
135
  8
DETAIL
  6
CONTINUOUS
 62
     5
 10
160.9864199999999
 20
238.2692339999999
 30
0.0
 11
160.9864199999999
 21
208.46154199999989
 31
0.0
  0
LINE
  5
136
  8
DETAIL
  6
CONTINUOUS
 62
     5
 10
160.9864199999999
 20
185.80769599999991
 30
0.0
 11
160.9864199999999
 21
156.00000299999991
 31
0.0
  0
ARC
  5
137
  8
DETAIL
  6
CONTINUOUS
 62
     5
 10
152.0441129999999
 20
185.80769599999991
 30
0.0
 40
8.9423080000000006
 50
0.0
 51
180.0
  0
ARC
  5
138
  8
DETAIL
  6
CONTINUOUS
 62
     5
 10
152.0441129999999
 20
156.00000299999991
 30
0.0
 40
8.9423080000000006
 50
180.0
 51
0.0
  0
LINE
  5
139
  8
DETAIL
  6
CONTINUOUS
 62
     5
 10
160.9864199999999
 20
185.80769599999991
 30
0.0
 11
160.9864199999999
 21
156.00000299999991
 31
0.0
  0
LINE
  5
13A
  8
DETAIL
  6
CONTINUOUS
 62
     5
 10
143.10180500000001
 20
185.80769599999991
 30
0.0
 11
143.10180500000001
 21
156.00000299999991
 31
0.0
  0
LINE
  5
13B
  8
DETAIL
  6
CONTINUOUS
 62
     5
 10
160.9864199999999
 20
133.34615700000001
 30
0.0
 11
160.9864199999999
 21
103.53846399999991
 31
0.0
  0
ARC
  5
13C
  8
DETAIL
  6
CONTINUOUS
 62
     5
 10
152.0441129999999
 20
133.34615700000001
 30
0.0
 40
8.9423080000000006
 50
0.0
 51
180.0
  0
ARC
  5
13D
  8
DETAIL
  6
CONTINUOUS
 62
     5
 10
152.0441129999999
 20
103.53846399999991
 30
0.0
 40
8.9423080000000006
 50
180.0
 51
0.0
  0
LINE
  5
13E
  8
DETAIL
  6
CONTINUOUS
 62
     5
 10
160.9864199999999
 20
133.34615700000001
 30
0.0
 11
160.9864199999999
 21
103.53846399999991
 31
0.0
  0
LINE
  5
13F
  8
DETAIL
  6
CONTINUOUS
 62
     5
 10
143.10180500000001
 20
133.34615700000001
 30
0.0
 11
143.10180500000001
 21
103.53846399999991
 31
0.0
  0
LINE
  5
140
  8
DETAIL
  6
CONTINUOUS
 62
     5
 10
214.64026699999999
 20
133.34615700000001
 30
0.0
 11
214.64026699999999
 21
103.53846399999991
 31
0.0
  0
LINE
  5
141
  8
DETAIL
  6
CONTINUOUS
 62
     5
 10
232.52488199999999
 20
133.34615700000001
 30
0.0
 11
232.52488199999999
 21
103.53846399999991
 31
0.0
  0
ARC
  5
142
  8
DETAIL
  6
CONTINUOUS
 62
     5
 10
223.58257499999999
 20
103.53846399999991
 30
0.0
 40
8.9423080000000006
 50
180.0
 51
0.0
  0
ARC
  5
143
  8
DETAIL
  6
CONTINUOUS
 62
     5
 10
223.58257499999999
 20
133.34615700000001
 30
0.0
 40
8.9423080000000006
 50
0.0
 51
180.0
  0
LINE
  5
144
  8
DETAIL
  6
CONTINUOUS
 62
     5
 10
232.52488199999999
 20
133.34615700000001
 30
0.0
 11
232.52488199999999
 21
103.53846399999991
 31
0.0
  0
LINE
  5
145
  8
DETAIL
  6
CONTINUOUS
 62
     5
 10
214.64026699999999
 20
185.80769599999991
 30
0.0
 11
214.64026699999999
 21
156.00000299999991
 31
0.0
  0
LINE
  5
146
  8
DETAIL
  6
CONTINUOUS
 62
     5
 10
232.52488199999999
 20
185.80769599999991
 30
0.0
 11
232.52488199999999
 21
156.00000299999991
 31
0.0
  0
ARC
  5
147
  8
DETAIL
  6
CONTINUOUS
 62
     5
 10
223.58257499999999
 20
156.00000299999991
 30
0.0
 40
8.9423080000000006
 50
180.0
 51
0.0
  0
ARC
  5
148
  8
DETAIL
  6
CONTINUOUS
 62
     5
 10
223.58257499999999
 20
185.80769599999991
 30
0.0
 40
8.9423080000000006
 50
0.0
 51
180.0
  0
LINE
  5
149
  8
DETAIL
  6
CONTINUOUS
 62
     5
 10
232.52488199999999
 20
185.80769599999991
 30
0.0
 11
232.52488199999999
 21
156.00000299999991
 31
0.0
  0
LINE
  5
14A
  8
DETAIL
  6
CONTINUOUS
 62
     5
 10
232.52488199999999
 20
238.2692339999999
 30
0.0
 11
232.52488199999999
 21
208.46154199999989
 31
0.0
  0
ARC
  5
14B
  8
DETAIL
  6
CONTINUOUS
 62
     5
 10
223.58257499999999
 20
238.2692339999999
 30
0.0
 40
8.9423080000000006
 50
0.0
 51
180.0
  0
ARC
  5
14C
  8
DETAIL
  6
CONTINUOUS
 62
     5
 10
223.58257499999999
 20
208.46154199999989
 30
0.0
 40
8.9423080000000006
 50
180.0
 51
0.0
  0
LINE
  5
14D
  8
DETAIL
  6
CONTINUOUS
 62
     5
 10
232.52488199999999
 20
238.2692339999999
 30
0.0
 11
232.52488199999999
 21
208.46154199999989
 31
0.0
  0
LINE
  5
14E
  8
DETAIL
  6
CONTINUOUS
 62
     5
 10
214.64026699999999
 20
238.2692339999999
 30
0.0
 11
214.64026699999999
 21
208.46154199999989
 31
0.0
  0
LINE
  5
14F
  8
DETAIL
  6
CONTINUOUS
 62
     5
 10
238.48642099999989
 20
238.2692339999999
 30
0.0
 11
238.48642099999989
 21
208.46154199999989
 31
0.0
  0
LINE
  5
150
  8
DETAIL
  6
CONTINUOUS
 62
     5
 10
256.37103599999989
 20
238.2692339999999
 30
0.0
 11
256.37103599999989
 21
208.46154199999989
 31
0.0
  0
ARC
  5
151
  8
DETAIL
  6
CONTINUOUS
 62
     5
 10
247.42872899999989
 20
208.46154199999989
 30
0.0
 40
8.9423080000000006
 50
180.0
 51
0.0
  0
ARC
  5
152
  8
DETAIL
  6
CONTINUOUS
 62
     5
 10
247.42872899999989
 20
238.2692339999999
 30
0.0
 40
8.9423080000000006
 50
0.0
 51
180.0
  0
LINE
  5
153
  8
DETAIL
  6
CONTINUOUS
 62
     5
 10
256.37103599999989
 20
238.2692339999999
 30
0.0
 11
256.37103599999989
 21
208.46154199999989
 31
0.0
  0
LINE
  5
154
  8
DETAIL
  6
CONTINUOUS
 62
     5
 10
256.37103599999989
 20
185.80769599999991
 30
0.0
 11
256.37103599999989
 21
156.00000299999991
 31
0.0
  0
ARC
  5
155
  8
DETAIL
  6
CONTINUOUS
 62
     5
 10
247.42872899999989
 20
185.80769599999991
 30
0.0
 40
8.9423080000000006
 50
0.0
 51
180.0
  0
ARC
  5
156
  8
DETAIL
  6
CONTINUOUS
 62
     5
 10
247.42872899999989
 20
156.00000299999991
 30
0.0
 40
8.9423080000000006
 50
180.0
 51
0.0
  0
LINE
  5
157
  8
DETAIL
  6
CONTINUOUS
 62
     5
 10
256.37103599999989
 20
185.80769599999991
 30
0.0
 11
256.37103599999989
 21
156.00000299999991
 31
0.0
  0
LINE
  5
158
  8
DETAIL
  6
CONTINUOUS
 62
     5
 10
238.48642099999989
 20
185.80769599999991
 30
0.0
 11
238.48642099999989
 21
156.00000299999991
 31
0.0
  0
LINE
  5
159
  8
DETAIL
  6
CONTINUOUS
 62
     5
 10
256.37103599999989
 20
133.34615700000001
 30
0.0
 11
256.37103599999989
 21
103.53846399999991
 31
0.0
  0
ARC
  5
15A
  8
DETAIL
  6
CONTINUOUS
 62
     5
 10
247.42872899999989
 20
133.34615700000001
 30
0.0
 40
8.9423080000000006
 50
0.0
 51
180.0
  0
ARC
  5
15B
  8
DETAIL
  6
CONTINUOUS
 62
     5
 10
247.42872899999989
 20
103.53846399999991
 30
0.0
 40
8.9423080000000006
 50
180.0
 51
0.0
  0
LINE
  5
15C
  8
DETAIL
  6
CONTINUOUS
 62
     5
 10
256.37103599999989
 20
133.34615700000001
 30
0.0
 11
256.37103599999989
 21
103.53846399999991
 31
0.0
  0
LINE
  5
15D
  8
DETAIL
  6
CONTINUOUS
 62
     5
 10
238.48642099999989
 20
133.34615700000001
 30
0.0
 11
238.48642099999989
 21
103.53846399999991
 31
0.0
  0
LINE
  5
15E
  8
DETAIL
  6
CONTINUOUS
 62
     5
 10
190.7941129999999
 20
133.34615700000001
 30
0.0
 11
190.7941129999999
 21
103.53846399999991
 31
0.0
  0
LINE
  5
15F
  8
DETAIL
  6
CONTINUOUS
 62
     5
 10
208.67872800000001
 20
133.34615700000001
 30
0.0
 11
208.67872800000001
 21
103.53846399999991
 31
0.0
  0
ARC
  5
160
  8
DETAIL
  6
CONTINUOUS
 62
     5
 10
199.73642100000001
 20
103.53846399999991
 30
0.0
 40
8.9423080000000006
 50
180.0
 51
0.0
  0
ARC
  5
161
  8
DETAIL
  6
CONTINUOUS
 62
     5
 10
199.73642100000001
 20
133.34615700000001
 30
0.0
 40
8.9423080000000006
 50
0.0
 51
180.0
  0
LINE
  5
162
  8
DETAIL
  6
CONTINUOUS
 62
     5
 10
208.67872800000001
 20
133.34615700000001
 30
0.0
 11
208.67872800000001
 21
103.53846399999991
 31
0.0
  0
LINE
  5
163
  8
DETAIL
  6
CONTINUOUS
 62
     5
 10
190.7941129999999
 20
185.80769599999991
 30
0.0
 11
190.7941129999999
 21
156.00000299999991
 31
0.0
  0
LINE
  5
164
  8
DETAIL
  6
CONTINUOUS
 62
     5
 10
208.67872800000001
 20
185.80769599999991
 30
0.0
 11
208.67872800000001
 21
156.00000299999991
 31
0.0
  0
ARC
  5
165
  8
DETAIL
  6
CONTINUOUS
 62
     5
 10
199.73642100000001
 20
156.00000299999991
 30
0.0
 40
8.9423080000000006
 50
180.0
 51
0.0
  0
ARC
  5
166
  8
DETAIL
  6
CONTINUOUS
 62
     5
 10
199.73642100000001
 20
185.80769599999991
 30
0.0
 40
8.9423080000000006
 50
0.0
 51
180.0
  0
LINE
  5
167
  8
DETAIL
  6
CONTINUOUS
 62
     5
 10
208.67872800000001
 20
185.80769599999991
 30
0.0
 11
208.67872800000001
 21
156.00000299999991
 31
0.0
  0
LINE
  5
168
  8
DETAIL
  6
CONTINUOUS
 62
     5
 10
208.67872800000001
 20
238.2692339999999
 30
0.0
 11
208.67872800000001
 21
208.46154199999989
 31
0.0
  0
ARC
  5
169
  8
DETAIL
  6
CONTINUOUS
 62
     5
 10
199.73642100000001
 20
238.2692339999999
 30
0.0
 40
8.9423080000000006
 50
0.0
 51
180.0
  0
ARC
  5
16A
  8
DETAIL
  6
CONTINUOUS
 62
     5
 10
199.73642100000001
 20
208.46154199999989
 30
0.0
 40
8.9423080000000006
 50
180.0
 51
0.0
  0
LINE
  5
16B
  8
DETAIL
  6
CONTINUOUS
 62
     5
 10
208.67872800000001
 20
238.2692339999999
 30
0.0
 11
208.67872800000001
 21
208.46154199999989
 31
0.0
  0
LINE
  5
16C
  8
DETAIL
  6
CONTINUOUS
 62
     5
 10
190.7941129999999
 20
238.2692339999999
 30
0.0
 11
190.7941129999999
 21
208.46154199999989
 31
0.0
  0
LINE
  5
16D
  8
DETAIL
  6
CONTINUOUS
 62
     5
 10
47.692287999999991
 20
238.2692339999999
 30
0.0
 11
47.692287999999991
 21
208.46154199999989
 31
0.0
  0
LINE
  5
16E
  8
DETAIL
  6
CONTINUOUS
 62
     5
 10
65.576903000000001
 20
238.2692339999999
 30
0.0
 11
65.576903000000001
 21
208.46154199999989
 31
0.0
  0
ARC
  5
16F
  8
DETAIL
  6
CONTINUOUS
 62
     5
 10
56.634595999999988
 20
208.46154199999989
 30
0.0
 40
8.9423080000000006
 50
180.0
 51
0.0
  0
ARC
  5
170
  8
DETAIL
  6
CONTINUOUS
 62
     5
 10
56.634595999999988
 20
238.2692339999999
 30
0.0
 40
8.9423080000000006
 50
0.0
 51
180.0
  0
LINE
  5
171
  8
DETAIL
  6
CONTINUOUS
 62
     5
 10
65.576903000000001
 20
238.2692339999999
 30
0.0
 11
65.576903000000001
 21
208.46154199999989
 31
0.0
  0
LINE
  5
172
  8
DETAIL
  6
CONTINUOUS
 62
     5
 10
65.576903000000001
 20
185.80769599999991
 30
0.0
 11
65.576903000000001
 21
156.00000299999991
 31
0.0
  0
ARC
  5
173
  8
DETAIL
  6
CONTINUOUS
 62
     5
 10
56.634595999999988
 20
185.80769599999991
 30
0.0
 40
8.9423080000000006
 50
0.0
 51
180.0
  0
ARC
  5
174
  8
DETAIL
  6
CONTINUOUS
 62
     5
 10
56.634595999999988
 20
156.00000299999991
 30
0.0
 40
8.9423080000000006
 50
180.0
 51
0.0
  0
LINE
  5
175
  8
DETAIL
  6
CONTINUOUS
 62
     5
 10
65.576903000000001
 20
185.80769599999991
 30
0.0
 11
65.576903000000001
 21
156.00000299999991
 31
0.0
  0
LINE
  5
176
  8
DETAIL
  6
CONTINUOUS
 62
     5
 10
47.692287999999991
 20
185.80769599999991
 30
0.0
 11
47.692287999999991
 21
156.00000299999991
 31
0.0
  0
LINE
  5
177
  8
DETAIL
  6
CONTINUOUS
 62
     5
 10
65.576903000000001
 20
133.34615700000001
 30
0.0
 11
65.576903000000001
 21
103.53846399999991
 31
0.0
  0
ARC
  5
178
  8
DETAIL
  6
CONTINUOUS
 62
     5
 10
56.634595999999988
 20
133.34615700000001
 30
0.0
 40
8.9423080000000006
 50
0.0
 51
180.0
  0
ARC
  5
179
  8
DETAIL
  6
CONTINUOUS
 62
     5
 10
56.634595999999988
 20
103.53846399999991
 30
0.0
 40
8.9423080000000006
 50
180.0
 51
0.0
  0
LINE
  5
17A
  8
DETAIL
  6
CONTINUOUS
 62
     5
 10
65.576903000000001
 20
133.34615700000001
 30
0.0
 11
65.576903000000001
 21
103.53846399999991
 31
0.0
  0
LINE
  5
17B
  8
DETAIL
  6
CONTINUOUS
 62
     5
 10
47.692287999999991
 20
133.34615700000001
 30
0.0
 11
47.692287999999991
 21
103.53846399999991
 31
0.0
  0
LINE
  5
17C
  8
DETAIL
  6
CONTINUOUS
 62
     5
 10
95.384596000000016
 20
133.34615700000001
 30
0.0
 11
95.384596000000016
 21
103.53846399999991
 31
0.0
  0
LINE
  5
17D
  8
DETAIL
  6
CONTINUOUS
 62
     5
 10
113.269211
 20
133.34615700000001
 30
0.0
 11
113.269211
 21
103.53846399999991
 31
0.0
  0
ARC
  5
17E
  8
DETAIL
  6
CONTINUOUS
 62
     5
 10
104.3269039999999
 20
103.53846399999991
 30
0.0
 40
8.9423080000000006
 50
180.0
 51
0.0
  0
ARC
  5
17F
  8
DETAIL
  6
CONTINUOUS
 62
     5
 10
104.3269039999999
 20
133.34615700000001
 30
0.0
 40
8.9423080000000006
 50
0.0
 51
180.0
  0
LINE
  5
180
  8
DETAIL
  6
CONTINUOUS
 62
     5
 10
113.269211
 20
133.34615700000001
 30
0.0
 11
113.269211
 21
103.53846399999991
 31
0.0
  0
LINE
  5
181
  8
DETAIL
  6
CONTINUOUS
 62
     5
 10
95.384596000000016
 20
185.80769599999991
 30
0.0
 11
95.384596000000016
 21
156.00000299999991
 31
0.0
  0
LINE
  5
182
  8
DETAIL
  6
CONTINUOUS
 62
     5
 10
113.269211
 20
185.80769599999991
 30
0.0
 11
113.269211
 21
156.00000299999991
 31
0.0
  0
ARC
  5
183
  8
DETAIL
  6
CONTINUOUS
 62
     5
 10
104.3269039999999
 20
156.00000299999991
 30
0.0
 40
8.9423080000000006
 50
180.0
 51
0.0
  0
ARC
  5
184
  8
DETAIL
  6
CONTINUOUS
 62
     5
 10
104.3269039999999
 20
185.80769599999991
 30
0.0
 40
8.9423080000000006
 50
0.0
 51
180.0
  0
LINE
  5
185
  8
DETAIL
  6
CONTINUOUS
 62
     5
 10
113.269211
 20
185.80769599999991
 30
0.0
 11
113.269211
 21
156.00000299999991
 31
0.0
  0
LINE
  5
186
  8
DETAIL
  6
CONTINUOUS
 62
     5
 10
113.269211
 20
238.2692339999999
 30
0.0
 11
113.269211
 21
208.46154199999989
 31
0.0
  0
ARC
  5
187
  8
DETAIL
  6
CONTINUOUS
 62
     5
 10
104.3269039999999
 20
238.2692339999999
 30
0.0
 40
8.9423080000000006
 50
0.0
 51
180.0
  0
ARC
  5
188
  8
DETAIL
  6
CONTINUOUS
 62
     5
 10
104.3269039999999
 20
208.46154199999989
 30
0.0
 40
8.9423080000000006
 50
180.0
 51
0.0
  0
LINE
  5
189
  8
DETAIL
  6
CONTINUOUS
 62
     5
 10
113.269211
 20
238.2692339999999
 30
0.0
 11
113.269211
 21
208.46154199999989
 31
0.0
  0
LINE
  5
18A
  8
DETAIL
  6
CONTINUOUS
 62
     5
 10
95.384596000000016
 20
238.2692339999999
 30
0.0
 11
95.384596000000016
 21
208.46154199999989
 31
0.0
  0
LINE
  5
18B
  8
DETAIL
  6
CONTINUOUS
 62
     5
 10
71.538442000000003
 20
238.2692339999999
 30
0.0
 11
71.538442000000003
 21
208.46154199999989
 31
0.0
  0
LINE
  5
18C
  8
DETAIL
  6
CONTINUOUS
 62
     5
 10
89.423057
 20
238.2692339999999
 30
0.0
 11
89.423057
 21
208.46154199999989
 31
0.0
  0
ARC
  5
18D
  8
DETAIL
  6
CONTINUOUS
 62
     5
 10
80.48075
 20
208.46154199999989
 30
0.0
 40
8.9423080000000006
 50
180.0
 51
0.0
  0
ARC
  5
18E
  8
DETAIL
  6
CONTINUOUS
 62
     5
 10
80.48075
 20
238.2692339999999
 30
0.0
 40
8.9423080000000006
 50
0.0
 51
180.0
  0
LINE
  5
18F
  8
DETAIL
  6
CONTINUOUS
 62
     5
 10
89.423057
 20
238.2692339999999
 30
0.0
 11
89.423057
 21
208.46154199999989
 31
0.0
  0
LINE
  5
190
  8
DETAIL
  6
CONTINUOUS
 62
     5
 10
89.423057
 20
185.80769599999991
 30
0.0
 11
89.423057
 21
156.00000299999991
 31
0.0
  0
ARC
  5
191
  8
DETAIL
  6
CONTINUOUS
 62
     5
 10
80.48075
 20
185.80769599999991
 30
0.0
 40
8.9423080000000006
 50
0.0
 51
180.0
  0
ARC
  5
192
  8
DETAIL
  6
CONTINUOUS
 62
     5
 10
80.48075
 20
156.00000299999991
 30
0.0
 40
8.9423080000000006
 50
180.0
 51
0.0
  0
LINE
  5
193
  8
DETAIL
  6
CONTINUOUS
 62
     5
 10
89.423057
 20
185.80769599999991
 30
0.0
 11
89.423057
 21
156.00000299999991
 31
0.0
  0
LINE
  5
194
  8
DETAIL
  6
CONTINUOUS
 62
     5
 10
71.538442000000003
 20
185.80769599999991
 30
0.0
 11
71.538442000000003
 21
156.00000299999991
 31
0.0
  0
LINE
  5
195
  8
DETAIL
  6
CONTINUOUS
 62
     5
 10
89.423057
 20
133.34615700000001
 30
0.0
 11
89.423057
 21
103.53846399999991
 31
0.0
  0
ARC
  5
196
  8
DETAIL
  6
CONTINUOUS
 62
     5
 10
80.48075
 20
133.34615700000001
 30
0.0
 40
8.9423080000000006
 50
0.0
 51
180.0
  0
ARC
  5
197
  8
DETAIL
  6
CONTINUOUS
 62
     5
 10
80.48075
 20
103.53846399999991
 30
0.0
 40
8.9423080000000006
 50
180.0
 51
0.0
  0
LINE
  5
198
  8
DETAIL
  6
CONTINUOUS
 62
     5
 10
89.423057
 20
133.34615700000001
 30
0.0
 11
89.423057
 21
103.53846399999991
 31
0.0
  0
LINE
  5
199
  8
DETAIL
  6
CONTINUOUS
 62
     5
 10
71.538442000000003
 20
133.34615700000001
 30
0.0
 11
71.538442000000003
 21
103.53846399999991
 31
0.0
  0
LINE
  5
19A
  8
DETAIL
  6
CONTINUOUS
 62
     5
 10
-256.37107700000001
 20
238.2692339999999
 30
0.0
 11
-256.37107700000001
 21
208.46154199999989
 31
0.0
  0
LINE
  5
19B
  8
DETAIL
  6
CONTINUOUS
 62
     5
 10
-256.37107700000001
 20
185.80769599999991
 30
0.0
 11
-256.37107700000001
 21
156.00000299999991
 31
0.0
  0
LINE
  5
19C
  8
DETAIL
  6
CONTINUOUS
 62
     5
 10
-256.37107700000001
 20
133.34615700000001
 30
0.0
 11
-256.37107700000001
 21
103.53846399999991
 31
0.0
  0
LINE
  5
19D
  8
DETAIL
  6
CONTINUOUS
 62
     5
 10
-256.37107700000001
 20
-37.153843999999999
 30
0.0
 11
-256.37107700000001
 21
-66.961536999999993
 31
0.0
  0
LINE
  5
19E
  8
DETAIL
  6
CONTINUOUS
 62
     5
 10
-256.37107700000001
 20
15.307694
 30
0.0
 11
-256.37107700000001
 21
-14.499998
 31
0.0
  0
LINE
  5
19F
  8
DETAIL
  6
CONTINUOUS
 62
     5
 10
-256.37107700000001
 20
67.769232999999986
 30
0.0
 11
-256.37107700000001
 21
37.96154099999999
 31
0.0
  0
LINE
  5
1A0
  8
DETAIL
  6
CONTINUOUS
 62
     5
 10
71.538442000000003
 20
-37.153843999999999
 30
0.0
 11
71.538442000000003
 21
-66.961536999999993
 31
0.0
  0
LINE
  5
1A1
  8
DETAIL
  6
CONTINUOUS
 62
     5
 10
89.423057
 20
-37.153843999999999
 30
0.0
 11
89.423057
 21
-66.961536999999993
 31
0.0
  0
ARC
  5
1A2
  8
DETAIL
  6
CONTINUOUS
 62
     5
 10
80.48075
 20
-66.961536999999993
 30
0.0
 40
8.9423080000000006
 50
180.0
 51
0.0
  0
ARC
  5
1A3
  8
DETAIL
  6
CONTINUOUS
 62
     5
 10
80.48075
 20
-37.153843999999999
 30
0.0
 40
8.9423080000000006
 50
0.0
 51
180.0
  0
LINE
  5
1A4
  8
DETAIL
  6
CONTINUOUS
 62
     5
 10
89.423057
 20
-37.153843999999999
 30
0.0
 11
89.423057
 21
-66.961536999999993
 31
0.0
  0
LINE
  5
1A5
  8
DETAIL
  6
CONTINUOUS
 62
     5
 10
71.538442000000003
 20
15.307694
 30
0.0
 11
71.538442000000003
 21
-14.499998
 31
0.0
  0
LINE
  5
1A6
  8
DETAIL
  6
CONTINUOUS
 62
     5
 10
89.423057
 20
15.307694
 30
0.0
 11
89.423057
 21
-14.499998
 31
0.0
  0
ARC
  5
1A7
  8
DETAIL
  6
CONTINUOUS
 62
     5
 10
80.48075
 20
-14.499998
 30
0.0
 40
8.9423080000000006
 50
180.0
 51
0.0
  0
ARC
  5
1A8
  8
DETAIL
  6
CONTINUOUS
 62
     5
 10
80.48075
 20
15.307694
 30
0.0
 40
8.9423080000000006
 50
0.0
 51
180.0
  0
LINE
  5
1A9
  8
DETAIL
  6
CONTINUOUS
 62
     5
 10
89.423057
 20
15.307694
 30
0.0
 11
89.423057
 21
-14.499998
 31
0.0
  0
LINE
  5
1AA
  8
DETAIL
  6
CONTINUOUS
 62
     5
 10
89.423057
 20
67.769232999999986
 30
0.0
 11
89.423057
 21
37.96154099999999
 31
0.0
  0
ARC
  5
1AB
  8
DETAIL
  6
CONTINUOUS
 62
     5
 10
80.48075
 20
67.769232999999986
 30
0.0
 40
8.9423080000000006
 50
0.0
 51
180.0
  0
ARC
  5
1AC
  8
DETAIL
  6
CONTINUOUS
 62
     5
 10
80.48075
 20
37.96154099999999
 30
0.0
 40
8.9423080000000006
 50
180.0
 51
0.0
  0
LINE
  5
1AD
  8
DETAIL
  6
CONTINUOUS
 62
     5
 10
89.423057
 20
67.769232999999986
 30
0.0
 11
89.423057
 21
37.96154099999999
 31
0.0
  0
LINE
  5
1AE
  8
DETAIL
  6
CONTINUOUS
 62
     5
 10
71.538442000000003
 20
67.769232999999986
 30
0.0
 11
71.538442000000003
 21
37.96154099999999
 31
0.0
  0
LINE
  5
1AF
  8
DETAIL
  6
CONTINUOUS
 62
     5
 10
95.384596000000016
 20
67.769232999999986
 30
0.0
 11
95.384596000000016
 21
37.96154099999999
 31
0.0
  0
LINE
  5
1B0
  8
DETAIL
  6
CONTINUOUS
 62
     5
 10
113.269211
 20
67.769232999999986
 30
0.0
 11
113.269211
 21
37.96154099999999
 31
0.0
  0
ARC
  5
1B1
  8
DETAIL
  6
CONTINUOUS
 62
     5
 10
104.3269039999999
 20
37.96154099999999
 30
0.0
 40
8.9423080000000006
 50
180.0
 51
0.0
  0
ARC
  5
1B2
  8
DETAIL
  6
CONTINUOUS
 62
     5
 10
104.3269039999999
 20
67.769232999999986
 30
0.0
 40
8.9423080000000006
 50
0.0
 51
180.0
  0
LINE
  5
1B3
  8
DETAIL
  6
CONTINUOUS
 62
     5
 10
113.269211
 20
67.769232999999986
 30
0.0
 11
113.269211
 21
37.96154099999999
 31
0.0
  0
LINE
  5
1B4
  8
DETAIL
  6
CONTINUOUS
 62
     5
 10
113.269211
 20
15.307694
 30
0.0
 11
113.269211
 21
-14.499998
 31
0.0
  0
ARC
  5
1B5
  8
DETAIL
  6
CONTINUOUS
 62
     5
 10
104.3269039999999
 20
15.307694
 30
0.0
 40
8.9423080000000006
 50
0.0
 51
180.0
  0
ARC
  5
1B6
  8
DETAIL
  6
CONTINUOUS
 62
     5
 10
104.3269039999999
 20
-14.499998
 30
0.0
 40
8.9423080000000006
 50
180.0
 51
0.0
  0
LINE
  5
1B7
  8
DETAIL
  6
CONTINUOUS
 62
     5
 10
113.269211
 20
15.307694
 30
0.0
 11
113.269211
 21
-14.499998
 31
0.0
  0
LINE
  5
1B8
  8
DETAIL
  6
CONTINUOUS
 62
     5
 10
95.384596000000016
 20
15.307694
 30
0.0
 11
95.384596000000016
 21
-14.499998
 31
0.0
  0
LINE
  5
1B9
  8
DETAIL
  6
CONTINUOUS
 62
     5
 10
113.269211
 20
-37.153843999999999
 30
0.0
 11
113.269211
 21
-66.961536999999993
 31
0.0
  0
ARC
  5
1BA
  8
DETAIL
  6
CONTINUOUS
 62
     5
 10
104.3269039999999
 20
-37.153843999999999
 30
0.0
 40
8.9423080000000006
 50
0.0
 51
180.0
  0
ARC
  5
1BB
  8
DETAIL
  6
CONTINUOUS
 62
     5
 10
104.3269039999999
 20
-66.961536999999993
 30
0.0
 40
8.9423080000000006
 50
180.0
 51
0.0
  0
LINE
  5
1BC
  8
DETAIL
  6
CONTINUOUS
 62
     5
 10
113.269211
 20
-37.153843999999999
 30
0.0
 11
113.269211
 21
-66.961536999999993
 31
0.0
  0
LINE
  5
1BD
  8
DETAIL
  6
CONTINUOUS
 62
     5
 10
95.384596000000016
 20
-37.153843999999999
 30
0.0
 11
95.384596000000016
 21
-66.961536999999993
 31
0.0
  0
LINE
  5
1BE
  8
DETAIL
  6
CONTINUOUS
 62
     5
 10
47.692287999999991
 20
-37.153843999999999
 30
0.0
 11
47.692287999999991
 21
-66.961536999999993
 31
0.0
  0
LINE
  5
1BF
  8
DETAIL
  6
CONTINUOUS
 62
     5
 10
65.576903000000001
 20
-37.153843999999999
 30
0.0
 11
65.576903000000001
 21
-66.961536999999993
 31
0.0
  0
ARC
  5
1C0
  8
DETAIL
  6
CONTINUOUS
 62
     5
 10
56.634595999999988
 20
-66.961536999999993
 30
0.0
 40
8.9423080000000006
 50
180.0
 51
0.0
  0
ARC
  5
1C1
  8
DETAIL
  6
CONTINUOUS
 62
     5
 10
56.634595999999988
 20
-37.153843999999999
 30
0.0
 40
8.9423080000000006
 50
0.0
 51
180.0
  0
LINE
  5
1C2
  8
DETAIL
  6
CONTINUOUS
 62
     5
 10
65.576903000000001
 20
-37.153843999999999
 30
0.0
 11
65.576903000000001
 21
-66.961536999999993
 31
0.0
  0
LINE
  5
1C3
  8
DETAIL
  6
CONTINUOUS
 62
     5
 10
47.692287999999991
 20
15.307694
 30
0.0
 11
47.692287999999991
 21
-14.499998
 31
0.0
  0
LINE
  5
1C4
  8
DETAIL
  6
CONTINUOUS
 62
     5
 10
65.576903000000001
 20
15.307694
 30
0.0
 11
65.576903000000001
 21
-14.499998
 31
0.0
  0
ARC
  5
1C5
  8
DETAIL
  6
CONTINUOUS
 62
     5
 10
56.634595999999988
 20
-14.499998
 30
0.0
 40
8.9423080000000006
 50
180.0
 51
0.0
  0
ARC
  5
1C6
  8
DETAIL
  6
CONTINUOUS
 62
     5
 10
56.634595999999988
 20
15.307694
 30
0.0
 40
8.9423080000000006
 50
0.0
 51
180.0
  0
LINE
  5
1C7
  8
DETAIL
  6
CONTINUOUS
 62
     5
 10
65.576903000000001
 20
15.307694
 30
0.0
 11
65.576903000000001
 21
-14.499998
 31
0.0
  0
LINE
  5
1C8
  8
DETAIL
  6
CONTINUOUS
 62
     5
 10
65.576903000000001
 20
67.769232999999986
 30
0.0
 11
65.576903000000001
 21
37.96154099999999
 31
0.0
  0
ARC
  5
1C9
  8
DETAIL
  6
CONTINUOUS
 62
     5
 10
56.634595999999988
 20
67.769232999999986
 30
0.0
 40
8.9423080000000006
 50
0.0
 51
180.0
  0
ARC
  5
1CA
  8
DETAIL
  6
CONTINUOUS
 62
     5
 10
56.634595999999988
 20
37.96154099999999
 30
0.0
 40
8.9423080000000006
 50
180.0
 51
0.0
  0
LINE
  5
1CB
  8
DETAIL
  6
CONTINUOUS
 62
     5
 10
65.576903000000001
 20
67.769232999999986
 30
0.0
 11
65.576903000000001
 21
37.96154099999999
 31
0.0
  0
LINE
  5
1CC
  8
DETAIL
  6
CONTINUOUS
 62
     5
 10
47.692287999999991
 20
67.769232999999986
 30
0.0
 11
47.692287999999991
 21
37.96154099999999
 31
0.0
  0
LINE
  5
1CD
  8
DETAIL
  6
CONTINUOUS
 62
     5
 10
190.7941129999999
 20
67.769232999999986
 30
0.0
 11
190.7941129999999
 21
37.96154099999999
 31
0.0
  0
LINE
  5
1CE
  8
DETAIL
  6
CONTINUOUS
 62
     5
 10
208.67872800000001
 20
67.769232999999986
 30
0.0
 11
208.67872800000001
 21
37.96154099999999
 31
0.0
  0
ARC
  5
1CF
  8
DETAIL
  6
CONTINUOUS
 62
     5
 10
199.73642100000001
 20
37.96154099999999
 30
0.0
 40
8.9423080000000006
 50
180.0
 51
0.0
  0
ARC
  5
1D0
  8
DETAIL
  6
CONTINUOUS
 62
     5
 10
199.73642100000001
 20
67.769232999999986
 30
0.0
 40
8.9423080000000006
 50
0.0
 51
180.0
  0
LINE
  5
1D1
  8
DETAIL
  6
CONTINUOUS
 62
     5
 10
208.67872800000001
 20
67.769232999999986
 30
0.0
 11
208.67872800000001
 21
37.96154099999999
 31
0.0
  0
LINE
  5
1D2
  8
DETAIL
  6
CONTINUOUS
 62
     5
 10
208.67872800000001
 20
15.307694
 30
0.0
 11
208.67872800000001
 21
-14.499998
 31
0.0
  0
ARC
  5
1D3
  8
DETAIL
  6
CONTINUOUS
 62
     5
 10
199.73642100000001
 20
15.307694
 30
0.0
 40
8.9423080000000006
 50
0.0
 51
180.0
  0
ARC
  5
1D4
  8
DETAIL
  6
CONTINUOUS
 62
     5
 10
199.73642100000001
 20
-14.499998
 30
0.0
 40
8.9423080000000006
 50
180.0
 51
0.0
  0
LINE
  5
1D5
  8
DETAIL
  6
CONTINUOUS
 62
     5
 10
208.67872800000001
 20
15.307694
 30
0.0
 11
208.67872800000001
 21
-14.499998
 31
0.0
  0
LINE
  5
1D6
  8
DETAIL
  6
CONTINUOUS
 62
     5
 10
190.7941129999999
 20
15.307694
 30
0.0
 11
190.7941129999999
 21
-14.499998
 31
0.0
  0
LINE
  5
1D7
  8
DETAIL
  6
CONTINUOUS
 62
     5
 10
208.67872800000001
 20
-37.153843999999999
 30
0.0
 11
208.67872800000001
 21
-66.961536999999993
 31
0.0
  0
ARC
  5
1D8
  8
DETAIL
  6
CONTINUOUS
 62
     5
 10
199.73642100000001
 20
-37.153843999999999
 30
0.0
 40
8.9423080000000006
 50
0.0
 51
180.0
  0
ARC
  5
1D9
  8
DETAIL
  6
CONTINUOUS
 62
     5
 10
199.73642100000001
 20
-66.961536999999993
 30
0.0
 40
8.9423080000000006
 50
180.0
 51
0.0
  0
LINE
  5
1DA
  8
DETAIL
  6
CONTINUOUS
 62
     5
 10
208.67872800000001
 20
-37.153843999999999
 30
0.0
 11
208.67872800000001
 21
-66.961536999999993
 31
0.0
  0
LINE
  5
1DB
  8
DETAIL
  6
CONTINUOUS
 62
     5
 10
190.7941129999999
 20
-37.153843999999999
 30
0.0
 11
190.7941129999999
 21
-66.961536999999993
 31
0.0
  0
LINE
  5
1DC
  8
DETAIL
  6
CONTINUOUS
 62
     5
 10
238.48642099999989
 20
-37.153843999999999
 30
0.0
 11
238.48642099999989
 21
-66.961536999999993
 31
0.0
  0
LINE
  5
1DD
  8
DETAIL
  6
CONTINUOUS
 62
     5
 10
256.37103599999989
 20
-37.153843999999999
 30
0.0
 11
256.37103599999989
 21
-66.961536999999993
 31
0.0
  0
ARC
  5
1DE
  8
DETAIL
  6
CONTINUOUS
 62
     5
 10
247.42872899999989
 20
-66.961536999999993
 30
0.0
 40
8.9423080000000006
 50
180.0
 51
0.0
  0
ARC
  5
1DF
  8
DETAIL
  6
CONTINUOUS
 62
     5
 10
247.42872899999989
 20
-37.153843999999999
 30
0.0
 40
8.9423080000000006
 50
0.0
 51
180.0
  0
LINE
  5
1E0
  8
DETAIL
  6
CONTINUOUS
 62
     5
 10
256.37103599999989
 20
-37.153843999999999
 30
0.0
 11
256.37103599999989
 21
-66.961536999999993
 31
0.0
  0
LINE
  5
1E1
  8
DETAIL
  6
CONTINUOUS
 62
     5
 10
238.48642099999989
 20
15.307694
 30
0.0
 11
238.48642099999989
 21
-14.499998
 31
0.0
  0
LINE
  5
1E2
  8
DETAIL
  6
CONTINUOUS
 62
     5
 10
256.37103599999989
 20
15.307694
 30
0.0
 11
256.37103599999989
 21
-14.499998
 31
0.0
  0
ARC
  5
1E3
  8
DETAIL
  6
CONTINUOUS
 62
     5
 10
247.42872899999989
 20
-14.499998
 30
0.0
 40
8.9423080000000006
 50
180.0
 51
0.0
  0
ARC
  5
1E4
  8
DETAIL
  6
CONTINUOUS
 62
     5
 10
247.42872899999989
 20
15.307694
 30
0.0
 40
8.9423080000000006
 50
0.0
 51
180.0
  0
LINE
  5
1E5
  8
DETAIL
  6
CONTINUOUS
 62
     5
 10
256.37103599999989
 20
15.307694
 30
0.0
 11
256.37103599999989
 21
-14.499998
 31
0.0
  0
LINE
  5
1E6
  8
DETAIL
  6
CONTINUOUS
 62
     5
 10
256.37103599999989
 20
67.769232999999986
 30
0.0
 11
256.37103599999989
 21
37.96154099999999
 31
0.0
  0
ARC
  5
1E7
  8
DETAIL
  6
CONTINUOUS
 62
     5
 10
247.42872899999989
 20
67.769232999999986
 30
0.0
 40
8.9423080000000006
 50
0.0
 51
180.0
  0
ARC
  5
1E8
  8
DETAIL
  6
CONTINUOUS
 62
     5
 10
247.42872899999989
 20
37.96154099999999
 30
0.0
 40
8.9423080000000006
 50
180.0
 51
0.0
  0
LINE
  5
1E9
  8
DETAIL
  6
CONTINUOUS
 62
     5
 10
256.37103599999989
 20
67.769232999999986
 30
0.0
 11
256.37103599999989
 21
37.96154099999999
 31
0.0
  0
LINE
  5
1EA
  8
DETAIL
  6
CONTINUOUS
 62
     5
 10
238.48642099999989
 20
67.769232999999986
 30
0.0
 11
238.48642099999989
 21
37.96154099999999
 31
0.0
  0
LINE
  5
1EB
  8
DETAIL
  6
CONTINUOUS
 62
     5
 10
214.64026699999999
 20
67.769232999999986
 30
0.0
 11
214.64026699999999
 21
37.96154099999999
 31
0.0
  0
LINE
  5
1EC
  8
DETAIL
  6
CONTINUOUS
 62
     5
 10
232.52488199999999
 20
67.769232999999986
 30
0.0
 11
232.52488199999999
 21
37.96154099999999
 31
0.0
  0
ARC
  5
1ED
  8
DETAIL
  6
CONTINUOUS
 62
     5
 10
223.58257499999999
 20
37.96154099999999
 30
0.0
 40
8.9423080000000006
 50
180.0
 51
0.0
  0
ARC
  5
1EE
  8
DETAIL
  6
CONTINUOUS
 62
     5
 10
223.58257499999999
 20
67.769232999999986
 30
0.0
 40
8.9423080000000006
 50
0.0
 51
180.0
  0
LINE
  5
1EF
  8
DETAIL
  6
CONTINUOUS
 62
     5
 10
232.52488199999999
 20
67.769232999999986
 30
0.0
 11
232.52488199999999
 21
37.96154099999999
 31
0.0
  0
LINE
  5
1F0
  8
DETAIL
  6
CONTINUOUS
 62
     5
 10
232.52488199999999
 20
15.307694
 30
0.0
 11
232.52488199999999
 21
-14.499998
 31
0.0
  0
ARC
  5
1F1
  8
DETAIL
  6
CONTINUOUS
 62
     5
 10
223.58257499999999
 20
15.307694
 30
0.0
 40
8.9423080000000006
 50
0.0
 51
180.0
  0
ARC
  5
1F2
  8
DETAIL
  6
CONTINUOUS
 62
     5
 10
223.58257499999999
 20
-14.499998
 30
0.0
 40
8.9423080000000006
 50
180.0
 51
0.0
  0
LINE
  5
1F3
  8
DETAIL
  6
CONTINUOUS
 62
     5
 10
232.52488199999999
 20
15.307694
 30
0.0
 11
232.52488199999999
 21
-14.499998
 31
0.0
  0
LINE
  5
1F4
  8
DETAIL
  6
CONTINUOUS
 62
     5
 10
214.64026699999999
 20
15.307694
 30
0.0
 11
214.64026699999999
 21
-14.499998
 31
0.0
  0
LINE
  5
1F5
  8
DETAIL
  6
CONTINUOUS
 62
     5
 10
232.52488199999999
 20
-37.153843999999999
 30
0.0
 11
232.52488199999999
 21
-66.961536999999993
 31
0.0
  0
ARC
  5
1F6
  8
DETAIL
  6
CONTINUOUS
 62
     5
 10
223.58257499999999
 20
-37.153843999999999
 30
0.0
 40
8.9423080000000006
 50
0.0
 51
180.0
  0
ARC
  5
1F7
  8
DETAIL
  6
CONTINUOUS
 62
     5
 10
223.58257499999999
 20
-66.961536999999993
 30
0.0
 40
8.9423080000000006
 50
180.0
 51
0.0
  0
LINE
  5
1F8
  8
DETAIL
  6
CONTINUOUS
 62
     5
 10
232.52488199999999
 20
-37.153843999999999
 30
0.0
 11
232.52488199999999
 21
-66.961536999999993
 31
0.0
  0
LINE
  5
1F9
  8
DETAIL
  6
CONTINUOUS
 62
     5
 10
214.64026699999999
 20
-37.153843999999999
 30
0.0
 11
214.64026699999999
 21
-66.961536999999993
 31
0.0
  0
LINE
  5
1FA
  8
DETAIL
  6
CONTINUOUS
 62
     5
 10
143.10180500000001
 20
-37.153843999999999
 30
0.0
 11
143.10180500000001
 21
-66.961536999999993
 31
0.0
  0
LINE
  5
1FB
  8
DETAIL
  6
CONTINUOUS
 62
     5
 10
160.9864199999999
 20
-37.153843999999999
 30
0.0
 11
160.9864199999999
 21
-66.961536999999993
 31
0.0
  0
ARC
  5
1FC
  8
DETAIL
  6
CONTINUOUS
 62
     5
 10
152.0441129999999
 20
-66.961536999999993
 30
0.0
 40
8.9423080000000006
 50
180.0
 51
0.0
  0
ARC
  5
1FD
  8
DETAIL
  6
CONTINUOUS
 62
     5
 10
152.0441129999999
 20
-37.153843999999999
 30
0.0
 40
8.9423080000000006
 50
0.0
 51
180.0
  0
LINE
  5
1FE
  8
DETAIL
  6
CONTINUOUS
 62
     5
 10
160.9864199999999
 20
-37.153843999999999
 30
0.0
 11
160.9864199999999
 21
-66.961536999999993
 31
0.0
  0
LINE
  5
1FF
  8
DETAIL
  6
CONTINUOUS
 62
     5
 10
143.10180500000001
 20
15.307694
 30
0.0
 11
143.10180500000001
 21
-14.499998
 31
0.0
  0
LINE
  5
200
  8
DETAIL
  6
CONTINUOUS
 62
     5
 10
160.9864199999999
 20
15.307694
 30
0.0
 11
160.9864199999999
 21
-14.499998
 31
0.0
  0
ARC
  5
201
  8
DETAIL
  6
CONTINUOUS
 62
     5
 10
152.0441129999999
 20
-14.499998
 30
0.0
 40
8.9423080000000006
 50
180.0
 51
0.0
  0
ARC
  5
202
  8
DETAIL
  6
CONTINUOUS
 62
     5
 10
152.0441129999999
 20
15.307694
 30
0.0
 40
8.9423080000000006
 50
0.0
 51
180.0
  0
LINE
  5
203
  8
DETAIL
  6
CONTINUOUS
 62
     5
 10
160.9864199999999
 20
15.307694
 30
0.0
 11
160.9864199999999
 21
-14.499998
 31
0.0
  0
LINE
  5
204
  8
DETAIL
  6
CONTINUOUS
 62
     5
 10
160.9864199999999
 20
67.769232999999986
 30
0.0
 11
160.9864199999999
 21
37.96154099999999
 31
0.0
  0
ARC
  5
205
  8
DETAIL
  6
CONTINUOUS
 62
     5
 10
152.0441129999999
 20
67.769232999999986
 30
0.0
 40
8.9423080000000006
 50
0.0
 51
180.0
  0
ARC
  5
206
  8
DETAIL
  6
CONTINUOUS
 62
     5
 10
152.0441129999999
 20
37.96154099999999
 30
0.0
 40
8.9423080000000006
 50
180.0
 51
0.0
  0
LINE
  5
207
  8
DETAIL
  6
CONTINUOUS
 62
     5
 10
160.9864199999999
 20
67.769232999999986
 30
0.0
 11
160.9864199999999
 21
37.96154099999999
 31
0.0
  0
LINE
  5
208
  8
DETAIL
  6
CONTINUOUS
 62
     5
 10
143.10180500000001
 20
67.769232999999986
 30
0.0
 11
143.10180500000001
 21
37.96154099999999
 31
0.0
  0
LINE
  5
209
  8
DETAIL
  6
CONTINUOUS
 62
     5
 10
166.94795899999991
 20
67.769232999999986
 30
0.0
 11
166.94795899999991
 21
37.96154099999999
 31
0.0
  0
LINE
  5
20A
  8
DETAIL
  6
CONTINUOUS
 62
     5
 10
184.83257399999991
 20
67.769232999999986
 30
0.0
 11
184.83257399999991
 21
37.96154099999999
 31
0.0
  0
ARC
  5
20B
  8
DETAIL
  6
CONTINUOUS
 62
     5
 10
175.89026699999991
 20
37.96154099999999
 30
0.0
 40
8.9423080000000006
 50
180.0
 51
0.0
  0
ARC
  5
20C
  8
DETAIL
  6
CONTINUOUS
 62
     5
 10
175.89026699999991
 20
67.769232999999986
 30
0.0
 40
8.9423080000000006
 50
0.0
 51
180.0
  0
LINE
  5
20D
  8
DETAIL
  6
CONTINUOUS
 62
     5
 10
184.83257399999991
 20
67.769232999999986
 30
0.0
 11
184.83257399999991
 21
37.96154099999999
 31
0.0
  0
LINE
  5
20E
  8
DETAIL
  6
CONTINUOUS
 62
     5
 10
184.83257399999991
 20
15.307694
 30
0.0
 11
184.83257399999991
 21
-14.499998
 31
0.0
  0
ARC
  5
20F
  8
DETAIL
  6
CONTINUOUS
 62
     5
 10
175.89026699999991
 20
15.307694
 30
0.0
 40
8.9423080000000006
 50
0.0
 51
180.0
  0
ARC
  5
210
  8
DETAIL
  6
CONTINUOUS
 62
     5
 10
175.89026699999991
 20
-14.499998
 30
0.0
 40
8.9423080000000006
 50
180.0
 51
0.0
  0
LINE
  5
211
  8
DETAIL
  6
CONTINUOUS
 62
     5
 10
184.83257399999991
 20
15.307694
 30
0.0
 11
184.83257399999991
 21
-14.499998
 31
0.0
  0
LINE
  5
212
  8
DETAIL
  6
CONTINUOUS
 62
     5
 10
166.94795899999991
 20
15.307694
 30
0.0
 11
166.94795899999991
 21
-14.499998
 31
0.0
  0
LINE
  5
213
  8
DETAIL
  6
CONTINUOUS
 62
     5
 10
184.83257399999991
 20
-37.153843999999999
 30
0.0
 11
184.83257399999991
 21
-66.961536999999993
 31
0.0
  0
ARC
  5
214
  8
DETAIL
  6
CONTINUOUS
 62
     5
 10
175.89026699999991
 20
-37.153843999999999
 30
0.0
 40
8.9423080000000006
 50
0.0
 51
180.0
  0
ARC
  5
215
  8
DETAIL
  6
CONTINUOUS
 62
     5
 10
175.89026699999991
 20
-66.961536999999993
 30
0.0
 40
8.9423080000000006
 50
180.0
 51
0.0
  0
LINE
  5
216
  8
DETAIL
  6
CONTINUOUS
 62
     5
 10
184.83257399999991
 20
-37.153843999999999
 30
0.0
 11
184.83257399999991
 21
-66.961536999999993
 31
0.0
  0
LINE
  5
217
  8
DETAIL
  6
CONTINUOUS
 62
     5
 10
166.94795899999991
 20
-37.153843999999999
 30
0.0
 11
166.94795899999991
 21
-66.961536999999993
 31
0.0
  0
LINE
  5
218
  8
DETAIL
  6
CONTINUOUS
 62
     5
 10
119.2556509999999
 20
-37.153843999999999
 30
0.0
 11
119.2556509999999
 21
-66.961536999999993
 31
0.0
  0
LINE
  5
219
  8
DETAIL
  6
CONTINUOUS
 62
     5
 10
137.14026599999991
 20
-37.153843999999999
 30
0.0
 11
137.14026599999991
 21
-66.961536999999993
 31
0.0
  0
ARC
  5
21A
  8
DETAIL
  6
CONTINUOUS
 62
     5
 10
128.19795899999991
 20
-66.961536999999993
 30
0.0
 40
8.9423080000000006
 50
180.0
 51
0.0
  0
ARC
  5
21B
  8
DETAIL
  6
CONTINUOUS
 62
     5
 10
128.19795899999991
 20
-37.153843999999999
 30
0.0
 40
8.9423080000000006
 50
0.0
 51
180.0
  0
LINE
  5
21C
  8
DETAIL
  6
CONTINUOUS
 62
     5
 10
137.14026599999991
 20
-37.153843999999999
 30
0.0
 11
137.14026599999991
 21
-66.961536999999993
 31
0.0
  0
LINE
  5
21D
  8
DETAIL
  6
CONTINUOUS
 62
     5
 10
119.2556509999999
 20
15.307694
 30
0.0
 11
119.2556509999999
 21
-14.499998
 31
0.0
  0
LINE
  5
21E
  8
DETAIL
  6
CONTINUOUS
 62
     5
 10
137.14026599999991
 20
15.307694
 30
0.0
 11
137.14026599999991
 21
-14.499998
 31
0.0
  0
ARC
  5
21F
  8
DETAIL
  6
CONTINUOUS
 62
     5
 10
128.19795899999991
 20
-14.499998
 30
0.0
 40
8.9423080000000006
 50
180.0
 51
0.0
  0
ARC
  5
220
  8
DETAIL
  6
CONTINUOUS
 62
     5
 10
128.19795899999991
 20
15.307694
 30
0.0
 40
8.9423080000000006
 50
0.0
 51
180.0
  0
LINE
  5
221
  8
DETAIL
  6
CONTINUOUS
 62
     5
 10
137.14026599999991
 20
15.307694
 30
0.0
 11
137.14026599999991
 21
-14.499998
 31
0.0
  0
LINE
  5
222
  8
DETAIL
  6
CONTINUOUS
 62
     5
 10
137.14026599999991
 20
67.769232999999986
 30
0.0
 11
137.14026599999991
 21
37.96154099999999
 31
0.0
  0
ARC
  5
223
  8
DETAIL
  6
CONTINUOUS
 62
     5
 10
128.19795899999991
 20
67.769232999999986
 30
0.0
 40
8.9423080000000006
 50
0.0
 51
180.0
  0
ARC
  5
224
  8
DETAIL
  6
CONTINUOUS
 62
     5
 10
128.19795899999991
 20
37.96154099999999
 30
0.0
 40
8.9423080000000006
 50
180.0
 51
0.0
  0
LINE
  5
225
  8
DETAIL
  6
CONTINUOUS
 62
     5
 10
137.14026599999991
 20
67.769232999999986
 30
0.0
 11
137.14026599999991
 21
37.96154099999999
 31
0.0
  0
LINE
  5
226
  8
DETAIL
  6
CONTINUOUS
 62
     5
 10
119.2556509999999
 20
67.769232999999986
 30
0.0
 11
119.2556509999999
 21
37.96154099999999
 31
0.0
  0
LINE
  5
227
  8
DETAIL
  6
CONTINUOUS
 62
     5
 10
-89.423097999999982
 20
67.769232999999986
 30
0.0
 11
-89.423097999999982
 21
37.96154099999999
 31
0.0
  0
LINE
  5
228
  8
DETAIL
  6
CONTINUOUS
 62
     5
 10
-71.538482000000002
 20
67.769232999999986
 30
0.0
 11
-71.538482000000002
 21
37.96154099999999
 31
0.0
  0
ARC
  5
229
  8
DETAIL
  6
CONTINUOUS
 62
     5
 10
-80.480789999999985
 20
37.96154099999999
 30
0.0
 40
8.9423080000000006
 50
180.0
 51
0.0
  0
ARC
  5
22A
  8
DETAIL
  6
CONTINUOUS
 62
     5
 10
-80.480789999999985
 20
67.769232999999986
 30
0.0
 40
8.9423080000000006
 50
0.0
 51
180.0
  0
LINE
  5
22B
  8
DETAIL
  6
CONTINUOUS
 62
     5
 10
-71.538482000000002
 20
67.769232999999986
 30
0.0
 11
-71.538482000000002
 21
37.96154099999999
 31
0.0
  0
LINE
  5
22C
  8
DETAIL
  6
CONTINUOUS
 62
     5
 10
-71.538482000000002
 20
15.307694
 30
0.0
 11
-71.538482000000002
 21
-14.499998
 31
0.0
  0
ARC
  5
22D
  8
DETAIL
  6
CONTINUOUS
 62
     5
 10
-80.480789999999985
 20
15.307694
 30
0.0
 40
8.9423080000000006
 50
0.0
 51
180.0
  0
ARC
  5
22E
  8
DETAIL
  6
CONTINUOUS
 62
     5
 10
-80.480789999999985
 20
-14.499998
 30
0.0
 40
8.9423080000000006
 50
180.0
 51
0.0
  0
LINE
  5
22F
  8
DETAIL
  6
CONTINUOUS
 62
     5
 10
-71.538482000000002
 20
15.307694
 30
0.0
 11
-71.538482000000002
 21
-14.499998
 31
0.0
  0
LINE
  5
230
  8
DETAIL
  6
CONTINUOUS
 62
     5
 10
-89.423097999999982
 20
15.307694
 30
0.0
 11
-89.423097999999982
 21
-14.499998
 31
0.0
  0
LINE
  5
231
  8
DETAIL
  6
CONTINUOUS
 62
     5
 10
-71.538482000000002
 20
-37.153843999999999
 30
0.0
 11
-71.538482000000002
 21
-66.961536999999993
 31
0.0
  0
ARC
  5
232
  8
DETAIL
  6
CONTINUOUS
 62
     5
 10
-80.480789999999985
 20
-37.153843999999999
 30
0.0
 40
8.9423080000000006
 50
0.0
 51
180.0
  0
ARC
  5
233
  8
DETAIL
  6
CONTINUOUS
 62
     5
 10
-80.480789999999985
 20
-66.961536999999993
 30
0.0
 40
8.9423080000000006
 50
180.0
 51
0.0
  0
LINE
  5
234
  8
DETAIL
  6
CONTINUOUS
 62
     5
 10
-71.538482000000002
 20
-37.153843999999999
 30
0.0
 11
-71.538482000000002
 21
-66.961536999999993
 31
0.0
  0
LINE
  5
235
  8
DETAIL
  6
CONTINUOUS
 62
     5
 10
-89.423097999999982
 20
-37.153843999999999
 30
0.0
 11
-89.423097999999982
 21
-66.961536999999993
 31
0.0
  0
LINE
  5
236
  8
DETAIL
  6
CONTINUOUS
 62
     5
 10
-41.730789999999999
 20
-37.153843999999999
 30
0.0
 11
-41.730789999999999
 21
-66.961536999999993
 31
0.0
  0
LINE
  5
237
  8
DETAIL
  6
CONTINUOUS
 62
     5
 10
-23.846173999999991
 20
-37.153843999999999
 30
0.0
 11
-23.846173999999991
 21
-66.961536999999993
 31
0.0
  0
ARC
  5
238
  8
DETAIL
  6
CONTINUOUS
 62
     5
 10
-32.788482000000002
 20
-66.961536999999993
 30
0.0
 40
8.9423080000000006
 50
180.0
 51
0.0
  0
ARC
  5
239
  8
DETAIL
  6
CONTINUOUS
 62
     5
 10
-32.788482000000002
 20
-37.153843999999999
 30
0.0
 40
8.9423080000000006
 50
0.0
 51
180.0
  0
LINE
  5
23A
  8
DETAIL
  6
CONTINUOUS
 62
     5
 10
-23.846173999999991
 20
-37.153843999999999
 30
0.0
 11
-23.846173999999991
 21
-66.961536999999993
 31
0.0
  0
LINE
  5
23B
  8
DETAIL
  6
CONTINUOUS
 62
     5
 10
-41.730789999999999
 20
15.307694
 30
0.0
 11
-41.730789999999999
 21
-14.499998
 31
0.0
  0
LINE
  5
23C
  8
DETAIL
  6
CONTINUOUS
 62
     5
 10
-23.846173999999991
 20
15.307694
 30
0.0
 11
-23.846173999999991
 21
-14.499998
 31
0.0
  0
ARC
  5
23D
  8
DETAIL
  6
CONTINUOUS
 62
     5
 10
-32.788482000000002
 20
-14.499998
 30
0.0
 40
8.9423080000000006
 50
180.0
 51
0.0
  0
ARC
  5
23E
  8
DETAIL
  6
CONTINUOUS
 62
     5
 10
-32.788482000000002
 20
15.307694
 30
0.0
 40
8.9423080000000006
 50
0.0
 51
180.0
  0
LINE
  5
23F
  8
DETAIL
  6
CONTINUOUS
 62
     5
 10
-23.846173999999991
 20
15.307694
 30
0.0
 11
-23.846173999999991
 21
-14.499998
 31
0.0
  0
LINE
  5
240
  8
DETAIL
  6
CONTINUOUS
 62
     5
 10
-23.846173999999991
 20
67.769232999999986
 30
0.0
 11
-23.846173999999991
 21
37.96154099999999
 31
0.0
  0
ARC
  5
241
  8
DETAIL
  6
CONTINUOUS
 62
     5
 10
-32.788482000000002
 20
67.769232999999986
 30
0.0
 40
8.9423080000000006
 50
0.0
 51
180.0
  0
ARC
  5
242
  8
DETAIL
  6
CONTINUOUS
 62
     5
 10
-32.788482000000002
 20
37.96154099999999
 30
0.0
 40
8.9423080000000006
 50
180.0
 51
0.0
  0
LINE
  5
243
  8
DETAIL
  6
CONTINUOUS
 62
     5
 10
-23.846173999999991
 20
67.769232999999986
 30
0.0
 11
-23.846173999999991
 21
37.96154099999999
 31
0.0
  0
LINE
  5
244
  8
DETAIL
  6
CONTINUOUS
 62
     5
 10
-41.730789999999999
 20
67.769232999999986
 30
0.0
 11
-41.730789999999999
 21
37.96154099999999
 31
0.0
  0
LINE
  5
245
  8
DETAIL
  6
CONTINUOUS
 62
     5
 10
-65.576943999999983
 20
67.769232999999986
 30
0.0
 11
-65.576943999999983
 21
37.96154099999999
 31
0.0
  0
LINE
  5
246
  8
DETAIL
  6
CONTINUOUS
 62
     5
 10
-47.692328000000003
 20
67.769232999999986
 30
0.0
 11
-47.692328000000003
 21
37.96154099999999
 31
0.0
  0
ARC
  5
247
  8
DETAIL
  6
CONTINUOUS
 62
     5
 10
-56.634636
 20
37.96154099999999
 30
0.0
 40
8.9423080000000006
 50
180.0
 51
0.0
  0
ARC
  5
248
  8
DETAIL
  6
CONTINUOUS
 62
     5
 10
-56.634636
 20
67.769232999999986
 30
0.0
 40
8.9423080000000006
 50
0.0
 51
180.0
  0
LINE
  5
249
  8
DETAIL
  6
CONTINUOUS
 62
     5
 10
-47.692328000000003
 20
67.769232999999986
 30
0.0
 11
-47.692328000000003
 21
37.96154099999999
 31
0.0
  0
LINE
  5
24A
  8
DETAIL
  6
CONTINUOUS
 62
     5
 10
-47.692328000000003
 20
15.307694
 30
0.0
 11
-47.692328000000003
 21
-14.499998
 31
0.0
  0
ARC
  5
24B
  8
DETAIL
  6
CONTINUOUS
 62
     5
 10
-56.634636
 20
15.307694
 30
0.0
 40
8.9423080000000006
 50
0.0
 51
180.0
  0
ARC
  5
24C
  8
DETAIL
  6
CONTINUOUS
 62
     5
 10
-56.634636
 20
-14.499998
 30
0.0
 40
8.9423080000000006
 50
180.0
 51
0.0
  0
LINE
  5
24D
  8
DETAIL
  6
CONTINUOUS
 62
     5
 10
-47.692328000000003
 20
15.307694
 30
0.0
 11
-47.692328000000003
 21
-14.499998
 31
0.0
  0
LINE
  5
24E
  8
DETAIL
  6
CONTINUOUS
 62
     5
 10
-65.576943999999983
 20
15.307694
 30
0.0
 11
-65.576943999999983
 21
-14.499998
 31
0.0
  0
LINE
  5
24F
  8
DETAIL
  6
CONTINUOUS
 62
     5
 10
-47.692328000000003
 20
-37.153843999999999
 30
0.0
 11
-47.692328000000003
 21
-66.961536999999993
 31
0.0
  0
ARC
  5
250
  8
DETAIL
  6
CONTINUOUS
 62
     5
 10
-56.634636
 20
-37.153843999999999
 30
0.0
 40
8.9423080000000006
 50
0.0
 51
180.0
  0
ARC
  5
251
  8
DETAIL
  6
CONTINUOUS
 62
     5
 10
-56.634636
 20
-66.961536999999993
 30
0.0
 40
8.9423080000000006
 50
180.0
 51
0.0
  0
LINE
  5
252
  8
DETAIL
  6
CONTINUOUS
 62
     5
 10
-47.692328000000003
 20
-37.153843999999999
 30
0.0
 11
-47.692328000000003
 21
-66.961536999999993
 31
0.0
  0
LINE
  5
253
  8
DETAIL
  6
CONTINUOUS
 62
     5
 10
-65.576943999999983
 20
-37.153843999999999
 30
0.0
 11
-65.576943999999983
 21
-66.961536999999993
 31
0.0
  0
LINE
  5
254
  8
DETAIL
  6
CONTINUOUS
 62
     5
 10
5.9615179999999981
 20
-37.153843999999999
 30
0.0
 11
5.9615179999999981
 21
-66.961536999999993
 31
0.0
  0
LINE
  5
255
  8
DETAIL
  6
CONTINUOUS
 62
     5
 10
23.846133999999999
 20
-37.153843999999999
 30
0.0
 11
23.846133999999999
 21
-66.961536999999993
 31
0.0
  0
ARC
  5
256
  8
DETAIL
  6
CONTINUOUS
 62
     5
 10
14.903826
 20
-66.961536999999993
 30
0.0
 40
8.9423080000000006
 50
180.0
 51
0.0
  0
ARC
  5
257
  8
DETAIL
  6
CONTINUOUS
 62
     5
 10
14.903826
 20
-37.153843999999999
 30
0.0
 40
8.9423080000000006
 50
0.0
 51
180.0
  0
LINE
  5
258
  8
DETAIL
  6
CONTINUOUS
 62
     5
 10
23.846133999999999
 20
-37.153843999999999
 30
0.0
 11
23.846133999999999
 21
-66.961536999999993
 31
0.0
  0
LINE
  5
259
  8
DETAIL
  6
CONTINUOUS
 62
     5
 10
5.9615179999999981
 20
15.307694
 30
0.0
 11
5.9615179999999981
 21
-14.499998
 31
0.0
  0
LINE
  5
25A
  8
DETAIL
  6
CONTINUOUS
 62
     5
 10
23.846133999999999
 20
15.307694
 30
0.0
 11
23.846133999999999
 21
-14.499998
 31
0.0
  0
ARC
  5
25B
  8
DETAIL
  6
CONTINUOUS
 62
     5
 10
14.903826
 20
-14.499998
 30
0.0
 40
8.9423080000000006
 50
180.0
 51
0.0
  0
ARC
  5
25C
  8
DETAIL
  6
CONTINUOUS
 62
     5
 10
14.903826
 20
15.307694
 30
0.0
 40
8.9423080000000006
 50
0.0
 51
180.0
  0
LINE
  5
25D
  8
DETAIL
  6
CONTINUOUS
 62
     5
 10
23.846133999999999
 20
15.307694
 30
0.0
 11
23.846133999999999
 21
-14.499998
 31
0.0
  0
LINE
  5
25E
  8
DETAIL
  6
CONTINUOUS
 62
     5
 10
23.846133999999999
 20
67.769232999999986
 30
0.0
 11
23.846133999999999
 21
37.96154099999999
 31
0.0
  0
ARC
  5
25F
  8
DETAIL
  6
CONTINUOUS
 62
     5
 10
14.903826
 20
67.769232999999986
 30
0.0
 40
8.9423080000000006
 50
0.0
 51
180.0
  0
ARC
  5
260
  8
DETAIL
  6
CONTINUOUS
 62
     5
 10
14.903826
 20
37.96154099999999
 30
0.0
 40
8.9423080000000006
 50
180.0
 51
0.0
  0
LINE
  5
261
  8
DETAIL
  6
CONTINUOUS
 62
     5
 10
23.846133999999999
 20
67.769232999999986
 30
0.0
 11
23.846133999999999
 21
37.96154099999999
 31
0.0
  0
LINE
  5
262
  8
DETAIL
  6
CONTINUOUS
 62
     5
 10
5.9615179999999981
 20
67.769232999999986
 30
0.0
 11
5.9615179999999981
 21
37.96154099999999
 31
0.0
  0
LINE
  5
263
  8
DETAIL
  6
CONTINUOUS
 62
     5
 10
29.80767199999999
 20
67.769232999999986
 30
0.0
 11
29.80767199999999
 21
37.96154099999999
 31
0.0
  0
LINE
  5
264
  8
DETAIL
  6
CONTINUOUS
 62
     5
 10
47.692287999999991
 20
67.769232999999986
 30
0.0
 11
47.692287999999991
 21
37.96154099999999
 31
0.0
  0
ARC
  5
265
  8
DETAIL
  6
CONTINUOUS
 62
     5
 10
38.749980000000001
 20
37.96154099999999
 30
0.0
 40
8.9423080000000006
 50
180.0
 51
0.0
  0
ARC
  5
266
  8
DETAIL
  6
CONTINUOUS
 62
     5
 10
38.749980000000001
 20
67.769232999999986
 30
0.0
 40
8.9423080000000006
 50
0.0
 51
180.0
  0
LINE
  5
267
  8
DETAIL
  6
CONTINUOUS
 62
     5
 10
47.692287999999991
 20
67.769232999999986
 30
0.0
 11
47.692287999999991
 21
37.96154099999999
 31
0.0
  0
LINE
  5
268
  8
DETAIL
  6
CONTINUOUS
 62
     5
 10
47.692287999999991
 20
15.307694
 30
0.0
 11
47.692287999999991
 21
-14.499998
 31
0.0
  0
ARC
  5
269
  8
DETAIL
  6
CONTINUOUS
 62
     5
 10
38.749980000000001
 20
15.307694
 30
0.0
 40
8.9423080000000006
 50
0.0
 51
180.0
  0
ARC
  5
26A
  8
DETAIL
  6
CONTINUOUS
 62
     5
 10
38.749980000000001
 20
-14.499998
 30
0.0
 40
8.9423080000000006
 50
180.0
 51
0.0
  0
LINE
  5
26B
  8
DETAIL
  6
CONTINUOUS
 62
     5
 10
47.692287999999991
 20
15.307694
 30
0.0
 11
47.692287999999991
 21
-14.499998
 31
0.0
  0
LINE
  5
26C
  8
DETAIL
  6
CONTINUOUS
 62
     5
 10
29.80767199999999
 20
15.307694
 30
0.0
 11
29.80767199999999
 21
-14.499998
 31
0.0
  0
LINE
  5
26D
  8
DETAIL
  6
CONTINUOUS
 62
     5
 10
47.692287999999991
 20
-37.153843999999999
 30
0.0
 11
47.692287999999991
 21
-66.961536999999993
 31
0.0
  0
ARC
  5
26E
  8
DETAIL
  6
CONTINUOUS
 62
     5
 10
38.749980000000001
 20
-37.153843999999999
 30
0.0
 40
8.9423080000000006
 50
0.0
 51
180.0
  0
ARC
  5
26F
  8
DETAIL
  6
CONTINUOUS
 62
     5
 10
38.749980000000001
 20
-66.961536999999993
 30
0.0
 40
8.9423080000000006
 50
180.0
 51
0.0
  0
LINE
  5
270
  8
DETAIL
  6
CONTINUOUS
 62
     5
 10
47.692287999999991
 20
-37.153843999999999
 30
0.0
 11
47.692287999999991
 21
-66.961536999999993
 31
0.0
  0
LINE
  5
271
  8
DETAIL
  6
CONTINUOUS
 62
     5
 10
29.80767199999999
 20
-37.153843999999999
 30
0.0
 11
29.80767199999999
 21
-66.961536999999993
 31
0.0
  0
LINE
  5
272
  8
DETAIL
  6
CONTINUOUS
 62
     5
 10
-17.88463599999999
 20
-37.153843999999999
 30
0.0
 11
-17.88463599999999
 21
-66.961536999999993
 31
0.0
  0
LINE
  5
273
  8
DETAIL
  6
CONTINUOUS
 62
     5
 10
-0.00002
 20
-37.153843999999999
 30
0.0
 11
-0.00002
 21
-66.961536999999993
 31
0.0
  0
ARC
  5
274
  8
DETAIL
  6
CONTINUOUS
 62
     5
 10
-8.9423279999999998
 20
-66.961536999999993
 30
0.0
 40
8.9423080000000006
 50
180.0
 51
0.0
  0
ARC
  5
275
  8
DETAIL
  6
CONTINUOUS
 62
     5
 10
-8.9423279999999998
 20
-37.153843999999999
 30
0.0
 40
8.9423080000000006
 50
0.0
 51
180.0
  0
LINE
  5
276
  8
DETAIL
  6
CONTINUOUS
 62
     5
 10
-0.00002
 20
-37.153843999999999
 30
0.0
 11
-0.00002
 21
-66.961536999999993
 31
0.0
  0
LINE
  5
277
  8
DETAIL
  6
CONTINUOUS
 62
     5
 10
-17.88463599999999
 20
15.307694
 30
0.0
 11
-17.88463599999999
 21
-14.499998
 31
0.0
  0
LINE
  5
278
  8
DETAIL
  6
CONTINUOUS
 62
     5
 10
-0.00002
 20
15.307694
 30
0.0
 11
-0.00002
 21
-14.499998
 31
0.0
  0
ARC
  5
279
  8
DETAIL
  6
CONTINUOUS
 62
     5
 10
-8.9423279999999998
 20
-14.499998
 30
0.0
 40
8.9423080000000006
 50
180.0
 51
0.0
  0
ARC
  5
27A
  8
DETAIL
  6
CONTINUOUS
 62
     5
 10
-8.9423279999999998
 20
15.307694
 30
0.0
 40
8.9423080000000006
 50
0.0
 51
180.0
  0
LINE
  5
27B
  8
DETAIL
  6
CONTINUOUS
 62
     5
 10
-0.00002
 20
15.307694
 30
0.0
 11
-0.00002
 21
-14.499998
 31
0.0
  0
LINE
  5
27C
  8
DETAIL
  6
CONTINUOUS
 62
     5
 10
-0.00002
 20
67.769232999999986
 30
0.0
 11
-0.00002
 21
37.96154099999999
 31
0.0
  0
ARC
  5
27D
  8
DETAIL
  6
CONTINUOUS
 62
     5
 10
-8.9423279999999998
 20
67.769232999999986
 30
0.0
 40
8.9423080000000006
 50
0.0
 51
180.0
  0
ARC
  5
27E
  8
DETAIL
  6
CONTINUOUS
 62
     5
 10
-8.9423279999999998
 20
37.96154099999999
 30
0.0
 40
8.9423080000000006
 50
180.0
 51
0.0
  0
LINE
  5
27F
  8
DETAIL
  6
CONTINUOUS
 62
     5
 10
-0.00002
 20
67.769232999999986
 30
0.0
 11
-0.00002
 21
37.96154099999999
 31
0.0
  0
LINE
  5
280
  8
DETAIL
  6
CONTINUOUS
 62
     5
 10
-17.88463599999999
 20
67.769232999999986
 30
0.0
 11
-17.88463599999999
 21
37.96154099999999
 31
0.0
  0
LINE
  5
281
  8
DETAIL
  6
CONTINUOUS
 62
     5
 10
-160.98646099999999
 20
67.769232999999986
 30
0.0
 11
-160.98646099999999
 21
37.96154099999999
 31
0.0
  0
LINE
  5
282
  8
DETAIL
  6
CONTINUOUS
 62
     5
 10
-143.101845
 20
67.769232999999986
 30
0.0
 11
-143.101845
 21
37.96154099999999
 31
0.0
  0
ARC
  5
283
  8
DETAIL
  6
CONTINUOUS
 62
     5
 10
-152.04415299999999
 20
37.96154099999999
 30
0.0
 40
8.9423080000000006
 50
180.0
 51
0.0
  0
ARC
  5
284
  8
DETAIL
  6
CONTINUOUS
 62
     5
 10
-152.04415299999999
 20
67.769232999999986
 30
0.0
 40
8.9423080000000006
 50
0.0
 51
180.0
  0
LINE
  5
285
  8
DETAIL
  6
CONTINUOUS
 62
     5
 10
-143.101845
 20
67.769232999999986
 30
0.0
 11
-143.101845
 21
37.96154099999999
 31
0.0
  0
LINE
  5
286
  8
DETAIL
  6
CONTINUOUS
 62
     5
 10
-143.101845
 20
15.307694
 30
0.0
 11
-143.101845
 21
-14.499998
 31
0.0
  0
ARC
  5
287
  8
DETAIL
  6
CONTINUOUS
 62
     5
 10
-152.04415299999999
 20
15.307694
 30
0.0
 40
8.9423080000000006
 50
0.0
 51
180.0
  0
ARC
  5
288
  8
DETAIL
  6
CONTINUOUS
 62
     5
 10
-152.04415299999999
 20
-14.499998
 30
0.0
 40
8.9423080000000006
 50
180.0
 51
0.0
  0
LINE
  5
289
  8
DETAIL
  6
CONTINUOUS
 62
     5
 10
-143.101845
 20
15.307694
 30
0.0
 11
-143.101845
 21
-14.499998
 31
0.0
  0
LINE
  5
28A
  8
DETAIL
  6
CONTINUOUS
 62
     5
 10
-160.98646099999999
 20
15.307694
 30
0.0
 11
-160.98646099999999
 21
-14.499998
 31
0.0
  0
LINE
  5
28B
  8
DETAIL
  6
CONTINUOUS
 62
     5
 10
-143.101845
 20
-37.153843999999999
 30
0.0
 11
-143.101845
 21
-66.961536999999993
 31
0.0
  0
ARC
  5
28C
  8
DETAIL
  6
CONTINUOUS
 62
     5
 10
-152.04415299999999
 20
-37.153843999999999
 30
0.0
 40
8.9423080000000006
 50
0.0
 51
180.0
  0
ARC
  5
28D
  8
DETAIL
  6
CONTINUOUS
 62
     5
 10
-152.04415299999999
 20
-66.961536999999993
 30
0.0
 40
8.9423080000000006
 50
180.0
 51
0.0
  0
LINE
  5
28E
  8
DETAIL
  6
CONTINUOUS
 62
     5
 10
-143.101845
 20
-37.153843999999999
 30
0.0
 11
-143.101845
 21
-66.961536999999993
 31
0.0
  0
LINE
  5
28F
  8
DETAIL
  6
CONTINUOUS
 62
     5
 10
-160.98646099999999
 20
-37.153843999999999
 30
0.0
 11
-160.98646099999999
 21
-66.961536999999993
 31
0.0
  0
LINE
  5
290
  8
DETAIL
  6
CONTINUOUS
 62
     5
 10
-113.29415299999999
 20
-37.153843999999999
 30
0.0
 11
-113.29415299999999
 21
-66.961536999999993
 31
0.0
  0
LINE
  5
291
  8
DETAIL
  6
CONTINUOUS
 62
     5
 10
-95.409537000000014
 20
-37.153843999999999
 30
0.0
 11
-95.409537000000014
 21
-66.961536999999993
 31
0.0
  0
ARC
  5
292
  8
DETAIL
  6
CONTINUOUS
 62
     5
 10
-104.351845
 20
-66.961536999999993
 30
0.0
 40
8.9423080000000006
 50
180.0
 51
0.0
  0
ARC
  5
293
  8
DETAIL
  6
CONTINUOUS
 62
     5
 10
-104.351845
 20
-37.153843999999999
 30
0.0
 40
8.9423080000000006
 50
0.0
 51
180.0
  0
LINE
  5
294
  8
DETAIL
  6
CONTINUOUS
 62
     5
 10
-95.409537000000014
 20
-37.153843999999999
 30
0.0
 11
-95.409537000000014
 21
-66.961536999999993
 31
0.0
  0
LINE
  5
295
  8
DETAIL
  6
CONTINUOUS
 62
     5
 10
-113.29415299999999
 20
15.307694
 30
0.0
 11
-113.29415299999999
 21
-14.499998
 31
0.0
  0
LINE
  5
296
  8
DETAIL
  6
CONTINUOUS
 62
     5
 10
-95.409537000000014
 20
15.307694
 30
0.0
 11
-95.409537000000014
 21
-14.499998
 31
0.0
  0
ARC
  5
297
  8
DETAIL
  6
CONTINUOUS
 62
     5
 10
-104.351845
 20
-14.499998
 30
0.0
 40
8.9423080000000006
 50
180.0
 51
0.0
  0
ARC
  5
298
  8
DETAIL
  6
CONTINUOUS
 62
     5
 10
-104.351845
 20
15.307694
 30
0.0
 40
8.9423080000000006
 50
0.0
 51
180.0
  0
LINE
  5
299
  8
DETAIL
  6
CONTINUOUS
 62
     5
 10
-95.409537000000014
 20
15.307694
 30
0.0
 11
-95.409537000000014
 21
-14.499998
 31
0.0
  0
LINE
  5
29A
  8
DETAIL
  6
CONTINUOUS
 62
     5
 10
-95.409537000000014
 20
67.769232999999986
 30
0.0
 11
-95.409537000000014
 21
37.96154099999999
 31
0.0
  0
ARC
  5
29B
  8
DETAIL
  6
CONTINUOUS
 62
     5
 10
-104.351845
 20
67.769232999999986
 30
0.0
 40
8.9423080000000006
 50
0.0
 51
180.0
  0
ARC
  5
29C
  8
DETAIL
  6
CONTINUOUS
 62
     5
 10
-104.351845
 20
37.96154099999999
 30
0.0
 40
8.9423080000000006
 50
180.0
 51
0.0
  0
LINE
  5
29D
  8
DETAIL
  6
CONTINUOUS
 62
     5
 10
-95.409537000000014
 20
67.769232999999986
 30
0.0
 11
-95.409537000000014
 21
37.96154099999999
 31
0.0
  0
LINE
  5
29E
  8
DETAIL
  6
CONTINUOUS
 62
     5
 10
-113.29415299999999
 20
67.769232999999986
 30
0.0
 11
-113.29415299999999
 21
37.96154099999999
 31
0.0
  0
LINE
  5
29F
  8
DETAIL
  6
CONTINUOUS
 62
     5
 10
-137.14030700000001
 20
67.769232999999986
 30
0.0
 11
-137.14030700000001
 21
37.96154099999999
 31
0.0
  0
LINE
  5
2A0
  8
DETAIL
  6
CONTINUOUS
 62
     5
 10
-119.2556909999999
 20
67.769232999999986
 30
0.0
 11
-119.2556909999999
 21
37.96154099999999
 31
0.0
  0
ARC
  5
2A1
  8
DETAIL
  6
CONTINUOUS
 62
     5
 10
-128.19799900000001
 20
37.96154099999999
 30
0.0
 40
8.9423080000000006
 50
180.0
 51
0.0
  0
ARC
  5
2A2
  8
DETAIL
  6
CONTINUOUS
 62
     5
 10
-128.19799900000001
 20
67.769232999999986
 30
0.0
 40
8.9423080000000006
 50
0.0
 51
180.0
  0
LINE
  5
2A3
  8
DETAIL
  6
CONTINUOUS
 62
     5
 10
-119.2556909999999
 20
67.769232999999986
 30
0.0
 11
-119.2556909999999
 21
37.96154099999999
 31
0.0
  0
LINE
  5
2A4
  8
DETAIL
  6
CONTINUOUS
 62
     5
 10
-119.2556909999999
 20
15.307694
 30
0.0
 11
-119.2556909999999
 21
-14.499998
 31
0.0
  0
ARC
  5
2A5
  8
DETAIL
  6
CONTINUOUS
 62
     5
 10
-128.19799900000001
 20
15.307694
 30
0.0
 40
8.9423080000000006
 50
0.0
 51
180.0
  0
ARC
  5
2A6
  8
DETAIL
  6
CONTINUOUS
 62
     5
 10
-128.19799900000001
 20
-14.499998
 30
0.0
 40
8.9423080000000006
 50
180.0
 51
0.0
  0
LINE
  5
2A7
  8
DETAIL
  6
CONTINUOUS
 62
     5
 10
-119.2556909999999
 20
15.307694
 30
0.0
 11
-119.2556909999999
 21
-14.499998
 31
0.0
  0
LINE
  5
2A8
  8
DETAIL
  6
CONTINUOUS
 62
     5
 10
-137.14030700000001
 20
15.307694
 30
0.0
 11
-137.14030700000001
 21
-14.499998
 31
0.0
  0
LINE
  5
2A9
  8
DETAIL
  6
CONTINUOUS
 62
     5
 10
-119.2556909999999
 20
-37.153843999999999
 30
0.0
 11
-119.2556909999999
 21
-66.961536999999993
 31
0.0
  0
ARC
  5
2AA
  8
DETAIL
  6
CONTINUOUS
 62
     5
 10
-128.19799900000001
 20
-37.153843999999999
 30
0.0
 40
8.9423080000000006
 50
0.0
 51
180.0
  0
ARC
  5
2AB
  8
DETAIL
  6
CONTINUOUS
 62
     5
 10
-128.19799900000001
 20
-66.961536999999993
 30
0.0
 40
8.9423080000000006
 50
180.0
 51
0.0
  0
LINE
  5
2AC
  8
DETAIL
  6
CONTINUOUS
 62
     5
 10
-119.2556909999999
 20
-37.153843999999999
 30
0.0
 11
-119.2556909999999
 21
-66.961536999999993
 31
0.0
  0
LINE
  5
2AD
  8
DETAIL
  6
CONTINUOUS
 62
     5
 10
-137.14030700000001
 20
-37.153843999999999
 30
0.0
 11
-137.14030700000001
 21
-66.961536999999993
 31
0.0
  0
LINE
  5
2AE
  8
DETAIL
  6
CONTINUOUS
 62
     5
 10
-208.6787689999999
 20
-37.153843999999999
 30
0.0
 11
-208.6787689999999
 21
-66.961536999999993
 31
0.0
  0
LINE
  5
2AF
  8
DETAIL
  6
CONTINUOUS
 62
     5
 10
-190.79415299999999
 20
-37.153843999999999
 30
0.0
 11
-190.79415299999999
 21
-66.961536999999993
 31
0.0
  0
ARC
  5
2B0
  8
DETAIL
  6
CONTINUOUS
 62
     5
 10
-199.73646099999999
 20
-66.961536999999993
 30
0.0
 40
8.9423080000000006
 50
180.0
 51
0.0
  0
ARC
  5
2B1
  8
DETAIL
  6
CONTINUOUS
 62
     5
 10
-199.73646099999999
 20
-37.153843999999999
 30
0.0
 40
8.9423080000000006
 50
0.0
 51
180.0
  0
LINE
  5
2B2
  8
DETAIL
  6
CONTINUOUS
 62
     5
 10
-190.79415299999999
 20
-37.153843999999999
 30
0.0
 11
-190.79415299999999
 21
-66.961536999999993
 31
0.0
  0
LINE
  5
2B3
  8
DETAIL
  6
CONTINUOUS
 62
     5
 10
-208.6787689999999
 20
15.307694
 30
0.0
 11
-208.6787689999999
 21
-14.499998
 31
0.0
  0
LINE
  5
2B4
  8
DETAIL
  6
CONTINUOUS
 62
     5
 10
-190.79415299999999
 20
15.307694
 30
0.0
 11
-190.79415299999999
 21
-14.499998
 31
0.0
  0
ARC
  5
2B5
  8
DETAIL
  6
CONTINUOUS
 62
     5
 10
-199.73646099999999
 20
-14.499998
 30
0.0
 40
8.9423080000000006
 50
180.0
 51
0.0
  0
ARC
  5
2B6
  8
DETAIL
  6
CONTINUOUS
 62
     5
 10
-199.73646099999999
 20
15.307694
 30
0.0
 40
8.9423080000000006
 50
0.0
 51
180.0
  0
LINE
  5
2B7
  8
DETAIL
  6
CONTINUOUS
 62
     5
 10
-190.79415299999999
 20
15.307694
 30
0.0
 11
-190.79415299999999
 21
-14.499998
 31
0.0
  0
LINE
  5
2B8
  8
DETAIL
  6
CONTINUOUS
 62
     5
 10
-190.79415299999999
 20
67.769232999999986
 30
0.0
 11
-190.79415299999999
 21
37.96154099999999
 31
0.0
  0
ARC
  5
2B9
  8
DETAIL
  6
CONTINUOUS
 62
     5
 10
-199.73646099999999
 20
67.769232999999986
 30
0.0
 40
8.9423080000000006
 50
0.0
 51
180.0
  0
ARC
  5
2BA
  8
DETAIL
  6
CONTINUOUS
 62
     5
 10
-199.73646099999999
 20
37.96154099999999
 30
0.0
 40
8.9423080000000006
 50
180.0
 51
0.0
  0
LINE
  5
2BB
  8
DETAIL
  6
CONTINUOUS
 62
     5
 10
-190.79415299999999
 20
67.769232999999986
 30
0.0
 11
-190.79415299999999
 21
37.96154099999999
 31
0.0
  0
LINE
  5
2BC
  8
DETAIL
  6
CONTINUOUS
 62
     5
 10
-208.6787689999999
 20
67.769232999999986
 30
0.0
 11
-208.6787689999999
 21
37.96154099999999
 31
0.0
  0
LINE
  5
2BD
  8
DETAIL
  6
CONTINUOUS
 62
     5
 10
-184.832615
 20
67.769232999999986
 30
0.0
 11
-184.832615
 21
37.96154099999999
 31
0.0
  0
LINE
  5
2BE
  8
DETAIL
  6
CONTINUOUS
 62
     5
 10
-166.94799900000001
 20
67.769232999999986
 30
0.0
 11
-166.94799900000001
 21
37.96154099999999
 31
0.0
  0
ARC
  5
2BF
  8
DETAIL
  6
CONTINUOUS
 62
     5
 10
-175.89030700000001
 20
37.96154099999999
 30
0.0
 40
8.9423080000000006
 50
180.0
 51
0.0
  0
ARC
  5
2C0
  8
DETAIL
  6
CONTINUOUS
 62
     5
 10
-175.89030700000001
 20
67.769232999999986
 30
0.0
 40
8.9423080000000006
 50
0.0
 51
180.0
  0
LINE
  5
2C1
  8
DETAIL
  6
CONTINUOUS
 62
     5
 10
-166.94799900000001
 20
67.769232999999986
 30
0.0
 11
-166.94799900000001
 21
37.96154099999999
 31
0.0
  0
LINE
  5
2C2
  8
DETAIL
  6
CONTINUOUS
 62
     5
 10
-166.94799900000001
 20
15.307694
 30
0.0
 11
-166.94799900000001
 21
-14.499998
 31
0.0
  0
ARC
  5
2C3
  8
DETAIL
  6
CONTINUOUS
 62
     5
 10
-175.89030700000001
 20
15.307694
 30
0.0
 40
8.9423080000000006
 50
0.0
 51
180.0
  0
ARC
  5
2C4
  8
DETAIL
  6
CONTINUOUS
 62
     5
 10
-175.89030700000001
 20
-14.499998
 30
0.0
 40
8.9423080000000006
 50
180.0
 51
0.0
  0
LINE
  5
2C5
  8
DETAIL
  6
CONTINUOUS
 62
     5
 10
-166.94799900000001
 20
15.307694
 30
0.0
 11
-166.94799900000001
 21
-14.499998
 31
0.0
  0
LINE
  5
2C6
  8
DETAIL
  6
CONTINUOUS
 62
     5
 10
-184.832615
 20
15.307694
 30
0.0
 11
-184.832615
 21
-14.499998
 31
0.0
  0
LINE
  5
2C7
  8
DETAIL
  6
CONTINUOUS
 62
     5
 10
-166.94799900000001
 20
-37.153843999999999
 30
0.0
 11
-166.94799900000001
 21
-66.961536999999993
 31
0.0
  0
ARC
  5
2C8
  8
DETAIL
  6
CONTINUOUS
 62
     5
 10
-175.89030700000001
 20
-37.153843999999999
 30
0.0
 40
8.9423080000000006
 50
0.0
 51
180.0
  0
ARC
  5
2C9
  8
DETAIL
  6
CONTINUOUS
 62
     5
 10
-175.89030700000001
 20
-66.961536999999993
 30
0.0
 40
8.9423080000000006
 50
180.0
 51
0.0
  0
LINE
  5
2CA
  8
DETAIL
  6
CONTINUOUS
 62
     5
 10
-166.94799900000001
 20
-37.153843999999999
 30
0.0
 11
-166.94799900000001
 21
-66.961536999999993
 31
0.0
  0
LINE
  5
2CB
  8
DETAIL
  6
CONTINUOUS
 62
     5
 10
-184.832615
 20
-37.153843999999999
 30
0.0
 11
-184.832615
 21
-66.961536999999993
 31
0.0
  0
LINE
  5
2CC
  8
DETAIL
  6
CONTINUOUS
 62
     5
 10
-232.524923
 20
-37.153843999999999
 30
0.0
 11
-232.524923
 21
-66.961536999999993
 31
0.0
  0
LINE
  5
2CD
  8
DETAIL
  6
CONTINUOUS
 62
     5
 10
-214.64030699999989
 20
-37.153843999999999
 30
0.0
 11
-214.64030699999989
 21
-66.961536999999993
 31
0.0
  0
ARC
  5
2CE
  8
DETAIL
  6
CONTINUOUS
 62
     5
 10
-223.582615
 20
-66.961536999999993
 30
0.0
 40
8.9423080000000006
 50
180.0
 51
0.0
  0
ARC
  5
2CF
  8
DETAIL
  6
CONTINUOUS
 62
     5
 10
-223.582615
 20
-37.153843999999999
 30
0.0
 40
8.9423080000000006
 50
0.0
 51
180.0
  0
LINE
  5
2D0
  8
DETAIL
  6
CONTINUOUS
 62
     5
 10
-214.64030699999989
 20
-37.153843999999999
 30
0.0
 11
-214.64030699999989
 21
-66.961536999999993
 31
0.0
  0
LINE
  5
2D1
  8
DETAIL
  6
CONTINUOUS
 62
     5
 10
-232.524923
 20
15.307694
 30
0.0
 11
-232.524923
 21
-14.499998
 31
0.0
  0
LINE
  5
2D2
  8
DETAIL
  6
CONTINUOUS
 62
     5
 10
-214.64030699999989
 20
15.307694
 30
0.0
 11
-214.64030699999989
 21
-14.499998
 31
0.0
  0
ARC
  5
2D3
  8
DETAIL
  6
CONTINUOUS
 62
     5
 10
-223.582615
 20
-14.499998
 30
0.0
 40
8.9423080000000006
 50
180.0
 51
0.0
  0
ARC
  5
2D4
  8
DETAIL
  6
CONTINUOUS
 62
     5
 10
-223.582615
 20
15.307694
 30
0.0
 40
8.9423080000000006
 50
0.0
 51
180.0
  0
LINE
  5
2D5
  8
DETAIL
  6
CONTINUOUS
 62
     5
 10
-214.64030699999989
 20
15.307694
 30
0.0
 11
-214.64030699999989
 21
-14.499998
 31
0.0
  0
ARC
  5
2D6
  8
DETAIL
  6
CONTINUOUS
 62
     5
 10
-247.42876899999999
 20
-66.961536999999993
 30
0.0
 40
8.9423080000000006
 50
180.0
 51
0.0
  0
ARC
  5
2D7
  8
DETAIL
  6
CONTINUOUS
 62
     5
 10
-247.42876899999999
 20
-37.153843999999999
 30
0.0
 40
8.9423080000000006
 50
0.0
 51
180.0
  0
LINE
  5
2D8
  8
DETAIL
  6
CONTINUOUS
 62
     5
 10
-238.48646099999999
 20
-37.153843999999999
 30
0.0
 11
-238.48646099999999
 21
-66.961536999999993
 31
0.0
  0
LINE
  5
2D9
  8
DETAIL
  6
CONTINUOUS
 62
     5
 10
-238.48646099999999
 20
15.307694
 30
0.0
 11
-238.48646099999999
 21
-14.499998
 31
0.0
  0
ARC
  5
2DA
  8
DETAIL
  6
CONTINUOUS
 62
     5
 10
-247.42876899999999
 20
15.307694
 30
0.0
 40
8.9423080000000006
 50
0.0
 51
180.0
  0
ARC
  5
2DB
  8
DETAIL
  6
CONTINUOUS
 62
     5
 10
-247.42876899999999
 20
-14.499998
 30
0.0
 40
8.9423080000000006
 50
180.0
 51
0.0
  0
LINE
  5
2DC
  8
DETAIL
  6
CONTINUOUS
 62
     5
 10
-214.64030699999989
 20
67.769232999999986
 30
0.0
 11
-214.64030699999989
 21
37.96154099999999
 31
0.0
  0
ARC
  5
2DD
  8
DETAIL
  6
CONTINUOUS
 62
     5
 10
-223.582615
 20
67.769232999999986
 30
0.0
 40
8.9423080000000006
 50
0.0
 51
180.0
  0
ARC
  5
2DE
  8
DETAIL
  6
CONTINUOUS
 62
     5
 10
-223.582615
 20
37.96154099999999
 30
0.0
 40
8.9423080000000006
 50
180.0
 51
0.0
  0
ARC
  5
2DF
  8
DETAIL
  6
CONTINUOUS
 62
     5
 10
-247.42876899999999
 20
37.96154099999999
 30
0.0
 40
8.9423080000000006
 50
180.0
 51
0.0
  0
ARC
  5
2E0
  8
DETAIL
  6
CONTINUOUS
 62
     5
 10
-247.42876899999999
 20
67.769232999999986
 30
0.0
 40
8.9423080000000006
 50
0.0
 51
180.0
  0
LINE
  5
2E1
  8
DETAIL
  6
CONTINUOUS
 62
     5
 10
-214.64030699999989
 20
67.769232999999986
 30
0.0
 11
-214.64030699999989
 21
37.96154099999999
 31
0.0
  0
LINE
  5
2E2
  8
DETAIL
  6
CONTINUOUS
 62
     5
 10
-232.524923
 20
67.769232999999986
 30
0.0
 11
-232.524923
 21
37.96154099999999
 31
0.0
  0
LINE
  5
2E3
  8
DETAIL
  6
CONTINUOUS
 62
     5
 10
-238.48646099999999
 20
67.769232999999986
 30
0.0
 11
-238.48646099999999
 21
37.96154099999999
 31
0.0
  0
LINE
  5
2E4
  8
DETAIL
  6
CONTINUOUS
 62
     5
 10
-238.48646099999999
 20
-102.730768
 30
0.0
 11
-238.48646099999999
 21
-132.53845999999999
 31
0.0
  0
LINE
  5
2E5
  8
DETAIL
  6
CONTINUOUS
 62
     5
 10
-232.524923
 20
-102.730768
 30
0.0
 11
-232.524923
 21
-132.53845999999999
 31
0.0
  0
LINE
  5
2E6
  8
DETAIL
  6
CONTINUOUS
 62
     5
 10
-214.64030699999989
 20
-102.730768
 30
0.0
 11
-214.64030699999989
 21
-132.53845999999999
 31
0.0
  0
ARC
  5
2E7
  8
DETAIL
  6
CONTINUOUS
 62
     5
 10
-247.42876899999999
 20
-102.730768
 30
0.0
 40
8.9423080000000006
 50
0.0
 51
180.0
  0
ARC
  5
2E8
  8
DETAIL
  6
CONTINUOUS
 62
     5
 10
-247.42876899999999
 20
-132.53845999999999
 30
0.0
 40
8.9423080000000006
 50
180.0
 51
0.0
  0
ARC
  5
2E9
  8
DETAIL
  6
CONTINUOUS
 62
     5
 10
-223.582615
 20
-132.53845999999999
 30
0.0
 40
8.9423080000000006
 50
180.0
 51
0.0
  0
ARC
  5
2EA
  8
DETAIL
  6
CONTINUOUS
 62
     5
 10
-223.582615
 20
-102.730768
 30
0.0
 40
8.9423080000000006
 50
0.0
 51
180.0
  0
LINE
  5
2EB
  8
DETAIL
  6
CONTINUOUS
 62
     5
 10
-214.64030699999989
 20
-102.730768
 30
0.0
 11
-214.64030699999989
 21
-132.53845999999999
 31
0.0
  0
ARC
  5
2EC
  8
DETAIL
  6
CONTINUOUS
 62
     5
 10
-247.42876899999999
 20
-184.999999
 30
0.0
 40
8.9423080000000006
 50
180.0
 51
0.0
  0
ARC
  5
2ED
  8
DETAIL
  6
CONTINUOUS
 62
     5
 10
-247.42876899999999
 20
-155.1923069999998
 30
0.0
 40
8.9423080000000006
 50
0.0
 51
180.0
  0
LINE
  5
2EE
  8
DETAIL
  6
CONTINUOUS
 62
     5
 10
-238.48646099999999
 20
-155.1923069999998
 30
0.0
 11
-238.48646099999999
 21
-184.999999
 31
0.0
  0
LINE
  5
2EF
  8
DETAIL
  6
CONTINUOUS
 62
     5
 10
-238.48646099999999
 20
-207.65384599999999
 30
0.0
 11
-238.48646099999999
 21
-237.4615379999999
 31
0.0
  0
ARC
  5
2F0
  8
DETAIL
  6
CONTINUOUS
 62
     5
 10
-247.42876899999999
 20
-207.65384599999999
 30
0.0
 40
8.9423080000000006
 50
0.0
 51
180.0
  0
ARC
  5
2F1
  8
DETAIL
  6
CONTINUOUS
 62
     5
 10
-247.42876899999999
 20
-237.4615379999999
 30
0.0
 40
8.9423080000000006
 50
180.0
 51
0.0
  0
LINE
  5
2F2
  8
DETAIL
  6
CONTINUOUS
 62
     5
 10
-214.64030699999989
 20
-155.1923069999998
 30
0.0
 11
-214.64030699999989
 21
-184.999999
 31
0.0
  0
ARC
  5
2F3
  8
DETAIL
  6
CONTINUOUS
 62
     5
 10
-223.582615
 20
-155.1923069999998
 30
0.0
 40
8.9423080000000006
 50
0.0
 51
180.0
  0
ARC
  5
2F4
  8
DETAIL
  6
CONTINUOUS
 62
     5
 10
-223.582615
 20
-184.999999
 30
0.0
 40
8.9423080000000006
 50
180.0
 51
0.0
  0
LINE
  5
2F5
  8
DETAIL
  6
CONTINUOUS
 62
     5
 10
-214.64030699999989
 20
-155.1923069999998
 30
0.0
 11
-214.64030699999989
 21
-184.999999
 31
0.0
  0
LINE
  5
2F6
  8
DETAIL
  6
CONTINUOUS
 62
     5
 10
-232.524923
 20
-155.1923069999998
 30
0.0
 11
-232.524923
 21
-184.999999
 31
0.0
  0
LINE
  5
2F7
  8
DETAIL
  6
CONTINUOUS
 62
     5
 10
-214.64030699999989
 20
-207.65384599999999
 30
0.0
 11
-214.64030699999989
 21
-237.4615379999999
 31
0.0
  0
ARC
  5
2F8
  8
DETAIL
  6
CONTINUOUS
 62
     5
 10
-223.582615
 20
-207.65384599999999
 30
0.0
 40
8.9423080000000006
 50
0.0
 51
180.0
  0
ARC
  5
2F9
  8
DETAIL
  6
CONTINUOUS
 62
     5
 10
-223.582615
 20
-237.4615379999999
 30
0.0
 40
8.9423080000000006
 50
180.0
 51
0.0
  0
LINE
  5
2FA
  8
DETAIL
  6
CONTINUOUS
 62
     5
 10
-214.64030699999989
 20
-207.65384599999999
 30
0.0
 11
-214.64030699999989
 21
-237.4615379999999
 31
0.0
  0
LINE
  5
2FB
  8
DETAIL
  6
CONTINUOUS
 62
     5
 10
-232.524923
 20
-207.65384599999999
 30
0.0
 11
-232.524923
 21
-237.4615379999999
 31
0.0
  0
LINE
  5
2FC
  8
DETAIL
  6
CONTINUOUS
 62
     5
 10
-184.832615
 20
-207.65384599999999
 30
0.0
 11
-184.832615
 21
-237.4615379999999
 31
0.0
  0
LINE
  5
2FD
  8
DETAIL
  6
CONTINUOUS
 62
     5
 10
-166.94799900000001
 20
-207.65384599999999
 30
0.0
 11
-166.94799900000001
 21
-237.4615379999999
 31
0.0
  0
ARC
  5
2FE
  8
DETAIL
  6
CONTINUOUS
 62
     5
 10
-175.89030700000001
 20
-237.4615379999999
 30
0.0
 40
8.9423080000000006
 50
180.0
 51
0.0
  0
ARC
  5
2FF
  8
DETAIL
  6
CONTINUOUS
 62
     5
 10
-175.89030700000001
 20
-207.65384599999999
 30
0.0
 40
8.9423080000000006
 50
0.0
 51
180.0
  0
LINE
  5
300
  8
DETAIL
  6
CONTINUOUS
 62
     5
 10
-166.94799900000001
 20
-207.65384599999999
 30
0.0
 11
-166.94799900000001
 21
-237.4615379999999
 31
0.0
  0
LINE
  5
301
  8
DETAIL
  6
CONTINUOUS
 62
     5
 10
-184.832615
 20
-155.1923069999998
 30
0.0
 11
-184.832615
 21
-184.999999
 31
0.0
  0
LINE
  5
302
  8
DETAIL
  6
CONTINUOUS
 62
     5
 10
-166.94799900000001
 20
-155.1923069999998
 30
0.0
 11
-166.94799900000001
 21
-184.999999
 31
0.0
  0
ARC
  5
303
  8
DETAIL
  6
CONTINUOUS
 62
     5
 10
-175.89030700000001
 20
-184.999999
 30
0.0
 40
8.9423080000000006
 50
180.0
 51
0.0
  0
ARC
  5
304
  8
DETAIL
  6
CONTINUOUS
 62
     5
 10
-175.89030700000001
 20
-155.1923069999998
 30
0.0
 40
8.9423080000000006
 50
0.0
 51
180.0
  0
LINE
  5
305
  8
DETAIL
  6
CONTINUOUS
 62
     5
 10
-166.94799900000001
 20
-155.1923069999998
 30
0.0
 11
-166.94799900000001
 21
-184.999999
 31
0.0
  0
LINE
  5
306
  8
DETAIL
  6
CONTINUOUS
 62
     5
 10
-166.94799900000001
 20
-102.730768
 30
0.0
 11
-166.94799900000001
 21
-132.53845999999999
 31
0.0
  0
ARC
  5
307
  8
DETAIL
  6
CONTINUOUS
 62
     5
 10
-175.89030700000001
 20
-102.730768
 30
0.0
 40
8.9423080000000006
 50
0.0
 51
180.0
  0
ARC
  5
308
  8
DETAIL
  6
CONTINUOUS
 62
     5
 10
-175.89030700000001
 20
-132.53845999999999
 30
0.0
 40
8.9423080000000006
 50
180.0
 51
0.0
  0
LINE
  5
309
  8
DETAIL
  6
CONTINUOUS
 62
     5
 10
-166.94799900000001
 20
-102.730768
 30
0.0
 11
-166.94799900000001
 21
-132.53845999999999
 31
0.0
  0
LINE
  5
30A
  8
DETAIL
  6
CONTINUOUS
 62
     5
 10
-184.832615
 20
-102.730768
 30
0.0
 11
-184.832615
 21
-132.53845999999999
 31
0.0
  0
LINE
  5
30B
  8
DETAIL
  6
CONTINUOUS
 62
     5
 10
-208.6787689999999
 20
-102.730768
 30
0.0
 11
-208.6787689999999
 21
-132.53845999999999
 31
0.0
  0
LINE
  5
30C
  8
DETAIL
  6
CONTINUOUS
 62
     5
 10
-190.79415299999999
 20
-102.730768
 30
0.0
 11
-190.79415299999999
 21
-132.53845999999999
 31
0.0
  0
ARC
  5
30D
  8
DETAIL
  6
CONTINUOUS
 62
     5
 10
-199.73646099999999
 20
-132.53845999999999
 30
0.0
 40
8.9423080000000006
 50
180.0
 51
0.0
  0
ARC
  5
30E
  8
DETAIL
  6
CONTINUOUS
 62
     5
 10
-199.73646099999999
 20
-102.730768
 30
0.0
 40
8.9423080000000006
 50
0.0
 51
180.0
  0
LINE
  5
30F
  8
DETAIL
  6
CONTINUOUS
 62
     5
 10
-190.79415299999999
 20
-102.730768
 30
0.0
 11
-190.79415299999999
 21
-132.53845999999999
 31
0.0
  0
LINE
  5
310
  8
DETAIL
  6
CONTINUOUS
 62
     5
 10
-190.79415299999999
 20
-155.1923069999998
 30
0.0
 11
-190.79415299999999
 21
-184.999999
 31
0.0
  0
ARC
  5
311
  8
DETAIL
  6
CONTINUOUS
 62
     5
 10
-199.73646099999999
 20
-155.1923069999998
 30
0.0
 40
8.9423080000000006
 50
0.0
 51
180.0
  0
ARC
  5
312
  8
DETAIL
  6
CONTINUOUS
 62
     5
 10
-199.73646099999999
 20
-184.999999
 30
0.0
 40
8.9423080000000006
 50
180.0
 51
0.0
  0
LINE
  5
313
  8
DETAIL
  6
CONTINUOUS
 62
     5
 10
-190.79415299999999
 20
-155.1923069999998
 30
0.0
 11
-190.79415299999999
 21
-184.999999
 31
0.0
  0
LINE
  5
314
  8
DETAIL
  6
CONTINUOUS
 62
     5
 10
-208.6787689999999
 20
-155.1923069999998
 30
0.0
 11
-208.6787689999999
 21
-184.999999
 31
0.0
  0
LINE
  5
315
  8
DETAIL
  6
CONTINUOUS
 62
     5
 10
-190.79415299999999
 20
-207.65384599999999
 30
0.0
 11
-190.79415299999999
 21
-237.4615379999999
 31
0.0
  0
ARC
  5
316
  8
DETAIL
  6
CONTINUOUS
 62
     5
 10
-199.73646099999999
 20
-207.65384599999999
 30
0.0
 40
8.9423080000000006
 50
0.0
 51
180.0
  0
ARC
  5
317
  8
DETAIL
  6
CONTINUOUS
 62
     5
 10
-199.73646099999999
 20
-237.4615379999999
 30
0.0
 40
8.9423080000000006
 50
180.0
 51
0.0
  0
LINE
  5
318
  8
DETAIL
  6
CONTINUOUS
 62
     5
 10
-190.79415299999999
 20
-207.65384599999999
 30
0.0
 11
-190.79415299999999
 21
-237.4615379999999
 31
0.0
  0
LINE
  5
319
  8
DETAIL
  6
CONTINUOUS
 62
     5
 10
-208.6787689999999
 20
-207.65384599999999
 30
0.0
 11
-208.6787689999999
 21
-237.4615379999999
 31
0.0
  0
LINE
  5
31A
  8
DETAIL
  6
CONTINUOUS
 62
     5
 10
-137.14030700000001
 20
-207.65384599999999
 30
0.0
 11
-137.14030700000001
 21
-237.4615379999999
 31
0.0
  0
LINE
  5
31B
  8
DETAIL
  6
CONTINUOUS
 62
     5
 10
-119.2556909999999
 20
-207.65384599999999
 30
0.0
 11
-119.2556909999999
 21
-237.4615379999999
 31
0.0
  0
ARC
  5
31C
  8
DETAIL
  6
CONTINUOUS
 62
     5
 10
-128.19799900000001
 20
-237.4615379999999
 30
0.0
 40
8.9423080000000006
 50
180.0
 51
0.0
  0
ARC
  5
31D
  8
DETAIL
  6
CONTINUOUS
 62
     5
 10
-128.19799900000001
 20
-207.65384599999999
 30
0.0
 40
8.9423080000000006
 50
0.0
 51
180.0
  0
LINE
  5
31E
  8
DETAIL
  6
CONTINUOUS
 62
     5
 10
-119.2556909999999
 20
-207.65384599999999
 30
0.0
 11
-119.2556909999999
 21
-237.4615379999999
 31
0.0
  0
LINE
  5
31F
  8
DETAIL
  6
CONTINUOUS
 62
     5
 10
-137.14030700000001
 20
-155.1923069999998
 30
0.0
 11
-137.14030700000001
 21
-184.999999
 31
0.0
  0
LINE
  5
320
  8
DETAIL
  6
CONTINUOUS
 62
     5
 10
-119.2556909999999
 20
-155.1923069999998
 30
0.0
 11
-119.2556909999999
 21
-184.999999
 31
0.0
  0
ARC
  5
321
  8
DETAIL
  6
CONTINUOUS
 62
     5
 10
-128.19799900000001
 20
-184.999999
 30
0.0
 40
8.9423080000000006
 50
180.0
 51
0.0
  0
ARC
  5
322
  8
DETAIL
  6
CONTINUOUS
 62
     5
 10
-128.19799900000001
 20
-155.1923069999998
 30
0.0
 40
8.9423080000000006
 50
0.0
 51
180.0
  0
LINE
  5
323
  8
DETAIL
  6
CONTINUOUS
 62
     5
 10
-119.2556909999999
 20
-155.1923069999998
 30
0.0
 11
-119.2556909999999
 21
-184.999999
 31
0.0
  0
LINE
  5
324
  8
DETAIL
  6
CONTINUOUS
 62
     5
 10
-119.2556909999999
 20
-102.730768
 30
0.0
 11
-119.2556909999999
 21
-132.53845999999999
 31
0.0
  0
ARC
  5
325
  8
DETAIL
  6
CONTINUOUS
 62
     5
 10
-128.19799900000001
 20
-102.730768
 30
0.0
 40
8.9423080000000006
 50
0.0
 51
180.0
  0
ARC
  5
326
  8
DETAIL
  6
CONTINUOUS
 62
     5
 10
-128.19799900000001
 20
-132.53845999999999
 30
0.0
 40
8.9423080000000006
 50
180.0
 51
0.0
  0
LINE
  5
327
  8
DETAIL
  6
CONTINUOUS
 62
     5
 10
-119.2556909999999
 20
-102.730768
 30
0.0
 11
-119.2556909999999
 21
-132.53845999999999
 31
0.0
  0
LINE
  5
328
  8
DETAIL
  6
CONTINUOUS
 62
     5
 10
-137.14030700000001
 20
-102.730768
 30
0.0
 11
-137.14030700000001
 21
-132.53845999999999
 31
0.0
  0
LINE
  5
329
  8
DETAIL
  6
CONTINUOUS
 62
     5
 10
-113.29415299999999
 20
-102.730768
 30
0.0
 11
-113.29415299999999
 21
-132.53845999999999
 31
0.0
  0
LINE
  5
32A
  8
DETAIL
  6
CONTINUOUS
 62
     5
 10
-95.409537000000014
 20
-102.730768
 30
0.0
 11
-95.409537000000014
 21
-132.53845999999999
 31
0.0
  0
ARC
  5
32B
  8
DETAIL
  6
CONTINUOUS
 62
     5
 10
-104.351845
 20
-132.53845999999999
 30
0.0
 40
8.9423080000000006
 50
180.0
 51
0.0
  0
ARC
  5
32C
  8
DETAIL
  6
CONTINUOUS
 62
     5
 10
-104.351845
 20
-102.730768
 30
0.0
 40
8.9423080000000006
 50
0.0
 51
180.0
  0
LINE
  5
32D
  8
DETAIL
  6
CONTINUOUS
 62
     5
 10
-95.409537000000014
 20
-102.730768
 30
0.0
 11
-95.409537000000014
 21
-132.53845999999999
 31
0.0
  0
LINE
  5
32E
  8
DETAIL
  6
CONTINUOUS
 62
     5
 10
-95.409537000000014
 20
-155.1923069999998
 30
0.0
 11
-95.409537000000014
 21
-184.999999
 31
0.0
  0
ARC
  5
32F
  8
DETAIL
  6
CONTINUOUS
 62
     5
 10
-104.351845
 20
-155.1923069999998
 30
0.0
 40
8.9423080000000006
 50
0.0
 51
180.0
  0
ARC
  5
330
  8
DETAIL
  6
CONTINUOUS
 62
     5
 10
-104.351845
 20
-184.999999
 30
0.0
 40
8.9423080000000006
 50
180.0
 51
0.0
  0
LINE
  5
331
  8
DETAIL
  6
CONTINUOUS
 62
     5
 10
-95.409537000000014
 20
-155.1923069999998
 30
0.0
 11
-95.409537000000014
 21
-184.999999
 31
0.0
  0
LINE
  5
332
  8
DETAIL
  6
CONTINUOUS
 62
     5
 10
-113.29415299999999
 20
-155.1923069999998
 30
0.0
 11
-113.29415299999999
 21
-184.999999
 31
0.0
  0
LINE
  5
333
  8
DETAIL
  6
CONTINUOUS
 62
     5
 10
-95.409537000000014
 20
-207.65384599999999
 30
0.0
 11
-95.409537000000014
 21
-237.4615379999999
 31
0.0
  0
ARC
  5
334
  8
DETAIL
  6
CONTINUOUS
 62
     5
 10
-104.351845
 20
-207.65384599999999
 30
0.0
 40
8.9423080000000006
 50
0.0
 51
180.0
  0
ARC
  5
335
  8
DETAIL
  6
CONTINUOUS
 62
     5
 10
-104.351845
 20
-237.4615379999999
 30
0.0
 40
8.9423080000000006
 50
180.0
 51
0.0
  0
LINE
  5
336
  8
DETAIL
  6
CONTINUOUS
 62
     5
 10
-95.409537000000014
 20
-207.65384599999999
 30
0.0
 11
-95.409537000000014
 21
-237.4615379999999
 31
0.0
  0
LINE
  5
337
  8
DETAIL
  6
CONTINUOUS
 62
     5
 10
-113.29415299999999
 20
-207.65384599999999
 30
0.0
 11
-113.29415299999999
 21
-237.4615379999999
 31
0.0
  0
LINE
  5
338
  8
DETAIL
  6
CONTINUOUS
 62
     5
 10
-160.98646099999999
 20
-207.65384599999999
 30
0.0
 11
-160.98646099999999
 21
-237.4615379999999
 31
0.0
  0
LINE
  5
339
  8
DETAIL
  6
CONTINUOUS
 62
     5
 10
-143.101845
 20
-207.65384599999999
 30
0.0
 11
-143.101845
 21
-237.4615379999999
 31
0.0
  0
ARC
  5
33A
  8
DETAIL
  6
CONTINUOUS
 62
     5
 10
-152.04415299999999
 20
-237.4615379999999
 30
0.0
 40
8.9423080000000006
 50
180.0
 51
0.0
  0
ARC
  5
33B
  8
DETAIL
  6
CONTINUOUS
 62
     5
 10
-152.04415299999999
 20
-207.65384599999999
 30
0.0
 40
8.9423080000000006
 50
0.0
 51
180.0
  0
LINE
  5
33C
  8
DETAIL
  6
CONTINUOUS
 62
     5
 10
-143.101845
 20
-207.65384599999999
 30
0.0
 11
-143.101845
 21
-237.4615379999999
 31
0.0
  0
LINE
  5
33D
  8
DETAIL
  6
CONTINUOUS
 62
     5
 10
-160.98646099999999
 20
-155.1923069999998
 30
0.0
 11
-160.98646099999999
 21
-184.999999
 31
0.0
  0
LINE
  5
33E
  8
DETAIL
  6
CONTINUOUS
 62
     5
 10
-143.101845
 20
-155.1923069999998
 30
0.0
 11
-143.101845
 21
-184.999999
 31
0.0
  0
ARC
  5
33F
  8
DETAIL
  6
CONTINUOUS
 62
     5
 10
-152.04415299999999
 20
-184.999999
 30
0.0
 40
8.9423080000000006
 50
180.0
 51
0.0
  0
ARC
  5
340
  8
DETAIL
  6
CONTINUOUS
 62
     5
 10
-152.04415299999999
 20
-155.1923069999998
 30
0.0
 40
8.9423080000000006
 50
0.0
 51
180.0
  0
LINE
  5
341
  8
DETAIL
  6
CONTINUOUS
 62
     5
 10
-143.101845
 20
-155.1923069999998
 30
0.0
 11
-143.101845
 21
-184.999999
 31
0.0
  0
LINE
  5
342
  8
DETAIL
  6
CONTINUOUS
 62
     5
 10
-143.101845
 20
-102.730768
 30
0.0
 11
-143.101845
 21
-132.53845999999999
 31
0.0
  0
ARC
  5
343
  8
DETAIL
  6
CONTINUOUS
 62
     5
 10
-152.04415299999999
 20
-102.730768
 30
0.0
 40
8.9423080000000006
 50
0.0
 51
180.0
  0
ARC
  5
344
  8
DETAIL
  6
CONTINUOUS
 62
     5
 10
-152.04415299999999
 20
-132.53845999999999
 30
0.0
 40
8.9423080000000006
 50
180.0
 51
0.0
  0
LINE
  5
345
  8
DETAIL
  6
CONTINUOUS
 62
     5
 10
-143.101845
 20
-102.730768
 30
0.0
 11
-143.101845
 21
-132.53845999999999
 31
0.0
  0
LINE
  5
346
  8
DETAIL
  6
CONTINUOUS
 62
     5
 10
-160.98646099999999
 20
-102.730768
 30
0.0
 11
-160.98646099999999
 21
-132.53845999999999
 31
0.0
  0
LINE
  5
347
  8
DETAIL
  6
CONTINUOUS
 62
     5
 10
-17.88463599999999
 20
-102.730768
 30
0.0
 11
-17.88463599999999
 21
-132.53845999999999
 31
0.0
  0
LINE
  5
348
  8
DETAIL
  6
CONTINUOUS
 62
     5
 10
-0.00002
 20
-102.730768
 30
0.0
 11
-0.00002
 21
-132.53845999999999
 31
0.0
  0
ARC
  5
349
  8
DETAIL
  6
CONTINUOUS
 62
     5
 10
-8.9423279999999998
 20
-132.53845999999999
 30
0.0
 40
8.9423080000000006
 50
180.0
 51
0.0
  0
ARC
  5
34A
  8
DETAIL
  6
CONTINUOUS
 62
     5
 10
-8.9423279999999998
 20
-102.730768
 30
0.0
 40
8.9423080000000006
 50
0.0
 51
180.0
  0
LINE
  5
34B
  8
DETAIL
  6
CONTINUOUS
 62
     5
 10
-0.00002
 20
-102.730768
 30
0.0
 11
-0.00002
 21
-132.53845999999999
 31
0.0
  0
LINE
  5
34C
  8
DETAIL
  6
CONTINUOUS
 62
     5
 10
-0.00002
 20
-155.1923069999998
 30
0.0
 11
-0.00002
 21
-184.999999
 31
0.0
  0
ARC
  5
34D
  8
DETAIL
  6
CONTINUOUS
 62
     5
 10
-8.9423279999999998
 20
-155.1923069999998
 30
0.0
 40
8.9423080000000006
 50
0.0
 51
180.0
  0
ARC
  5
34E
  8
DETAIL
  6
CONTINUOUS
 62
     5
 10
-8.9423279999999998
 20
-184.999999
 30
0.0
 40
8.9423080000000006
 50
180.0
 51
0.0
  0
LINE
  5
34F
  8
DETAIL
  6
CONTINUOUS
 62
     5
 10
-0.00002
 20
-155.1923069999998
 30
0.0
 11
-0.00002
 21
-184.999999
 31
0.0
  0
LINE
  5
350
  8
DETAIL
  6
CONTINUOUS
 62
     5
 10
-17.88463599999999
 20
-155.1923069999998
 30
0.0
 11
-17.88463599999999
 21
-184.999999
 31
0.0
  0
LINE
  5
351
  8
DETAIL
  6
CONTINUOUS
 62
     5
 10
-0.00002
 20
-207.65384599999999
 30
0.0
 11
-0.00002
 21
-237.4615379999999
 31
0.0
  0
ARC
  5
352
  8
DETAIL
  6
CONTINUOUS
 62
     5
 10
-8.9423279999999998
 20
-207.65384599999999
 30
0.0
 40
8.9423080000000006
 50
0.0
 51
180.0
  0
ARC
  5
353
  8
DETAIL
  6
CONTINUOUS
 62
     5
 10
-8.9423279999999998
 20
-237.4615379999999
 30
0.0
 40
8.9423080000000006
 50
180.0
 51
0.0
  0
LINE
  5
354
  8
DETAIL
  6
CONTINUOUS
 62
     5
 10
-0.00002
 20
-207.65384599999999
 30
0.0
 11
-0.00002
 21
-237.4615379999999
 31
0.0
  0
LINE
  5
355
  8
DETAIL
  6
CONTINUOUS
 62
     5
 10
-17.88463599999999
 20
-207.65384599999999
 30
0.0
 11
-17.88463599999999
 21
-237.4615379999999
 31
0.0
  0
LINE
  5
356
  8
DETAIL
  6
CONTINUOUS
 62
     5
 10
29.80767199999999
 20
-207.65384599999999
 30
0.0
 11
29.80767199999999
 21
-237.4615379999999
 31
0.0
  0
LINE
  5
357
  8
DETAIL
  6
CONTINUOUS
 62
     5
 10
47.692287999999991
 20
-207.65384599999999
 30
0.0
 11
47.692287999999991
 21
-237.4615379999999
 31
0.0
  0
ARC
  5
358
  8
DETAIL
  6
CONTINUOUS
 62
     5
 10
38.749980000000001
 20
-237.4615379999999
 30
0.0
 40
8.9423080000000006
 50
180.0
 51
0.0
  0
ARC
  5
359
  8
DETAIL
  6
CONTINUOUS
 62
     5
 10
38.749980000000001
 20
-207.65384599999999
 30
0.0
 40
8.9423080000000006
 50
0.0
 51
180.0
  0
LINE
  5
35A
  8
DETAIL
  6
CONTINUOUS
 62
     5
 10
47.692287999999991
 20
-207.65384599999999
 30
0.0
 11
47.692287999999991
 21
-237.4615379999999
 31
0.0
  0
LINE
  5
35B
  8
DETAIL
  6
CONTINUOUS
 62
     5
 10
29.80767199999999
 20
-155.1923069999998
 30
0.0
 11
29.80767199999999
 21
-184.999999
 31
0.0
  0
LINE
  5
35C
  8
DETAIL
  6
CONTINUOUS
 62
     5
 10
47.692287999999991
 20
-155.1923069999998
 30
0.0
 11
47.692287999999991
 21
-184.999999
 31
0.0
  0
ARC
  5
35D
  8
DETAIL
  6
CONTINUOUS
 62
     5
 10
38.749980000000001
 20
-184.999999
 30
0.0
 40
8.9423080000000006
 50
180.0
 51
0.0
  0
ARC
  5
35E
  8
DETAIL
  6
CONTINUOUS
 62
     5
 10
38.749980000000001
 20
-155.1923069999998
 30
0.0
 40
8.9423080000000006
 50
0.0
 51
180.0
  0
LINE
  5
35F
  8
DETAIL
  6
CONTINUOUS
 62
     5
 10
47.692287999999991
 20
-155.1923069999998
 30
0.0
 11
47.692287999999991
 21
-184.999999
 31
0.0
  0
LINE
  5
360
  8
DETAIL
  6
CONTINUOUS
 62
     5
 10
47.692287999999991
 20
-102.730768
 30
0.0
 11
47.692287999999991
 21
-132.53845999999999
 31
0.0
  0
ARC
  5
361
  8
DETAIL
  6
CONTINUOUS
 62
     5
 10
38.749980000000001
 20
-102.730768
 30
0.0
 40
8.9423080000000006
 50
0.0
 51
180.0
  0
ARC
  5
362
  8
DETAIL
  6
CONTINUOUS
 62
     5
 10
38.749980000000001
 20
-132.53845999999999
 30
0.0
 40
8.9423080000000006
 50
180.0
 51
0.0
  0
LINE
  5
363
  8
DETAIL
  6
CONTINUOUS
 62
     5
 10
47.692287999999991
 20
-102.730768
 30
0.0
 11
47.692287999999991
 21
-132.53845999999999
 31
0.0
  0
LINE
  5
364
  8
DETAIL
  6
CONTINUOUS
 62
     5
 10
29.80767199999999
 20
-102.730768
 30
0.0
 11
29.80767199999999
 21
-132.53845999999999
 31
0.0
  0
LINE
  5
365
  8
DETAIL
  6
CONTINUOUS
 62
     5
 10
5.9615179999999981
 20
-102.730768
 30
0.0
 11
5.9615179999999981
 21
-132.53845999999999
 31
0.0
  0
LINE
  5
366
  8
DETAIL
  6
CONTINUOUS
 62
     5
 10
23.846133999999999
 20
-102.730768
 30
0.0
 11
23.846133999999999
 21
-132.53845999999999
 31
0.0
  0
ARC
  5
367
  8
DETAIL
  6
CONTINUOUS
 62
     5
 10
14.903826
 20
-132.53845999999999
 30
0.0
 40
8.9423080000000006
 50
180.0
 51
0.0
  0
ARC
  5
368
  8
DETAIL
  6
CONTINUOUS
 62
     5
 10
14.903826
 20
-102.730768
 30
0.0
 40
8.9423080000000006
 50
0.0
 51
180.0
  0
LINE
  5
369
  8
DETAIL
  6
CONTINUOUS
 62
     5
 10
23.846133999999999
 20
-102.730768
 30
0.0
 11
23.846133999999999
 21
-132.53845999999999
 31
0.0
  0
LINE
  5
36A
  8
DETAIL
  6
CONTINUOUS
 62
     5
 10
23.846133999999999
 20
-155.1923069999998
 30
0.0
 11
23.846133999999999
 21
-184.999999
 31
0.0
  0
ARC
  5
36B
  8
DETAIL
  6
CONTINUOUS
 62
     5
 10
14.903826
 20
-155.1923069999998
 30
0.0
 40
8.9423080000000006
 50
0.0
 51
180.0
  0
ARC
  5
36C
  8
DETAIL
  6
CONTINUOUS
 62
     5
 10
14.903826
 20
-184.999999
 30
0.0
 40
8.9423080000000006
 50
180.0
 51
0.0
  0
LINE
  5
36D
  8
DETAIL
  6
CONTINUOUS
 62
     5
 10
23.846133999999999
 20
-155.1923069999998
 30
0.0
 11
23.846133999999999
 21
-184.999999
 31
0.0
  0
LINE
  5
36E
  8
DETAIL
  6
CONTINUOUS
 62
     5
 10
5.9615179999999981
 20
-155.1923069999998
 30
0.0
 11
5.9615179999999981
 21
-184.999999
 31
0.0
  0
LINE
  5
36F
  8
DETAIL
  6
CONTINUOUS
 62
     5
 10
23.846133999999999
 20
-207.65384599999999
 30
0.0
 11
23.846133999999999
 21
-237.4615379999999
 31
0.0
  0
ARC
  5
370
  8
DETAIL
  6
CONTINUOUS
 62
     5
 10
14.903826
 20
-207.65384599999999
 30
0.0
 40
8.9423080000000006
 50
0.0
 51
180.0
  0
ARC
  5
371
  8
DETAIL
  6
CONTINUOUS
 62
     5
 10
14.903826
 20
-237.4615379999999
 30
0.0
 40
8.9423080000000006
 50
180.0
 51
0.0
  0
LINE
  5
372
  8
DETAIL
  6
CONTINUOUS
 62
     5
 10
23.846133999999999
 20
-207.65384599999999
 30
0.0
 11
23.846133999999999
 21
-237.4615379999999
 31
0.0
  0
LINE
  5
373
  8
DETAIL
  6
CONTINUOUS
 62
     5
 10
5.9615179999999981
 20
-207.65384599999999
 30
0.0
 11
5.9615179999999981
 21
-237.4615379999999
 31
0.0
  0
LINE
  5
374
  8
DETAIL
  6
CONTINUOUS
 62
     5
 10
-65.576943999999983
 20
-207.65384599999999
 30
0.0
 11
-65.576943999999983
 21
-237.4615379999999
 31
0.0
  0
LINE
  5
375
  8
DETAIL
  6
CONTINUOUS
 62
     5
 10
-47.692328000000003
 20
-207.65384599999999
 30
0.0
 11
-47.692328000000003
 21
-237.4615379999999
 31
0.0
  0
ARC
  5
376
  8
DETAIL
  6
CONTINUOUS
 62
     5
 10
-56.634636
 20
-237.4615379999999
 30
0.0
 40
8.9423080000000006
 50
180.0
 51
0.0
  0
ARC
  5
377
  8
DETAIL
  6
CONTINUOUS
 62
     5
 10
-56.634636
 20
-207.65384599999999
 30
0.0
 40
8.9423080000000006
 50
0.0
 51
180.0
  0
LINE
  5
378
  8
DETAIL
  6
CONTINUOUS
 62
     5
 10
-47.692328000000003
 20
-207.65384599999999
 30
0.0
 11
-47.692328000000003
 21
-237.4615379999999
 31
0.0
  0
LINE
  5
379
  8
DETAIL
  6
CONTINUOUS
 62
     5
 10
-65.576943999999983
 20
-155.1923069999998
 30
0.0
 11
-65.576943999999983
 21
-184.999999
 31
0.0
  0
LINE
  5
37A
  8
DETAIL
  6
CONTINUOUS
 62
     5
 10
-47.692328000000003
 20
-155.1923069999998
 30
0.0
 11
-47.692328000000003
 21
-184.999999
 31
0.0
  0
ARC
  5
37B
  8
DETAIL
  6
CONTINUOUS
 62
     5
 10
-56.634636
 20
-184.999999
 30
0.0
 40
8.9423080000000006
 50
180.0
 51
0.0
  0
ARC
  5
37C
  8
DETAIL
  6
CONTINUOUS
 62
     5
 10
-56.634636
 20
-155.1923069999998
 30
0.0
 40
8.9423080000000006
 50
0.0
 51
180.0
  0
LINE
  5
37D
  8
DETAIL
  6
CONTINUOUS
 62
     5
 10
-47.692328000000003
 20
-155.1923069999998
 30
0.0
 11
-47.692328000000003
 21
-184.999999
 31
0.0
  0
LINE
  5
37E
  8
DETAIL
  6
CONTINUOUS
 62
     5
 10
-47.692328000000003
 20
-102.730768
 30
0.0
 11
-47.692328000000003
 21
-132.53845999999999
 31
0.0
  0
ARC
  5
37F
  8
DETAIL
  6
CONTINUOUS
 62
     5
 10
-56.634636
 20
-102.730768
 30
0.0
 40
8.9423080000000006
 50
0.0
 51
180.0
  0
ARC
  5
380
  8
DETAIL
  6
CONTINUOUS
 62
     5
 10
-56.634636
 20
-132.53845999999999
 30
0.0
 40
8.9423080000000006
 50
180.0
 51
0.0
  0
LINE
  5
381
  8
DETAIL
  6
CONTINUOUS
 62
     5
 10
-47.692328000000003
 20
-102.730768
 30
0.0
 11
-47.692328000000003
 21
-132.53845999999999
 31
0.0
  0
LINE
  5
382
  8
DETAIL
  6
CONTINUOUS
 62
     5
 10
-65.576943999999983
 20
-102.730768
 30
0.0
 11
-65.576943999999983
 21
-132.53845999999999
 31
0.0
  0
LINE
  5
383
  8
DETAIL
  6
CONTINUOUS
 62
     5
 10
-41.730789999999999
 20
-102.730768
 30
0.0
 11
-41.730789999999999
 21
-132.53845999999999
 31
0.0
  0
LINE
  5
384
  8
DETAIL
  6
CONTINUOUS
 62
     5
 10
-23.846173999999991
 20
-102.730768
 30
0.0
 11
-23.846173999999991
 21
-132.53845999999999
 31
0.0
  0
ARC
  5
385
  8
DETAIL
  6
CONTINUOUS
 62
     5
 10
-32.788482000000002
 20
-132.53845999999999
 30
0.0
 40
8.9423080000000006
 50
180.0
 51
0.0
  0
ARC
  5
386
  8
DETAIL
  6
CONTINUOUS
 62
     5
 10
-32.788482000000002
 20
-102.730768
 30
0.0
 40
8.9423080000000006
 50
0.0
 51
180.0
  0
LINE
  5
387
  8
DETAIL
  6
CONTINUOUS
 62
     5
 10
-23.846173999999991
 20
-102.730768
 30
0.0
 11
-23.846173999999991
 21
-132.53845999999999
 31
0.0
  0
LINE
  5
388
  8
DETAIL
  6
CONTINUOUS
 62
     5
 10
-23.846173999999991
 20
-155.1923069999998
 30
0.0
 11
-23.846173999999991
 21
-184.999999
 31
0.0
  0
ARC
  5
389
  8
DETAIL
  6
CONTINUOUS
 62
     5
 10
-32.788482000000002
 20
-155.1923069999998
 30
0.0
 40
8.9423080000000006
 50
0.0
 51
180.0
  0
ARC
  5
38A
  8
DETAIL
  6
CONTINUOUS
 62
     5
 10
-32.788482000000002
 20
-184.999999
 30
0.0
 40
8.9423080000000006
 50
180.0
 51
0.0
  0
LINE
  5
38B
  8
DETAIL
  6
CONTINUOUS
 62
     5
 10
-23.846173999999991
 20
-155.1923069999998
 30
0.0
 11
-23.846173999999991
 21
-184.999999
 31
0.0
  0
LINE
  5
38C
  8
DETAIL
  6
CONTINUOUS
 62
     5
 10
-41.730789999999999
 20
-155.1923069999998
 30
0.0
 11
-41.730789999999999
 21
-184.999999
 31
0.0
  0
LINE
  5
38D
  8
DETAIL
  6
CONTINUOUS
 62
     5
 10
-23.846173999999991
 20
-207.65384599999999
 30
0.0
 11
-23.846173999999991
 21
-237.4615379999999
 31
0.0
  0
ARC
  5
38E
  8
DETAIL
  6
CONTINUOUS
 62
     5
 10
-32.788482000000002
 20
-207.65384599999999
 30
0.0
 40
8.9423080000000006
 50
0.0
 51
180.0
  0
ARC
  5
38F
  8
DETAIL
  6
CONTINUOUS
 62
     5
 10
-32.788482000000002
 20
-237.4615379999999
 30
0.0
 40
8.9423080000000006
 50
180.0
 51
0.0
  0
LINE
  5
390
  8
DETAIL
  6
CONTINUOUS
 62
     5
 10
-23.846173999999991
 20
-207.65384599999999
 30
0.0
 11
-23.846173999999991
 21
-237.4615379999999
 31
0.0
  0
LINE
  5
391
  8
DETAIL
  6
CONTINUOUS
 62
     5
 10
-41.730789999999999
 20
-207.65384599999999
 30
0.0
 11
-41.730789999999999
 21
-237.4615379999999
 31
0.0
  0
LINE
  5
392
  8
DETAIL
  6
CONTINUOUS
 62
     5
 10
-89.423097999999982
 20
-207.65384599999999
 30
0.0
 11
-89.423097999999982
 21
-237.4615379999999
 31
0.0
  0
LINE
  5
393
  8
DETAIL
  6
CONTINUOUS
 62
     5
 10
-71.538482000000002
 20
-207.65384599999999
 30
0.0
 11
-71.538482000000002
 21
-237.4615379999999
 31
0.0
  0
ARC
  5
394
  8
DETAIL
  6
CONTINUOUS
 62
     5
 10
-80.480789999999985
 20
-237.4615379999999
 30
0.0
 40
8.9423080000000006
 50
180.0
 51
0.0
  0
ARC
  5
395
  8
DETAIL
  6
CONTINUOUS
 62
     5
 10
-80.480789999999985
 20
-207.65384599999999
 30
0.0
 40
8.9423080000000006
 50
0.0
 51
180.0
  0
LINE
  5
396
  8
DETAIL
  6
CONTINUOUS
 62
     5
 10
-71.538482000000002
 20
-207.65384599999999
 30
0.0
 11
-71.538482000000002
 21
-237.4615379999999
 31
0.0
  0
LINE
  5
397
  8
DETAIL
  6
CONTINUOUS
 62
     5
 10
-89.423097999999982
 20
-155.1923069999998
 30
0.0
 11
-89.423097999999982
 21
-184.999999
 31
0.0
  0
LINE
  5
398
  8
DETAIL
  6
CONTINUOUS
 62
     5
 10
-71.538482000000002
 20
-155.1923069999998
 30
0.0
 11
-71.538482000000002
 21
-184.999999
 31
0.0
  0
ARC
  5
399
  8
DETAIL
  6
CONTINUOUS
 62
     5
 10
-80.480789999999985
 20
-184.999999
 30
0.0
 40
8.9423080000000006
 50
180.0
 51
0.0
  0
ARC
  5
39A
  8
DETAIL
  6
CONTINUOUS
 62
     5
 10
-80.480789999999985
 20
-155.1923069999998
 30
0.0
 40
8.9423080000000006
 50
0.0
 51
180.0
  0
LINE
  5
39B
  8
DETAIL
  6
CONTINUOUS
 62
     5
 10
-71.538482000000002
 20
-155.1923069999998
 30
0.0
 11
-71.538482000000002
 21
-184.999999
 31
0.0
  0
LINE
  5
39C
  8
DETAIL
  6
CONTINUOUS
 62
     5
 10
-71.538482000000002
 20
-102.730768
 30
0.0
 11
-71.538482000000002
 21
-132.53845999999999
 31
0.0
  0
ARC
  5
39D
  8
DETAIL
  6
CONTINUOUS
 62
     5
 10
-80.480789999999985
 20
-102.730768
 30
0.0
 40
8.9423080000000006
 50
0.0
 51
180.0
  0
ARC
  5
39E
  8
DETAIL
  6
CONTINUOUS
 62
     5
 10
-80.480789999999985
 20
-132.53845999999999
 30
0.0
 40
8.9423080000000006
 50
180.0
 51
0.0
  0
LINE
  5
39F
  8
DETAIL
  6
CONTINUOUS
 62
     5
 10
-71.538482000000002
 20
-102.730768
 30
0.0
 11
-71.538482000000002
 21
-132.53845999999999
 31
0.0
  0
LINE
  5
3A0
  8
DETAIL
  6
CONTINUOUS
 62
     5
 10
-89.423097999999982
 20
-102.730768
 30
0.0
 11
-89.423097999999982
 21
-132.53845999999999
 31
0.0
  0
LINE
  5
3A1
  8
DETAIL
  6
CONTINUOUS
 62
     5
 10
119.2556509999999
 20
-102.730768
 30
0.0
 11
119.2556509999999
 21
-132.53845999999999
 31
0.0
  0
LINE
  5
3A2
  8
DETAIL
  6
CONTINUOUS
 62
     5
 10
137.14026599999991
 20
-102.730768
 30
0.0
 11
137.14026599999991
 21
-132.53845999999999
 31
0.0
  0
ARC
  5
3A3
  8
DETAIL
  6
CONTINUOUS
 62
     5
 10
128.19795899999991
 20
-132.53845999999999
 30
0.0
 40
8.9423080000000006
 50
180.0
 51
0.0
  0
ARC
  5
3A4
  8
DETAIL
  6
CONTINUOUS
 62
     5
 10
128.19795899999991
 20
-102.730768
 30
0.0
 40
8.9423080000000006
 50
0.0
 51
180.0
  0
LINE
  5
3A5
  8
DETAIL
  6
CONTINUOUS
 62
     5
 10
137.14026599999991
 20
-102.730768
 30
0.0
 11
137.14026599999991
 21
-132.53845999999999
 31
0.0
  0
LINE
  5
3A6
  8
DETAIL
  6
CONTINUOUS
 62
     5
 10
137.14026599999991
 20
-155.1923069999998
 30
0.0
 11
137.14026599999991
 21
-184.999999
 31
0.0
  0
ARC
  5
3A7
  8
DETAIL
  6
CONTINUOUS
 62
     5
 10
128.19795899999991
 20
-155.1923069999998
 30
0.0
 40
8.9423080000000006
 50
0.0
 51
180.0
  0
ARC
  5
3A8
  8
DETAIL
  6
CONTINUOUS
 62
     5
 10
128.19795899999991
 20
-184.999999
 30
0.0
 40
8.9423080000000006
 50
180.0
 51
0.0
  0
LINE
  5
3A9
  8
DETAIL
  6
CONTINUOUS
 62
     5
 10
137.14026599999991
 20
-155.1923069999998
 30
0.0
 11
137.14026599999991
 21
-184.999999
 31
0.0
  0
LINE
  5
3AA
  8
DETAIL
  6
CONTINUOUS
 62
     5
 10
119.2556509999999
 20
-155.1923069999998
 30
0.0
 11
119.2556509999999
 21
-184.999999
 31
0.0
  0
LINE
  5
3AB
  8
DETAIL
  6
CONTINUOUS
 62
     5
 10
137.14026599999991
 20
-207.65384599999999
 30
0.0
 11
137.14026599999991
 21
-237.4615379999999
 31
0.0
  0
ARC
  5
3AC
  8
DETAIL
  6
CONTINUOUS
 62
     5
 10
128.19795899999991
 20
-207.65384599999999
 30
0.0
 40
8.9423080000000006
 50
0.0
 51
180.0
  0
ARC
  5
3AD
  8
DETAIL
  6
CONTINUOUS
 62
     5
 10
128.19795899999991
 20
-237.4615379999999
 30
0.0
 40
8.9423080000000006
 50
180.0
 51
0.0
  0
LINE
  5
3AE
  8
DETAIL
  6
CONTINUOUS
 62
     5
 10
137.14026599999991
 20
-207.65384599999999
 30
0.0
 11
137.14026599999991
 21
-237.4615379999999
 31
0.0
  0
LINE
  5
3AF
  8
DETAIL
  6
CONTINUOUS
 62
     5
 10
119.2556509999999
 20
-207.65384599999999
 30
0.0
 11
119.2556509999999
 21
-237.4615379999999
 31
0.0
  0
LINE
  5
3B0
  8
DETAIL
  6
CONTINUOUS
 62
     5
 10
166.94795899999991
 20
-207.65384599999999
 30
0.0
 11
166.94795899999991
 21
-237.4615379999999
 31
0.0
  0
LINE
  5
3B1
  8
DETAIL
  6
CONTINUOUS
 62
     5
 10
184.83257399999991
 20
-207.65384599999999
 30
0.0
 11
184.83257399999991
 21
-237.4615379999999
 31
0.0
  0
ARC
  5
3B2
  8
DETAIL
  6
CONTINUOUS
 62
     5
 10
175.89026699999991
 20
-237.4615379999999
 30
0.0
 40
8.9423080000000006
 50
180.0
 51
0.0
  0
ARC
  5
3B3
  8
DETAIL
  6
CONTINUOUS
 62
     5
 10
175.89026699999991
 20
-207.65384599999999
 30
0.0
 40
8.9423080000000006
 50
0.0
 51
180.0
  0
LINE
  5
3B4
  8
DETAIL
  6
CONTINUOUS
 62
     5
 10
184.83257399999991
 20
-207.65384599999999
 30
0.0
 11
184.83257399999991
 21
-237.4615379999999
 31
0.0
  0
LINE
  5
3B5
  8
DETAIL
  6
CONTINUOUS
 62
     5
 10
166.94795899999991
 20
-155.1923069999998
 30
0.0
 11
166.94795899999991
 21
-184.999999
 31
0.0
  0
LINE
  5
3B6
  8
DETAIL
  6
CONTINUOUS
 62
     5
 10
184.83257399999991
 20
-155.1923069999998
 30
0.0
 11
184.83257399999991
 21
-184.999999
 31
0.0
  0
ARC
  5
3B7
  8
DETAIL
  6
CONTINUOUS
 62
     5
 10
175.89026699999991
 20
-184.999999
 30
0.0
 40
8.9423080000000006
 50
180.0
 51
0.0
  0
ARC
  5
3B8
  8
DETAIL
  6
CONTINUOUS
 62
     5
 10
175.89026699999991
 20
-155.1923069999998
 30
0.0
 40
8.9423080000000006
 50
0.0
 51
180.0
  0
LINE
  5
3B9
  8
DETAIL
  6
CONTINUOUS
 62
     5
 10
184.83257399999991
 20
-155.1923069999998
 30
0.0
 11
184.83257399999991
 21
-184.999999
 31
0.0
  0
LINE
  5
3BA
  8
DETAIL
  6
CONTINUOUS
 62
     5
 10
184.83257399999991
 20
-102.730768
 30
0.0
 11
184.83257399999991
 21
-132.53845999999999
 31
0.0
  0
ARC
  5
3BB
  8
DETAIL
  6
CONTINUOUS
 62
     5
 10
175.89026699999991
 20
-102.730768
 30
0.0
 40
8.9423080000000006
 50
0.0
 51
180.0
  0
ARC
  5
3BC
  8
DETAIL
  6
CONTINUOUS
 62
     5
 10
175.89026699999991
 20
-132.53845999999999
 30
0.0
 40
8.9423080000000006
 50
180.0
 51
0.0
  0
LINE
  5
3BD
  8
DETAIL
  6
CONTINUOUS
 62
     5
 10
184.83257399999991
 20
-102.730768
 30
0.0
 11
184.83257399999991
 21
-132.53845999999999
 31
0.0
  0
LINE
  5
3BE
  8
DETAIL
  6
CONTINUOUS
 62
     5
 10
166.94795899999991
 20
-102.730768
 30
0.0
 11
166.94795899999991
 21
-132.53845999999999
 31
0.0
  0
LINE
  5
3BF
  8
DETAIL
  6
CONTINUOUS
 62
     5
 10
143.10180500000001
 20
-102.730768
 30
0.0
 11
143.10180500000001
 21
-132.53845999999999
 31
0.0
  0
LINE
  5
3C0
  8
DETAIL
  6
CONTINUOUS
 62
     5
 10
160.9864199999999
 20
-102.730768
 30
0.0
 11
160.9864199999999
 21
-132.53845999999999
 31
0.0
  0
ARC
  5
3C1
  8
DETAIL
  6
CONTINUOUS
 62
     5
 10
152.0441129999999
 20
-132.53845999999999
 30
0.0
 40
8.9423080000000006
 50
180.0
 51
0.0
  0
ARC
  5
3C2
  8
DETAIL
  6
CONTINUOUS
 62
     5
 10
152.0441129999999
 20
-102.730768
 30
0.0
 40
8.9423080000000006
 50
0.0
 51
180.0
  0
LINE
  5
3C3
  8
DETAIL
  6
CONTINUOUS
 62
     5
 10
160.9864199999999
 20
-102.730768
 30
0.0
 11
160.9864199999999
 21
-132.53845999999999
 31
0.0
  0
LINE
  5
3C4
  8
DETAIL
  6
CONTINUOUS
 62
     5
 10
160.9864199999999
 20
-155.1923069999998
 30
0.0
 11
160.9864199999999
 21
-184.999999
 31
0.0
  0
ARC
  5
3C5
  8
DETAIL
  6
CONTINUOUS
 62
     5
 10
152.0441129999999
 20
-155.1923069999998
 30
0.0
 40
8.9423080000000006
 50
0.0
 51
180.0
  0
ARC
  5
3C6
  8
DETAIL
  6
CONTINUOUS
 62
     5
 10
152.0441129999999
 20
-184.999999
 30
0.0
 40
8.9423080000000006
 50
180.0
 51
0.0
  0
LINE
  5
3C7
  8
DETAIL
  6
CONTINUOUS
 62
     5
 10
160.9864199999999
 20
-155.1923069999998
 30
0.0
 11
160.9864199999999
 21
-184.999999
 31
0.0
  0
LINE
  5
3C8
  8
DETAIL
  6
CONTINUOUS
 62
     5
 10
143.10180500000001
 20
-155.1923069999998
 30
0.0
 11
143.10180500000001
 21
-184.999999
 31
0.0
  0
LINE
  5
3C9
  8
DETAIL
  6
CONTINUOUS
 62
     5
 10
160.9864199999999
 20
-207.65384599999999
 30
0.0
 11
160.9864199999999
 21
-237.4615379999999
 31
0.0
  0
ARC
  5
3CA
  8
DETAIL
  6
CONTINUOUS
 62
     5
 10
152.0441129999999
 20
-207.65384599999999
 30
0.0
 40
8.9423080000000006
 50
0.0
 51
180.0
  0
ARC
  5
3CB
  8
DETAIL
  6
CONTINUOUS
 62
     5
 10
152.0441129999999
 20
-237.4615379999999
 30
0.0
 40
8.9423080000000006
 50
180.0
 51
0.0
  0
LINE
  5
3CC
  8
DETAIL
  6
CONTINUOUS
 62
     5
 10
160.9864199999999
 20
-207.65384599999999
 30
0.0
 11
160.9864199999999
 21
-237.4615379999999
 31
0.0
  0
LINE
  5
3CD
  8
DETAIL
  6
CONTINUOUS
 62
     5
 10
143.10180500000001
 20
-207.65384599999999
 30
0.0
 11
143.10180500000001
 21
-237.4615379999999
 31
0.0
  0
LINE
  5
3CE
  8
DETAIL
  6
CONTINUOUS
 62
     5
 10
214.64026699999999
 20
-207.65384599999999
 30
0.0
 11
214.64026699999999
 21
-237.4615379999999
 31
0.0
  0
LINE
  5
3CF
  8
DETAIL
  6
CONTINUOUS
 62
     5
 10
232.52488199999999
 20
-207.65384599999999
 30
0.0
 11
232.52488199999999
 21
-237.4615379999999
 31
0.0
  0
ARC
  5
3D0
  8
DETAIL
  6
CONTINUOUS
 62
     5
 10
223.58257499999999
 20
-237.4615379999999
 30
0.0
 40
8.9423080000000006
 50
180.0
 51
0.0
  0
ARC
  5
3D1
  8
DETAIL
  6
CONTINUOUS
 62
     5
 10
223.58257499999999
 20
-207.65384599999999
 30
0.0
 40
8.9423080000000006
 50
0.0
 51
180.0
  0
LINE
  5
3D2
  8
DETAIL
  6
CONTINUOUS
 62
     5
 10
232.52488199999999
 20
-207.65384599999999
 30
0.0
 11
232.52488199999999
 21
-237.4615379999999
 31
0.0
  0
LINE
  5
3D3
  8
DETAIL
  6
CONTINUOUS
 62
     5
 10
214.64026699999999
 20
-155.1923069999998
 30
0.0
 11
214.64026699999999
 21
-184.999999
 31
0.0
  0
LINE
  5
3D4
  8
DETAIL
  6
CONTINUOUS
 62
     5
 10
232.52488199999999
 20
-155.1923069999998
 30
0.0
 11
232.52488199999999
 21
-184.999999
 31
0.0
  0
ARC
  5
3D5
  8
DETAIL
  6
CONTINUOUS
 62
     5
 10
223.58257499999999
 20
-184.999999
 30
0.0
 40
8.9423080000000006
 50
180.0
 51
0.0
  0
ARC
  5
3D6
  8
DETAIL
  6
CONTINUOUS
 62
     5
 10
223.58257499999999
 20
-155.1923069999998
 30
0.0
 40
8.9423080000000006
 50
0.0
 51
180.0
  0
LINE
  5
3D7
  8
DETAIL
  6
CONTINUOUS
 62
     5
 10
232.52488199999999
 20
-155.1923069999998
 30
0.0
 11
232.52488199999999
 21
-184.999999
 31
0.0
  0
LINE
  5
3D8
  8
DETAIL
  6
CONTINUOUS
 62
     5
 10
232.52488199999999
 20
-102.730768
 30
0.0
 11
232.52488199999999
 21
-132.53845999999999
 31
0.0
  0
ARC
  5
3D9
  8
DETAIL
  6
CONTINUOUS
 62
     5
 10
223.58257499999999
 20
-102.730768
 30
0.0
 40
8.9423080000000006
 50
0.0
 51
180.0
  0
ARC
  5
3DA
  8
DETAIL
  6
CONTINUOUS
 62
     5
 10
223.58257499999999
 20
-132.53845999999999
 30
0.0
 40
8.9423080000000006
 50
180.0
 51
0.0
  0
LINE
  5
3DB
  8
DETAIL
  6
CONTINUOUS
 62
     5
 10
232.52488199999999
 20
-102.730768
 30
0.0
 11
232.52488199999999
 21
-132.53845999999999
 31
0.0
  0
LINE
  5
3DC
  8
DETAIL
  6
CONTINUOUS
 62
     5
 10
214.64026699999999
 20
-102.730768
 30
0.0
 11
214.64026699999999
 21
-132.53845999999999
 31
0.0
  0
LINE
  5
3DD
  8
DETAIL
  6
CONTINUOUS
 62
     5
 10
238.48642099999989
 20
-102.730768
 30
0.0
 11
238.48642099999989
 21
-132.53845999999999
 31
0.0
  0
LINE
  5
3DE
  8
DETAIL
  6
CONTINUOUS
 62
     5
 10
256.37103599999989
 20
-102.730768
 30
0.0
 11
256.37103599999989
 21
-132.53845999999999
 31
0.0
  0
ARC
  5
3DF
  8
DETAIL
  6
CONTINUOUS
 62
     5
 10
247.42872899999989
 20
-132.53845999999999
 30
0.0
 40
8.9423080000000006
 50
180.0
 51
0.0
  0
ARC
  5
3E0
  8
DETAIL
  6
CONTINUOUS
 62
     5
 10
247.42872899999989
 20
-102.730768
 30
0.0
 40
8.9423080000000006
 50
0.0
 51
180.0
  0
LINE
  5
3E1
  8
DETAIL
  6
CONTINUOUS
 62
     5
 10
256.37103599999989
 20
-102.730768
 30
0.0
 11
256.37103599999989
 21
-132.53845999999999
 31
0.0
  0
LINE
  5
3E2
  8
DETAIL
  6
CONTINUOUS
 62
     5
 10
256.37103599999989
 20
-155.1923069999998
 30
0.0
 11
256.37103599999989
 21
-184.999999
 31
0.0
  0
ARC
  5
3E3
  8
DETAIL
  6
CONTINUOUS
 62
     5
 10
247.42872899999989
 20
-155.1923069999998
 30
0.0
 40
8.9423080000000006
 50
0.0
 51
180.0
  0
ARC
  5
3E4
  8
DETAIL
  6
CONTINUOUS
 62
     5
 10
247.42872899999989
 20
-184.999999
 30
0.0
 40
8.9423080000000006
 50
180.0
 51
0.0
  0
LINE
  5
3E5
  8
DETAIL
  6
CONTINUOUS
 62
     5
 10
256.37103599999989
 20
-155.1923069999998
 30
0.0
 11
256.37103599999989
 21
-184.999999
 31
0.0
  0
LINE
  5
3E6
  8
DETAIL
  6
CONTINUOUS
 62
     5
 10
238.48642099999989
 20
-155.1923069999998
 30
0.0
 11
238.48642099999989
 21
-184.999999
 31
0.0
  0
LINE
  5
3E7
  8
DETAIL
  6
CONTINUOUS
 62
     5
 10
256.37103599999989
 20
-207.65384599999999
 30
0.0
 11
256.37103599999989
 21
-237.4615379999999
 31
0.0
  0
ARC
  5
3E8
  8
DETAIL
  6
CONTINUOUS
 62
     5
 10
247.42872899999989
 20
-207.65384599999999
 30
0.0
 40
8.9423080000000006
 50
0.0
 51
180.0
  0
ARC
  5
3E9
  8
DETAIL
  6
CONTINUOUS
 62
     5
 10
247.42872899999989
 20
-237.4615379999999
 30
0.0
 40
8.9423080000000006
 50
180.0
 51
0.0
  0
LINE
  5
3EA
  8
DETAIL
  6
CONTINUOUS
 62
     5
 10
256.37103599999989
 20
-207.65384599999999
 30
0.0
 11
256.37103599999989
 21
-237.4615379999999
 31
0.0
  0
LINE
  5
3EB
  8
DETAIL
  6
CONTINUOUS
 62
     5
 10
238.48642099999989
 20
-207.65384599999999
 30
0.0
 11
238.48642099999989
 21
-237.4615379999999
 31
0.0
  0
LINE
  5
3EC
  8
DETAIL
  6
CONTINUOUS
 62
     5
 10
190.7941129999999
 20
-207.65384599999999
 30
0.0
 11
190.7941129999999
 21
-237.4615379999999
 31
0.0
  0
LINE
  5
3ED
  8
DETAIL
  6
CONTINUOUS
 62
     5
 10
208.67872800000001
 20
-207.65384599999999
 30
0.0
 11
208.67872800000001
 21
-237.4615379999999
 31
0.0
  0
ARC
  5
3EE
  8
DETAIL
  6
CONTINUOUS
 62
     5
 10
199.73642100000001
 20
-237.4615379999999
 30
0.0
 40
8.9423080000000006
 50
180.0
 51
0.0
  0
ARC
  5
3EF
  8
DETAIL
  6
CONTINUOUS
 62
     5
 10
199.73642100000001
 20
-207.65384599999999
 30
0.0
 40
8.9423080000000006
 50
0.0
 51
180.0
  0
LINE
  5
3F0
  8
DETAIL
  6
CONTINUOUS
 62
     5
 10
208.67872800000001
 20
-207.65384599999999
 30
0.0
 11
208.67872800000001
 21
-237.4615379999999
 31
0.0
  0
LINE
  5
3F1
  8
DETAIL
  6
CONTINUOUS
 62
     5
 10
190.7941129999999
 20
-155.1923069999998
 30
0.0
 11
190.7941129999999
 21
-184.999999
 31
0.0
  0
LINE
  5
3F2
  8
DETAIL
  6
CONTINUOUS
 62
     5
 10
208.67872800000001
 20
-155.1923069999998
 30
0.0
 11
208.67872800000001
 21
-184.999999
 31
0.0
  0
ARC
  5
3F3
  8
DETAIL
  6
CONTINUOUS
 62
     5
 10
199.73642100000001
 20
-184.999999
 30
0.0
 40
8.9423080000000006
 50
180.0
 51
0.0
  0
ARC
  5
3F4
  8
DETAIL
  6
CONTINUOUS
 62
     5
 10
199.73642100000001
 20
-155.1923069999998
 30
0.0
 40
8.9423080000000006
 50
0.0
 51
180.0
  0
LINE
  5
3F5
  8
DETAIL
  6
CONTINUOUS
 62
     5
 10
208.67872800000001
 20
-155.1923069999998
 30
0.0
 11
208.67872800000001
 21
-184.999999
 31
0.0
  0
LINE
  5
3F6
  8
DETAIL
  6
CONTINUOUS
 62
     5
 10
208.67872800000001
 20
-102.730768
 30
0.0
 11
208.67872800000001
 21
-132.53845999999999
 31
0.0
  0
ARC
  5
3F7
  8
DETAIL
  6
CONTINUOUS
 62
     5
 10
199.73642100000001
 20
-102.730768
 30
0.0
 40
8.9423080000000006
 50
0.0
 51
180.0
  0
ARC
  5
3F8
  8
DETAIL
  6
CONTINUOUS
 62
     5
 10
199.73642100000001
 20
-132.53845999999999
 30
0.0
 40
8.9423080000000006
 50
180.0
 51
0.0
  0
LINE
  5
3F9
  8
DETAIL
  6
CONTINUOUS
 62
     5
 10
208.67872800000001
 20
-102.730768
 30
0.0
 11
208.67872800000001
 21
-132.53845999999999
 31
0.0
  0
LINE
  5
3FA
  8
DETAIL
  6
CONTINUOUS
 62
     5
 10
190.7941129999999
 20
-102.730768
 30
0.0
 11
190.7941129999999
 21
-132.53845999999999
 31
0.0
  0
LINE
  5
3FB
  8
DETAIL
  6
CONTINUOUS
 62
     5
 10
47.692287999999991
 20
-102.730768
 30
0.0
 11
47.692287999999991
 21
-132.53845999999999
 31
0.0
  0
LINE
  5
3FC
  8
DETAIL
  6
CONTINUOUS
 62
     5
 10
65.576903000000001
 20
-102.730768
 30
0.0
 11
65.576903000000001
 21
-132.53845999999999
 31
0.0
  0
ARC
  5
3FD
  8
DETAIL
  6
CONTINUOUS
 62
     5
 10
56.634595999999988
 20
-132.53845999999999
 30
0.0
 40
8.9423080000000006
 50
180.0
 51
0.0
  0
ARC
  5
3FE
  8
DETAIL
  6
CONTINUOUS
 62
     5
 10
56.634595999999988
 20
-102.730768
 30
0.0
 40
8.9423080000000006
 50
0.0
 51
180.0
  0
LINE
  5
3FF
  8
DETAIL
  6
CONTINUOUS
 62
     5
 10
65.576903000000001
 20
-102.730768
 30
0.0
 11
65.576903000000001
 21
-132.53845999999999
 31
0.0
  0
LINE
  5
400
  8
DETAIL
  6
CONTINUOUS
 62
     5
 10
65.576903000000001
 20
-155.1923069999998
 30
0.0
 11
65.576903000000001
 21
-184.999999
 31
0.0
  0
ARC
  5
401
  8
DETAIL
  6
CONTINUOUS
 62
     5
 10
56.634595999999988
 20
-155.1923069999998
 30
0.0
 40
8.9423080000000006
 50
0.0
 51
180.0
  0
ARC
  5
402
  8
DETAIL
  6
CONTINUOUS
 62
     5
 10
56.634595999999988
 20
-184.999999
 30
0.0
 40
8.9423080000000006
 50
180.0
 51
0.0
  0
LINE
  5
403
  8
DETAIL
  6
CONTINUOUS
 62
     5
 10
65.576903000000001
 20
-155.1923069999998
 30
0.0
 11
65.576903000000001
 21
-184.999999
 31
0.0
  0
LINE
  5
404
  8
DETAIL
  6
CONTINUOUS
 62
     5
 10
47.692287999999991
 20
-155.1923069999998
 30
0.0
 11
47.692287999999991
 21
-184.999999
 31
0.0
  0
LINE
  5
405
  8
DETAIL
  6
CONTINUOUS
 62
     5
 10
65.576903000000001
 20
-207.65384599999999
 30
0.0
 11
65.576903000000001
 21
-237.4615379999999
 31
0.0
  0
ARC
  5
406
  8
DETAIL
  6
CONTINUOUS
 62
     5
 10
56.634595999999988
 20
-207.65384599999999
 30
0.0
 40
8.9423080000000006
 50
0.0
 51
180.0
  0
ARC
  5
407
  8
DETAIL
  6
CONTINUOUS
 62
     5
 10
56.634595999999988
 20
-237.4615379999999
 30
0.0
 40
8.9423080000000006
 50
180.0
 51
0.0
  0
LINE
  5
408
  8
DETAIL
  6
CONTINUOUS
 62
     5
 10
65.576903000000001
 20
-207.65384599999999
 30
0.0
 11
65.576903000000001
 21
-237.4615379999999
 31
0.0
  0
LINE
  5
409
  8
DETAIL
  6
CONTINUOUS
 62
     5
 10
47.692287999999991
 20
-207.65384599999999
 30
0.0
 11
47.692287999999991
 21
-237.4615379999999
 31
0.0
  0
LINE
  5
40A
  8
DETAIL
  6
CONTINUOUS
 62
     5
 10
95.384596000000016
 20
-207.65384599999999
 30
0.0
 11
95.384596000000016
 21
-237.4615379999999
 31
0.0
  0
LINE
  5
40B
  8
DETAIL
  6
CONTINUOUS
 62
     5
 10
113.269211
 20
-207.65384599999999
 30
0.0
 11
113.269211
 21
-237.4615379999999
 31
0.0
  0
ARC
  5
40C
  8
DETAIL
  6
CONTINUOUS
 62
     5
 10
104.3269039999999
 20
-237.4615379999999
 30
0.0
 40
8.9423080000000006
 50
180.0
 51
0.0
  0
ARC
  5
40D
  8
DETAIL
  6
CONTINUOUS
 62
     5
 10
104.3269039999999
 20
-207.65384599999999
 30
0.0
 40
8.9423080000000006
 50
0.0
 51
180.0
  0
LINE
  5
40E
  8
DETAIL
  6
CONTINUOUS
 62
     5
 10
113.269211
 20
-207.65384599999999
 30
0.0
 11
113.269211
 21
-237.4615379999999
 31
0.0
  0
LINE
  5
40F
  8
DETAIL
  6
CONTINUOUS
 62
     5
 10
95.384596000000016
 20
-155.1923069999998
 30
0.0
 11
95.384596000000016
 21
-184.999999
 31
0.0
  0
LINE
  5
410
  8
DETAIL
  6
CONTINUOUS
 62
     5
 10
113.269211
 20
-155.1923069999998
 30
0.0
 11
113.269211
 21
-184.999999
 31
0.0
  0
ARC
  5
411
  8
DETAIL
  6
CONTINUOUS
 62
     5
 10
104.3269039999999
 20
-184.999999
 30
0.0
 40
8.9423080000000006
 50
180.0
 51
0.0
  0
ARC
  5
412
  8
DETAIL
  6
CONTINUOUS
 62
     5
 10
104.3269039999999
 20
-155.1923069999998
 30
0.0
 40
8.9423080000000006
 50
0.0
 51
180.0
  0
LINE
  5
413
  8
DETAIL
  6
CONTINUOUS
 62
     5
 10
113.269211
 20
-155.1923069999998
 30
0.0
 11
113.269211
 21
-184.999999
 31
0.0
  0
LINE
  5
414
  8
DETAIL
  6
CONTINUOUS
 62
     5
 10
113.269211
 20
-102.730768
 30
0.0
 11
113.269211
 21
-132.53845999999999
 31
0.0
  0
ARC
  5
415
  8
DETAIL
  6
CONTINUOUS
 62
     5
 10
104.3269039999999
 20
-102.730768
 30
0.0
 40
8.9423080000000006
 50
0.0
 51
180.0
  0
ARC
  5
416
  8
DETAIL
  6
CONTINUOUS
 62
     5
 10
104.3269039999999
 20
-132.53845999999999
 30
0.0
 40
8.9423080000000006
 50
180.0
 51
0.0
  0
LINE
  5
417
  8
DETAIL
  6
CONTINUOUS
 62
     5
 10
113.269211
 20
-102.730768
 30
0.0
 11
113.269211
 21
-132.53845999999999
 31
0.0
  0
LINE
  5
418
  8
DETAIL
  6
CONTINUOUS
 62
     5
 10
95.384596000000016
 20
-102.730768
 30
0.0
 11
95.384596000000016
 21
-132.53845999999999
 31
0.0
  0
LINE
  5
419
  8
DETAIL
  6
CONTINUOUS
 62
     5
 10
71.538442000000003
 20
-102.730768
 30
0.0
 11
71.538442000000003
 21
-132.53845999999999
 31
0.0
  0
LINE
  5
41A
  8
DETAIL
  6
CONTINUOUS
 62
     5
 10
89.423057
 20
-102.730768
 30
0.0
 11
89.423057
 21
-132.53845999999999
 31
0.0
  0
ARC
  5
41B
  8
DETAIL
  6
CONTINUOUS
 62
     5
 10
80.48075
 20
-132.53845999999999
 30
0.0
 40
8.9423080000000006
 50
180.0
 51
0.0
  0
ARC
  5
41C
  8
DETAIL
  6
CONTINUOUS
 62
     5
 10
80.48075
 20
-102.730768
 30
0.0
 40
8.9423080000000006
 50
0.0
 51
180.0
  0
LINE
  5
41D
  8
DETAIL
  6
CONTINUOUS
 62
     5
 10
89.423057
 20
-102.730768
 30
0.0
 11
89.423057
 21
-132.53845999999999
 31
0.0
  0
LINE
  5
41E
  8
DETAIL
  6
CONTINUOUS
 62
     5
 10
89.423057
 20
-155.1923069999998
 30
0.0
 11
89.423057
 21
-184.999999
 31
0.0
  0
ARC
  5
41F
  8
DETAIL
  6
CONTINUOUS
 62
     5
 10
80.48075
 20
-155.1923069999998
 30
0.0
 40
8.9423080000000006
 50
0.0
 51
180.0
  0
ARC
  5
420
  8
DETAIL
  6
CONTINUOUS
 62
     5
 10
80.48075
 20
-184.999999
 30
0.0
 40
8.9423080000000006
 50
180.0
 51
0.0
  0
LINE
  5
421
  8
DETAIL
  6
CONTINUOUS
 62
     5
 10
89.423057
 20
-155.1923069999998
 30
0.0
 11
89.423057
 21
-184.999999
 31
0.0
  0
LINE
  5
422
  8
DETAIL
  6
CONTINUOUS
 62
     5
 10
71.538442000000003
 20
-155.1923069999998
 30
0.0
 11
71.538442000000003
 21
-184.999999
 31
0.0
  0
LINE
  5
423
  8
DETAIL
  6
CONTINUOUS
 62
     5
 10
89.423057
 20
-207.65384599999999
 30
0.0
 11
89.423057
 21
-237.4615379999999
 31
0.0
  0
ARC
  5
424
  8
DETAIL
  6
CONTINUOUS
 62
     5
 10
80.48075
 20
-207.65384599999999
 30
0.0
 40
8.9423080000000006
 50
0.0
 51
180.0
  0
ARC
  5
425
  8
DETAIL
  6
CONTINUOUS
 62
     5
 10
80.48075
 20
-237.4615379999999
 30
0.0
 40
8.9423080000000006
 50
180.0
 51
0.0
  0
LINE
  5
426
  8
DETAIL
  6
CONTINUOUS
 62
     5
 10
89.423057
 20
-207.65384599999999
 30
0.0
 11
89.423057
 21
-237.4615379999999
 31
0.0
  0
LINE
  5
427
  8
DETAIL
  6
CONTINUOUS
 62
     5
 10
71.538442000000003
 20
-207.65384599999999
 30
0.0
 11
71.538442000000003
 21
-237.4615379999999
 31
0.0
  0
LINE
  5
428
  8
DETAIL
  6
CONTINUOUS
 62
     5
 10
-256.37107700000001
 20
-102.730768
 30
0.0
 11
-256.37107700000001
 21
-132.53845999999999
 31
0.0
  0
LINE
  5
429
  8
DETAIL
  6
CONTINUOUS
 62
     5
 10
-256.37107700000001
 20
-155.1923069999998
 30
0.0
 11
-256.37107700000001
 21
-184.999999
 31
0.0
  0
LINE
  5
42A
  8
DETAIL
  6
CONTINUOUS
 62
     5
 10
-256.37107700000001
 20
-207.65384599999999
 30
0.0
 11
-256.37107700000001
 21
-237.4615379999999
 31
0.0
  0
LINE
  5
42B
  8
OUTLINE
  6
CONTINUOUS
 62
     3
 10
-310.0
 20
280.0
 30
0.0
 11
-310.0
 21
-280.0
 31
0.0
  0
ARC
  5
42C
  8
OUTLINE
  6
CONTINUOUS
 62
     3
 10
-280.0
 20
279.0
 30
0.0
 40
30.0
 50
90.0
 51
180.0
  0
LINE
  5
42D
  8
OUTLINE
  6
CONTINUOUS
 62
     3
 10
-280.0
 20
309.0
 30
0.0
 11
280.0
 21
309.0
 31
0.0
  0
ARC
  5
42E
  8
OUTLINE
  6
CONTINUOUS
 62
     3
 10
280.0
 20
279.0
 30
0.0
 40
30.0
 50
0.0
 51
90.0
  0
LINE
  5
42F
  8
OUTLINE
  6
CONTINUOUS
 62
     3
 10
310.0
 20
280.0
 30
0.0
 11
310.0
 21
-280.0
 31
0.0
  0
ARC
  5
430
  8
OUTLINE
  6
CONTINUOUS
 62
     3
 10
280.0
 20
-279.0
 30
0.0
 40
30.0
 50
270.0
 51
0.0
  0
LINE
  5
431
  8
OUTLINE
  6
CONTINUOUS
 62
     3
 10
-280.0
 20
-309.0
 30
0.0
 11
280.0
 21
-309.0
 31
0.0
  0
ARC
  5
432
  8
OUTLINE
  6
CONTINUOUS
 62
     3
 10
-280.0
 20
-279.0
 30
0.0
 40
30.0
 50
180.0
 51
270.0
  0
CIRCLE
  5
433
  8
ARRANGE
  6
CONTINUOUS
 62
     1
 10
-0.00002
 20
0.0
 30
0.0
 40
40.0
  0
POINT
  5
434
  8
ARRANGE
  6
CONTINUOUS
 62
     1
 10
0.0
 20
0.0
 30
0.0
  0
LINE
  5
435
  8
SIZE
  6
BYBLOCK
 62
    30
 10
300.0
 20
309.0
 30
0.0
 11
702.84033899999997
 21
309.0
 31
0.0
  0
LINE
  5
436
  8
SIZE
  6
BYBLOCK
 62
    30
 10
300.0
 20
-309.0
 30
0.0
 11
702.84033899999997
 21
-309.0
 31
0.0
  0
LINE
  5
437
  8
SIZE
  6
BYBLOCK
 62
    30
 10
672.84033899999974
 20
307.0
 30
0.0
 11
672.84033899999974
 21
-307.0
 31
0.0
  0
TEXT
  5
438
  8
SIZE
  6
BYBLOCK
 62
    30
 10
640.84033899999997
 20
-68.571429000000009
 30
0.0
 40
64.0
  1
618
 50
90.0
 41
0.9
  0
LINE
  5
439
  8
SIZE
  6
BYBLOCK
 62
    30
 10
320.0
 20
280.0
 30
0.0
 11
568.62884899999995
 21
280.0
 31
0.0
  0
LINE
  5
43A
  8
SIZE
  6
BYBLOCK
 62
    30
 10
320.0
 20
-280.0
 30
0.0
 11
568.62884899999995
 21
-280.0
 31
0.0
  0
LINE
  5
43B
  8
SIZE
  6
BYBLOCK
 62
    30
 10
538.62884899999995
 20
278.0
 30
0.0
 11
538.62884899999995
 21
-278.0
 31
0.0
  0
TEXT
  5
43C
  8
SIZE
  6
BYBLOCK
 62
    30
 10
506.62884899999989
 20
-74.057143000000025
 30
0.0
 40
64.0
  1
560
 50
90.0
 41
0.9
  0
LINE
  5
43D
  8
SIZE
  6
BYBLOCK
 62
    30
 10
-280.0
 20
320.0
 30
0.0
 11
-280.0
 21
505.00826499999999
 31
0.0
  0
LINE
  5
43E
  8
SIZE
  6
BYBLOCK
 62
    30
 10
280.0
 20
320.0
 30
0.0
 11
280.0
 21
505.00826499999999
 31
0.0
  0
LINE
  5
43F
  8
SIZE
  6
BYBLOCK
 62
    30
 10
-278.0
 20
475.00826499999999
 30
0.0
 11
278.0
 21
475.00826499999999
 31
0.0
  0
TEXT
  5
440
  8
SIZE
  6
BYBLOCK
 62
    30
 10
-74.057143000000025
 20
507.00826499999988
 30
0.0
 40
64.0
  1
560
 41
0.9
  0
LINE
  5
441
  8
SIZE
  6
BYBLOCK
 62
    30
 10
-310.0
 20
330.0
 30
0.0
 11
-310.0
 21
667.48294099999998
 31
0.0
  0
LINE
  5
442
  8
SIZE
  6
BYBLOCK
 62
    30
 10
310.0
 20
330.0
 30
0.0
 11
310.0
 21
667.48294099999998
 31
0.0
  0
LINE
  5
443
  8
SIZE
  6
BYBLOCK
 62
    30
 10
-308.0
 20
637.48294099999998
 30
0.0
 11
308.0
 21
637.48294099999998
 31
0.0
  0
TEXT
  5
444
  8
SIZE
  6
BYBLOCK
 62
    30
 10
-74.057143000000025
 20
669.48294099999976
 30
0.0
 40
64.0
  1
620
 41
0.9
  0
CIRCLE
  5
445
  8
SIZE
  6
CONTINUOUS
 62
    30
 10
310.0
 20
637.48294099999998
 30
0.0
 40
6.0
  0
CIRCLE
  5
446
  8
SIZE
  6
CONTINUOUS
 62
    30
 10
-310.0
 20
637.48294099999998
 30
0.0
 40
6.0
  0
CIRCLE
  5
447
  8
SIZE
  6
CONTINUOUS
 62
    30
 10
280.0
 20
475.00826499999999
 30
0.0
 40
6.0
  0
CIRCLE
  5
448
  8
SIZE
  6
CONTINUOUS
 62
    30
 10
-280.0
 20
475.00826499999999
 30
0.0
 40
6.0
  0
CIRCLE
  5
449
  8
SIZE
  6
CONTINUOUS
 62
    30
 10
538.62884899999995
 20
-280.0
 30
0.0
 40
6.0
  0
CIRCLE
  5
44A
  8
SIZE
  6
CONTINUOUS
 62
    30
 10
538.62884899999995
 20
280.0
 30
0.0
 40
6.0
  0
CIRCLE
  5
44B
  8
SIZE
  6
CONTINUOUS
 62
    30
 10
672.84033899999974
 20
-309.0
 30
0.0
 40
6.0
  0
CIRCLE
  5
44C
  8
SIZE
  6
CONTINUOUS
 62
    30
 10
672.84033899999974
 20
309.0
 30
0.0
 40
6.0
  0
LINE
  5
44D
  8
NOTE
  6
CONTINUOUS
 62
     4
 10
-280.0
 20
-300.0
 30
0.0
 11
-280.0
 21
-260.0
 31
0.0
  0
LINE
  5
44E
  8
NOTE
  6
CONTINUOUS
 62
     4
 10
-300.0
 20
-280.0
 30
0.0
 11
-260.0
 21
-280.0
 31
0.0
  0
LINE
  5
44F
  8
NOTE
  6
CONTINUOUS
 62
     4
 10
280.0
 20
260.0
 30
0.0
 11
280.0
 21
300.0
 31
0.0
  0
LINE
  5
450
  8
NOTE
  6
CONTINUOUS
 62
     4
 10
260.0
 20
280.0
 30
0.0
 11
300.0
 21
280.0
 31
0.0
  0
LINE
  5
451
  8
NOTE
  6
CONTINUOUS
 62
     4
 10
-280.0
 20
260.0
 30
0.0
 11
-280.0
 21
300.0
 31
0.0
  0
LINE
  5
452
  8
NOTE
  6
CONTINUOUS
 62
     4
 10
-300.0
 20
280.0
 30
0.0
 11
-260.0
 21
280.0
 31
0.0
  0
POLYLINE
  5
453
  8
NOTE
  6
CONTINUOUS
 62
     4
 66
     1
 10
0.0
 20
0.0
 30
0.0
  0
VERTEX
  5
58E
  8
NOTE
  6
CONTINUOUS
 62
     4
 10
312.65259400000002
 20
-303.104287
 30
0.0
  0
VERTEX
  5
58F
  8
NOTE
  6
CONTINUOUS
 62
     4
 10
280.0
 20
-280.0
 30
0.0
  0
VERTEX
  5
590
  8
NOTE
  6
CONTINUOUS
 62
     4
 10
296.72583300000002
 20
-316.33519699999988
 30
0.0
  0
SEQEND
  5
591
  8
NOTE
  6
CONTINUOUS
 62
     4
  0
POLYLINE
  5
458
  8
NOTE
  6
CONTINUOUS
 62
     4
 66
     1
 10
0.0
 20
0.0
 30
0.0
  0
VERTEX
  5
592
  8
NOTE
  6
CONTINUOUS
 62
     4
 10
-291.80576999999988
 20
-235.32386699999989
 30
0.0
  0
VERTEX
  5
593
  8
NOTE
  6
CONTINUOUS
 62
     4
 10
-262.0
 20
-262.0
 30
0.0
  0
VERTEX
  5
594
  8
NOTE
  6
CONTINUOUS
 62
     4
 10
-274.47448800000001
 20
-223.99490599999999
 30
0.0
  0
SEQEND
  5
595
  8
NOTE
  6
CONTINUOUS
 62
     4
  0
LINE
  5
45D
  8
NOTE
  6
CONTINUOUS
 62
     4
 10
280.0
 20
-300.0
 30
0.0
 11
280.0
 21
-260.0
 31
0.0
  0
LINE
  5
45E
  8
NOTE
  6
CONTINUOUS
 62
     4
 10
260.0
 20
-280.0
 30
0.0
 11
300.0
 21
-280.0
 31
0.0
  0
LINE
  5
45F
  8
NOTE
  6
CONTINUOUS
 62
     4
 10
-262.0
 20
-282.0
 30
0.0
 11
-262.0
 21
-242.0
 31
0.0
  0
LINE
  5
460
  8
NOTE
  6
CONTINUOUS
 62
     4
 10
-282.0
 20
-262.0
 30
0.0
 11
-242.0
 21
-262.0
 31
0.0
  0
TEXT
  5
55A
  8
ETC
  6
CONTINUOUS
 62
    61
 10
477.69775833552649
 20
882.67398333129324
 30
0.0
 40
64.0
  1
EGG-50MFTB_2
 41
0.9
  0
TEXT
  5
55B
  8
ETC
  6
CONTINUOUS
 62
    61
 10
469.62428033552652
 20
772.76731103545421
 30
0.0
 40
64.0
  1
産業扇
 41
0.9
  0
TEXT
  5
55C
  8
ETC
  6
CONTINUOUS
 62
    61
 10
579.48926034019803
 20
687.1497047608392
 30
0.0
 40
50.0
  1
EGG-50MFTA
 41
0.9
  0
TEXT
  5
55D
  8
ETC
  6
CONTINUOUS
 62
    61
 10
579.48926034019803
 20
595.37300219887425
 30
0.0
 40
50.0
  1
EGG-50MFSTA
 41
0.9
  0
TEXT
  5
55E
  8
ETC
  6
CONTINUOUS
 62
    61
 10
579.48926034019803
 20
514.151418828847
 30
0.0
 40
50.0
  1
EGG-50MFTB
 41
0.9
  0
TEXT
  5
55F
  8
ETC
  6
CONTINUOUS
 62
    61
 10
579.48926034019803
 20
422.37471626688199
 30
0.0
 40
50.0
  1
EGG-50MFSTB
 41
0.9
  0
ENDSEC
  0
EOF
