  0
SECTION
  2
HEADER
  9
$ACADVER
  1
AC1009
  9
$DWGCODEPAGE
  3
ansi_932
  9
$INSBASE
 10
0.0
 20
0.0
 30
0.0
  9
$EXTMIN
 10
-611.5880292489229
 20
-384.6837376225874
 30
0.0
  9
$EXTMAX
 10
1219.088438244985
 20
616.4406908803519
 30
50.0
  9
$LIMMIN
 10
-2970.0
 20
-2100.0
  9
$LIMMAX
 10
2970.0
 20
2100.0
  9
$ORTHOMODE
 70
     1
  9
$REGENMODE
 70
     0
  9
$FILLMODE
 70
     1
  9
$QTEXTMODE
 70
     0
  9
$MIRRTEXT
 70
     0
  9
$DRAGMODE
 70
     2
  9
$LTSCALE
 40
20.0
  9
$OSMODE
 70
    37
  9
$ATTMODE
 70
     1
  9
$TEXTSIZE
 40
64.0
  9
$TRACEWID
 40
0.05
  9
$TEXTSTYLE
  7
STANDARD
  9
$CLAYER
  8
SIZE
  9
$CELTYPE
  6
CONTINUOUS
  9
$CECOLOR
 62
    30
  9
$DIMSCALE
 40
1.0
  9
$DIMASZ
 40
2.0
  9
$DIMEXO
 40
20.0
  9
$DIMDLI
 40
200.0
  9
$DIMRND
 40
0.0
  9
$DIMDLE
 40
0.0
  9
$DIMEXE
 40
30.0
  9
$DIMTP
 40
0.0
  9
$DIMTM
 40
0.0
  9
$DIMTXT
 40
64.0
  9
$DIMCEN
 40
0.09
  9
$DIMTSZ
 40
0.0
  9
$DIMTOL
 70
     0
  9
$DIMLIM
 70
     0
  9
$DIMTIH
 70
     0
  9
$DIMTOH
 70
     0
  9
$DIMSE1
 70
     0
  9
$DIMSE2
 70
     0
  9
$DIMTAD
 70
     1
  9
$DIMZIN
 70
     8
  9
$DIMBLK
  1

  9
$DIMASO
 70
     1
  9
$DIMSHO
 70
     0
  9
$DIMPOST
  1

  9
$DIMAPOST
  1

  9
$DIMALT
 70
     0
  9
$DIMALTD
 70
     2
  9
$DIMALTF
 40
25.4
  9
$DIMLFAC
 40
1.0
  9
$DIMTOFL
 70
     1
  9
$DIMTVP
 40
0.0
  9
$DIMTIX
 70
     1
  9
$DIMSOXD
 70
     0
  9
$DIMSAH
 70
     0
  9
$DIMBLK1
  1

  9
$DIMBLK2
  1

  9
$DIMSTYLE
  2
STANDARD
  9
$DIMCLRD
 70
     0
  9
$DIMCLRE
 70
     0
  9
$DIMCLRT
 70
     0
  9
$DIMTFAC
 40
1.0
  9
$DIMGAP
 40
0.09
  9
$LUNITS
 70
     2
  9
$LUPREC
 70
     4
  9
$SKETCHINC
 40
0.1
  9
$FILLETRAD
 40
15.0
  9
$AUNITS
 70
     1
  9
$AUPREC
 70
     3
  9
$MENU
  1
ACAD
  9
$ELEVATION
 40
0.0
  9
$PELEVATION
 40
0.0
  9
$THICKNESS
 40
0.0
  9
$LIMCHECK
 70
     0
  9
$CHAMFERA
 40
0.0
  9
$CHAMFERB
 40
0.0
  9
$SKPOLY
 70
     0
  9
$TDCREATE
 40
2450968.443425914
  9
$TDUPDATE
 40
2457485.55604537
  9
$TDINDWG
 40
0.0364483681
  9
$TDUSRTIMER
 40
0.0364478241
  9
$USRTIMER
 70
     1
  9
$ANGBASE
 50
0.0
  9
$ANGDIR
 70
     0
  9
$PDMODE
 70
     3
  9
$PDSIZE
 40
-2.0
  9
$PLINEWID
 40
0.0
  9
$COORDS
 70
     1
  9
$SPLFRAME
 70
     0
  9
$SPLINETYPE
 70
     6
  9
$SPLINESEGS
 70
     8
  9
$ATTDIA
 70
     0
  9
$ATTREQ
 70
     1
  9
$HANDLING
 70
     1
  9
$HANDSEED
  5
6DD
  9
$SURFTAB1
 70
     6
  9
$SURFTAB2
 70
     6
  9
$SURFTYPE
 70
     6
  9
$SURFU
 70
     6
  9
$SURFV
 70
     6
  9
$UCSNAME
  2

  9
$UCSORG
 10
0.0
 20
0.0
 30
0.0
  9
$UCSXDIR
 10
1.0
 20
0.0
 30
0.0
  9
$UCSYDIR
 10
0.0
 20
1.0
 30
0.0
  9
$PUCSNAME
  2

  9
$PUCSORG
 10
0.0
 20
0.0
 30
0.0
  9
$PUCSXDIR
 10
1.0
 20
0.0
 30
0.0
  9
$PUCSYDIR
 10
0.0
 20
1.0
 30
0.0
  9
$USERI1
 70
     0
  9
$USERI2
 70
     0
  9
$USERI3
 70
     0
  9
$USERI4
 70
     0
  9
$USERI5
 70
     0
  9
$USERR1
 40
20.0
  9
$USERR2
 40
0.0
  9
$USERR3
 40
0.0
  9
$USERR4
 40
0.0
  9
$USERR5
 40
0.0
  9
$WORLDVIEW
 70
     1
  9
$SHADEDGE
 70
     3
  9
$SHADEDIF
 70
    70
  9
$TILEMODE
 70
     1
  9
$MAXACTVP
 70
    64
  9
$PLIMCHECK
 70
     0
  9
$PEXTMIN
 10
1.000000000000000E+20
 20
1.000000000000000E+20
 30
1.000000000000000E+20
  9
$PEXTMAX
 10
-1.000000000000000E+20
 20
-1.000000000000000E+20
 30
-1.000000000000000E+20
  9
$PLIMMIN
 10
0.0
 20
0.0
  9
$PLIMMAX
 10
12.0
 20
9.0
  9
$UNITMODE
 70
     0
  9
$VISRETAIN
 70
     1
  9
$PLINEGEN
 70
     0
  9
$PSLTSCALE
 70
     1
  0
ENDSEC
  0
SECTION
  2
TABLES
  0
TABLE
  2
VPORT
 70
     1
  0
VPORT
  2
*ACTIVE
 70
     0
 10
0.0
 20
0.0
 11
1.0
 21
1.0
 12
301.3908487252551
 22
114.3196655148853
 13
0.0
 23
0.0
 14
50.0
 24
50.0
 15
100.0
 25
100.0
 16
0.0
 26
0.0
 36
1.0
 17
0.0
 27
0.0
 37
0.0
 40
1602.646276050604
 41
1.493654822335025
 42
50.0
 43
0.0
 44
0.0
 50
0.0
 51
0.0
 71
     0
 72
  1000
 73
     1
 74
     0
 75
     0
 76
     0
 77
     0
 78
     0
  0
ENDTAB
  0
TABLE
  2
LTYPE
 70
     7
  0
LTYPE
  2
CONTINUOUS
 70
     0
  3
実線
 72
    65
 73
     0
 40
0.0
  0
LTYPE
  2
DASHDOT
 70
     0
  3
____ _ ____ _ ____ _ ____ _ ____ _ ____ _ ____
 72
    65
 73
     4
 40
5.5
 49
4.0
 49
-0.6
 49
0.3
 49
-0.6
  0
LTYPE
  2
DASHED
 70
     0
  3
_ _ _ _ _ _ _ _ _ _ _ _ _ _ _ _ _ _ _ _ _ _ _
 72
    65
 73
     2
 40
1.999999999999999
 49
1.199999999999999
 49
-0.8
  0
LTYPE
  2
DOT
 70
     0
  3
...............................................
 72
    65
 73
     2
 40
0.8
 49
0.5
 49
-0.3
  0
LTYPE
  2
DASHDOT1
 70
     0
  3
____ _ ____ _ ____ _ ____ _ ____ _ ____ _ ____
 72
    65
 73
     4
 40
2.0
 49
1.5
 49
-0.2
 49
0.1
 49
-0.2
  0
LTYPE
  2
DIVIDE
 70
     0
  3
_____ _ _ _____ _ _ _____ _ _ _____ _ _ ____
 72
    65
 73
     6
 40
6.4
 49
4.0
 49
-0.6
 49
0.3
 49
-0.6
 49
0.3
 49
-0.6
  0
LTYPE
  2
DIVIDE1
 70
     0
  3
_____ _ _ _____ _ _ _____ _ _ _____ _ _ ____
 72
    65
 73
     6
 40
3.2
 49
2.0
 49
-0.3
 49
0.15
 49
-0.3
 49
0.15
 49
-0.3
  0
ENDTAB
  0
TABLE
  2
LAYER
 70
    12
  0
LAYER
  2
0
 70
     0
 62
     7
  6
CONTINUOUS
  0
LAYER
  2
SIZE
 70
     0
 62
    30
  6
CONTINUOUS
  0
LAYER
  2
OUTLINE
 70
     0
 62
     3
  6
CONTINUOUS
  0
LAYER
  2
DETAIL
 70
     0
 62
     5
  6
CONTINUOUS
  0
LAYER
  2
BASIS
 70
     0
 62
     6
  6
DASHDOT
  0
LAYER
  2
NOTE
 70
     0
 62
     4
  6
CONTINUOUS
  0
LAYER
  2
DEFPOINTS
 70
     0
 62
     7
  6
CONTINUOUS
  0
LAYER
  2
ETC
 70
     0
 62
    61
  6
CONTINUOUS
  0
LAYER
  2
ARRANGE
 70
     0
 62
     1
  6
CONTINUOUS
  0
LAYER
  2
FIX
 70
     0
 62
    11
  6
CONTINUOUS
  0
LAYER
  2
SERVICESPACE
 70
     0
 62
     2
  6
DASHDOT
  0
LAYER
  2
SYMBOLLINE
 70
     0
 62
    15
  6
CONTINUOUS
  0
ENDTAB
  0
TABLE
  2
STYLE
 70
     1
  0
STYLE
  2
STANDARD
 70
     0
 40
0.0
 41
0.9
 50
0.0
 71
     0
 42
64.0
  3
SIMPLEX
  4
BIGFONT
  0
ENDTAB
  0
TABLE
  2
VIEW
 70
     1
  0
VIEW
  2
ALL
 70
     0
 40
4282.619807999997
 10
0.0
 20
41.30990399999999
 41
5940.0
 11
0.0
 21
0.0
 31
1.0
 12
0.0
 22
0.0
 32
0.0
 42
50.0
 43
0.0
 44
0.0
 50
0.0
 71
     0
  0
ENDTAB
  0
TABLE
  2
UCS
 70
     0
  0
ENDTAB
  0
TABLE
  2
APPID
 70
     1
  0
APPID
  2
ACAD
 70
     0
  0
ENDTAB
  0
TABLE
  2
DIMSTYLE
 70
     1
  0
DIMSTYLE
  2
STANDARD
 70
     0
  3

  4

  5

  6

  7

 40
1.0
 41
0.18
 42
0.0625
 43
0.38
 44
0.18
 45
0.0
 46
0.0
 47
0.0
 48
0.0
140
0.18
141
0.09
142
0.0
143
25.4
144
1.0
145
0.0
146
1.0
147
0.09
 71
     0
 72
     0
 73
     1
 74
     1
 75
     0
 76
     0
 77
     0
 78
     0
170
     0
171
     2
172
     0
173
     0
174
     0
175
     0
176
     0
177
     0
178
     0
  0
ENDTAB
  0
ENDSEC
  0
SECTION
  2
BLOCKS
  0
BLOCK
  8
0
  2
$MODEL_SPACE
 70
     0
 10
0.0
 20
0.0
 30
0.0
  3
$MODEL_SPACE
  1

  0
ENDBLK
  5
471
  8
0
  0
BLOCK
 67
     1
  8
0
  2
$PAPER_SPACE
 70
     0
 10
0.0
 20
0.0
 30
0.0
  3
$PAPER_SPACE
  1

  0
ENDBLK
  5
46D
 67
     1
  8
0
  0
BLOCK
  8
0
  2
DOT1
 70
     0
 10
0.0
 20
0.0
 30
0.0
  3
DOT1
  1

  0
CIRCLE
  5
491
  8
SIZE
  6
CONTINUOUS
 62
     7
 10
0.0
 20
0.0
 30
0.0
 40
3.0
  0
ENDBLK
  5
492
  8
0
  0
BLOCK
  8
0
  2
_ORIGIN
 70
     0
 10
0.0
 20
0.0
 30
0.0
  3
_ORIGIN
  1

  0
CIRCLE
  5
495
  8
0
  6
CONTINUOUS
 62
     7
 10
0.0
 20
0.0
 30
0.0
 40
0.5
  0
LINE
  5
496
  8
0
  6
CONTINUOUS
 62
     7
 10
0.0
 20
0.0
 30
0.0
 11
-1.0
 21
0.0
 31
0.0
  0
ENDBLK
  5
497
  8
0
  0
ENDSEC
  0
SECTION
  2
ENTITIES
  0
LINE
  5
498
  8
BASIS
  6
DASHDOT
 62
     6
 10
-260.283632021732
 20
0.0
 30
0.0
 11
280.8521859999997
 21
0.0
 31
0.0
  0
LINE
  5
499
  8
DETAIL
  6
CONTINUOUS
 62
     5
 10
-174.0
 20
261.9999999999998
 30
0.0
 11
0.0
 21
261.9999999999998
 31
0.0
  0
LINE
  5
49A
  8
DETAIL
  6
CONTINUOUS
 62
     5
 10
-174.0
 20
-261.9999999999998
 30
0.0
 11
0.0
 21
-261.9999999999998
 31
0.0
  0
LINE
  5
49B
  8
DETAIL
  6
CONTINUOUS
 62
     5
 10
0.0
 20
-308.9999999999999
 30
0.0
 11
194.0
 21
-308.9999999999999
 31
0.0
  0
LINE
  5
49C
  8
DETAIL
  6
CONTINUOUS
 62
     5
 10
0.0
 20
308.9999999999999
 30
0.0
 11
194.0
 21
308.9999999999999
 31
0.0
  0
LINE
  5
49D
  8
NOTE
  6
CONTINUOUS
 62
     4
 10
0.0
 20
279.9999999999999
 30
0.0
 11
-226.903189
 21
423.667271
 31
0.0
  0
LINE
  5
49E
  8
NOTE
  6
CONTINUOUS
 62
     4
 10
-226.903189
 20
423.667271
 30
0.0
 11
-519.8711089999998
 21
423.667271
 31
0.0
  0
LINE
  5
49F
  8
DETAIL
  6
CONTINUOUS
 62
     5
 10
0.0
 20
308.9999999999999
 30
0.0
 11
0.0
 21
-308.9999999999999
 31
0.0
  0
TEXT
  5
4A0
  8
NOTE
  6
CONTINUOUS
 62
     4
 10
-509.7558679999999
 20
449.933257
 30
0.0
 40
64.0
  1
4-φ14
 41
0.9
  0
LINE
  5
4A1
  8
DETAIL
  6
CONTINUOUS
 62
     5
 10
-189.0
 20
246.9999999999999
 30
0.0
 11
-189.0
 21
-246.9999999999999
 31
0.0
  0
LINE
  5
4A2
  8
DETAIL
  6
CONTINUOUS
 62
     5
 10
223.9999999999997
 20
278.9999999999998
 30
0.0
 11
223.9999999999997
 21
-278.9999999999998
 31
0.0
  0
LINE
  5
4A3
  8
DETAIL
  6
CONTINUOUS
 62
     5
 10
223.9999999999997
 20
-262.903848
 30
0.0
 11
0.0
 21
-262.903848
 31
0.0
  0
LINE
  5
4A4
  8
DETAIL
  6
CONTINUOUS
 62
     5
 10
223.9999999999997
 20
262.903848
 30
0.0
 11
0.0
 21
262.903848
 31
0.0
  0
LINE
  5
4A5
  8
DETAIL
  6
CONTINUOUS
 62
     5
 10
223.9999999999997
 20
87.63461600000002
 30
0.0
 11
131.1538469999999
 21
87.63461600000002
 31
0.0
  0
LINE
  5
4A6
  8
DETAIL
  6
CONTINUOUS
 62
     5
 10
223.9999999999997
 20
82.86538500000002
 30
0.0
 11
131.1538469999999
 21
82.86538500000002
 31
0.0
  0
LINE
  5
4A7
  8
DETAIL
  6
CONTINUOUS
 62
     5
 10
223.9999999999997
 20
-82.86538499999985
 30
0.0
 11
131.1538469999999
 21
-82.86538499999985
 31
0.0
  0
LINE
  5
4A8
  8
DETAIL
  6
CONTINUOUS
 62
     5
 10
223.9999999999997
 20
-87.63461599999975
 30
0.0
 11
131.1538469999999
 21
-87.63461599999975
 31
0.0
  0
LINE
  5
4A9
  8
DETAIL
  6
CONTINUOUS
 62
     5
 10
223.9999999999997
 20
258.1346169999999
 30
0.0
 11
131.1538469999999
 21
258.1346169999999
 31
0.0
  0
LINE
  5
4AA
  8
DETAIL
  6
CONTINUOUS
 62
     5
 10
223.9999999999997
 20
253.3653859999998
 30
0.0
 11
131.1538469999999
 21
253.3653859999998
 31
0.0
  0
LINE
  5
4AB
  8
DETAIL
  6
CONTINUOUS
 62
     5
 10
223.9999999999997
 20
-258.1346169999999
 30
0.0
 11
131.1538469999999
 21
-258.1346169999999
 31
0.0
  0
LINE
  5
4AC
  8
DETAIL
  6
CONTINUOUS
 62
     5
 10
223.9999999999997
 20
-253.3653859999999
 30
0.0
 11
131.1538469999999
 21
-253.3653859999999
 31
0.0
  0
LINE
  5
4AD
  8
DETAIL
  6
CONTINUOUS
 62
     5
 10
190.7443489999997
 20
238.46154
 30
0.0
 11
190.7443489999997
 21
208.653848
 31
0.0
  0
LINE
  5
4AE
  8
DETAIL
  6
CONTINUOUS
 62
     5
 10
172.8597339999998
 20
238.46154
 30
0.0
 11
172.8597339999998
 21
208.653848
 31
0.0
  0
ARC
  5
4AF
  8
DETAIL
  6
CONTINUOUS
 62
     5
 10
181.802041
 20
208.653848
 30
0.0
 40
8.942308
 50
180.0
 51
0.0
  0
ARC
  5
4B0
  8
DETAIL
  6
CONTINUOUS
 62
     5
 10
181.802041
 20
238.46154
 30
0.0
 40
8.942308
 50
0.0
 51
180.0
  0
LINE
  5
4B1
  8
DETAIL
  6
CONTINUOUS
 62
     5
 10
172.8597339999998
 20
238.46154
 30
0.0
 11
172.8597339999998
 21
208.653848
 31
0.0
  0
LINE
  5
4B2
  8
DETAIL
  6
CONTINUOUS
 62
     5
 10
172.8597339999998
 20
186.0000009999999
 30
0.0
 11
172.8597339999998
 21
156.192309
 31
0.0
  0
ARC
  5
4B3
  8
DETAIL
  6
CONTINUOUS
 62
     5
 10
181.802041
 20
186.0000009999999
 30
0.0
 40
8.942308
 50
0.0
 51
180.0
  0
ARC
  5
4B4
  8
DETAIL
  6
CONTINUOUS
 62
     5
 10
181.802041
 20
156.192309
 30
0.0
 40
8.942308
 50
180.0
 51
0.0
  0
LINE
  5
4B5
  8
DETAIL
  6
CONTINUOUS
 62
     5
 10
172.8597339999998
 20
186.0000009999999
 30
0.0
 11
172.8597339999998
 21
156.192309
 31
0.0
  0
LINE
  5
4B6
  8
DETAIL
  6
CONTINUOUS
 62
     5
 10
190.7443489999997
 20
186.0000009999999
 30
0.0
 11
190.7443489999997
 21
156.192309
 31
0.0
  0
LINE
  5
4B7
  8
DETAIL
  6
CONTINUOUS
 62
     5
 10
172.8597339999998
 20
133.538462
 30
0.0
 11
172.8597339999998
 21
103.73077
 31
0.0
  0
ARC
  5
4B8
  8
DETAIL
  6
CONTINUOUS
 62
     5
 10
181.802041
 20
133.538462
 30
0.0
 40
8.942308
 50
0.0
 51
180.0
  0
ARC
  5
4B9
  8
DETAIL
  6
CONTINUOUS
 62
     5
 10
181.802041
 20
103.73077
 30
0.0
 40
8.942308
 50
180.0
 51
0.0
  0
LINE
  5
4BA
  8
DETAIL
  6
CONTINUOUS
 62
     5
 10
172.8597339999998
 20
133.538462
 30
0.0
 11
172.8597339999998
 21
103.73077
 31
0.0
  0
LINE
  5
4BB
  8
DETAIL
  6
CONTINUOUS
 62
     5
 10
190.7443489999997
 20
133.538462
 30
0.0
 11
190.7443489999997
 21
103.73077
 31
0.0
  0
LINE
  5
4BC
  8
DETAIL
  6
CONTINUOUS
 62
     5
 10
143.052041
 20
133.538462
 30
0.0
 11
143.052041
 21
103.73077
 31
0.0
  0
LINE
  5
4BD
  8
DETAIL
  6
CONTINUOUS
 62
     5
 10
125.1674259999999
 20
133.538462
 30
0.0
 11
125.1674259999999
 21
103.73077
 31
0.0
  0
ARC
  5
4BE
  8
DETAIL
  6
CONTINUOUS
 62
     5
 10
134.109733
 20
103.73077
 30
0.0
 40
8.942308
 50
180.0
 51
0.0
  0
ARC
  5
4BF
  8
DETAIL
  6
CONTINUOUS
 62
     5
 10
134.109733
 20
133.538462
 30
0.0
 40
8.942308
 50
0.0
 51
180.0
  0
LINE
  5
4C0
  8
DETAIL
  6
CONTINUOUS
 62
     5
 10
125.1674259999999
 20
133.538462
 30
0.0
 11
125.1674259999999
 21
103.73077
 31
0.0
  0
LINE
  5
4C1
  8
DETAIL
  6
CONTINUOUS
 62
     5
 10
143.052041
 20
186.0000009999999
 30
0.0
 11
143.052041
 21
156.192309
 31
0.0
  0
LINE
  5
4C2
  8
DETAIL
  6
CONTINUOUS
 62
     5
 10
125.1674259999999
 20
186.0000009999999
 30
0.0
 11
125.1674259999999
 21
156.192309
 31
0.0
  0
ARC
  5
4C3
  8
DETAIL
  6
CONTINUOUS
 62
     5
 10
134.109733
 20
156.192309
 30
0.0
 40
8.942308
 50
180.0
 51
0.0
  0
ARC
  5
4C4
  8
DETAIL
  6
CONTINUOUS
 62
     5
 10
134.109733
 20
186.0000009999999
 30
0.0
 40
8.942308
 50
0.0
 51
180.0
  0
LINE
  5
4C5
  8
DETAIL
  6
CONTINUOUS
 62
     5
 10
125.1674259999999
 20
186.0000009999999
 30
0.0
 11
125.1674259999999
 21
156.192309
 31
0.0
  0
LINE
  5
4C6
  8
DETAIL
  6
CONTINUOUS
 62
     5
 10
125.1674259999999
 20
238.46154
 30
0.0
 11
125.1674259999999
 21
208.653848
 31
0.0
  0
ARC
  5
4C7
  8
DETAIL
  6
CONTINUOUS
 62
     5
 10
134.109733
 20
238.46154
 30
0.0
 40
8.942308
 50
0.0
 51
180.0
  0
ARC
  5
4C8
  8
DETAIL
  6
CONTINUOUS
 62
     5
 10
134.109733
 20
208.653848
 30
0.0
 40
8.942308
 50
180.0
 51
0.0
  0
LINE
  5
4C9
  8
DETAIL
  6
CONTINUOUS
 62
     5
 10
125.1674259999999
 20
238.46154
 30
0.0
 11
125.1674259999999
 21
208.653848
 31
0.0
  0
LINE
  5
4CA
  8
DETAIL
  6
CONTINUOUS
 62
     5
 10
143.052041
 20
238.46154
 30
0.0
 11
143.052041
 21
208.653848
 31
0.0
  0
LINE
  5
4CB
  8
DETAIL
  6
CONTINUOUS
 62
     5
 10
166.8981949999999
 20
238.46154
 30
0.0
 11
166.8981949999999
 21
208.653848
 31
0.0
  0
LINE
  5
4CC
  8
DETAIL
  6
CONTINUOUS
 62
     5
 10
149.01358
 20
238.46154
 30
0.0
 11
149.01358
 21
208.653848
 31
0.0
  0
ARC
  5
4CD
  8
DETAIL
  6
CONTINUOUS
 62
     5
 10
157.955887
 20
208.653848
 30
0.0
 40
8.942308
 50
180.0
 51
0.0
  0
ARC
  5
4CE
  8
DETAIL
  6
CONTINUOUS
 62
     5
 10
157.955887
 20
238.46154
 30
0.0
 40
8.942308
 50
0.0
 51
180.0
  0
LINE
  5
4CF
  8
DETAIL
  6
CONTINUOUS
 62
     5
 10
149.01358
 20
238.46154
 30
0.0
 11
149.01358
 21
208.653848
 31
0.0
  0
LINE
  5
4D0
  8
DETAIL
  6
CONTINUOUS
 62
     5
 10
149.01358
 20
186.0000009999999
 30
0.0
 11
149.01358
 21
156.192309
 31
0.0
  0
ARC
  5
4D1
  8
DETAIL
  6
CONTINUOUS
 62
     5
 10
157.955887
 20
186.0000009999999
 30
0.0
 40
8.942308
 50
0.0
 51
180.0
  0
ARC
  5
4D2
  8
DETAIL
  6
CONTINUOUS
 62
     5
 10
157.955887
 20
156.192309
 30
0.0
 40
8.942308
 50
180.0
 51
0.0
  0
LINE
  5
4D3
  8
DETAIL
  6
CONTINUOUS
 62
     5
 10
149.01358
 20
186.0000009999999
 30
0.0
 11
149.01358
 21
156.192309
 31
0.0
  0
LINE
  5
4D4
  8
DETAIL
  6
CONTINUOUS
 62
     5
 10
166.8981949999999
 20
186.0000009999999
 30
0.0
 11
166.8981949999999
 21
156.192309
 31
0.0
  0
LINE
  5
4D5
  8
DETAIL
  6
CONTINUOUS
 62
     5
 10
149.01358
 20
133.538462
 30
0.0
 11
149.01358
 21
103.73077
 31
0.0
  0
ARC
  5
4D6
  8
DETAIL
  6
CONTINUOUS
 62
     5
 10
157.955887
 20
133.538462
 30
0.0
 40
8.942308
 50
0.0
 51
180.0
  0
ARC
  5
4D7
  8
DETAIL
  6
CONTINUOUS
 62
     5
 10
157.955887
 20
103.73077
 30
0.0
 40
8.942308
 50
180.0
 51
0.0
  0
LINE
  5
4D8
  8
DETAIL
  6
CONTINUOUS
 62
     5
 10
149.01358
 20
133.538462
 30
0.0
 11
149.01358
 21
103.73077
 31
0.0
  0
LINE
  5
4D9
  8
DETAIL
  6
CONTINUOUS
 62
     5
 10
166.8981949999999
 20
133.538462
 30
0.0
 11
166.8981949999999
 21
103.73077
 31
0.0
  0
LINE
  5
4DA
  8
DETAIL
  6
CONTINUOUS
 62
     5
 10
95.359733
 20
133.538462
 30
0.0
 11
95.359733
 21
103.73077
 31
0.0
  0
LINE
  5
4DB
  8
DETAIL
  6
CONTINUOUS
 62
     5
 10
77.47511800000001
 20
133.538462
 30
0.0
 11
77.47511800000001
 21
103.73077
 31
0.0
  0
ARC
  5
4DC
  8
DETAIL
  6
CONTINUOUS
 62
     5
 10
86.41742499999992
 20
103.73077
 30
0.0
 40
8.942308
 50
180.0
 51
0.0
  0
ARC
  5
4DD
  8
DETAIL
  6
CONTINUOUS
 62
     5
 10
86.41742499999992
 20
133.538462
 30
0.0
 40
8.942308
 50
0.0
 51
180.0
  0
LINE
  5
4DE
  8
DETAIL
  6
CONTINUOUS
 62
     5
 10
77.47511800000001
 20
133.538462
 30
0.0
 11
77.47511800000001
 21
103.73077
 31
0.0
  0
LINE
  5
4DF
  8
DETAIL
  6
CONTINUOUS
 62
     5
 10
95.359733
 20
186.0000009999999
 30
0.0
 11
95.359733
 21
156.192309
 31
0.0
  0
LINE
  5
4E0
  8
DETAIL
  6
CONTINUOUS
 62
     5
 10
77.47511800000001
 20
186.0000009999999
 30
0.0
 11
77.47511800000001
 21
156.192309
 31
0.0
  0
ARC
  5
4E1
  8
DETAIL
  6
CONTINUOUS
 62
     5
 10
86.41742499999992
 20
156.192309
 30
0.0
 40
8.942308
 50
180.0
 51
0.0
  0
ARC
  5
4E2
  8
DETAIL
  6
CONTINUOUS
 62
     5
 10
86.41742499999992
 20
186.0000009999999
 30
0.0
 40
8.942308
 50
0.0
 51
180.0
  0
LINE
  5
4E3
  8
DETAIL
  6
CONTINUOUS
 62
     5
 10
77.47511800000001
 20
186.0000009999999
 30
0.0
 11
77.47511800000001
 21
156.192309
 31
0.0
  0
LINE
  5
4E4
  8
DETAIL
  6
CONTINUOUS
 62
     5
 10
77.47511800000001
 20
238.46154
 30
0.0
 11
77.47511800000001
 21
208.653848
 31
0.0
  0
ARC
  5
4E5
  8
DETAIL
  6
CONTINUOUS
 62
     5
 10
86.41742499999992
 20
238.46154
 30
0.0
 40
8.942308
 50
0.0
 51
180.0
  0
ARC
  5
4E6
  8
DETAIL
  6
CONTINUOUS
 62
     5
 10
86.41742499999992
 20
208.653848
 30
0.0
 40
8.942308
 50
180.0
 51
0.0
  0
LINE
  5
4E7
  8
DETAIL
  6
CONTINUOUS
 62
     5
 10
77.47511800000001
 20
238.46154
 30
0.0
 11
77.47511800000001
 21
208.653848
 31
0.0
  0
LINE
  5
4E8
  8
DETAIL
  6
CONTINUOUS
 62
     5
 10
95.359733
 20
238.46154
 30
0.0
 11
95.359733
 21
208.653848
 31
0.0
  0
LINE
  5
4E9
  8
DETAIL
  6
CONTINUOUS
 62
     5
 10
119.205887
 20
133.538462
 30
0.0
 11
119.205887
 21
103.73077
 31
0.0
  0
LINE
  5
4EA
  8
DETAIL
  6
CONTINUOUS
 62
     5
 10
101.321272
 20
133.538462
 30
0.0
 11
101.321272
 21
103.73077
 31
0.0
  0
ARC
  5
4EB
  8
DETAIL
  6
CONTINUOUS
 62
     5
 10
110.2635789999997
 20
103.73077
 30
0.0
 40
8.942308
 50
180.0
 51
0.0
  0
ARC
  5
4EC
  8
DETAIL
  6
CONTINUOUS
 62
     5
 10
110.2635789999997
 20
133.538462
 30
0.0
 40
8.942308
 50
0.0
 51
180.0
  0
LINE
  5
4ED
  8
DETAIL
  6
CONTINUOUS
 62
     5
 10
101.321272
 20
133.538462
 30
0.0
 11
101.321272
 21
103.73077
 31
0.0
  0
LINE
  5
4EE
  8
DETAIL
  6
CONTINUOUS
 62
     5
 10
119.205887
 20
186.0000009999999
 30
0.0
 11
119.205887
 21
156.192309
 31
0.0
  0
LINE
  5
4EF
  8
DETAIL
  6
CONTINUOUS
 62
     5
 10
101.321272
 20
186.0000009999999
 30
0.0
 11
101.321272
 21
156.192309
 31
0.0
  0
ARC
  5
4F0
  8
DETAIL
  6
CONTINUOUS
 62
     5
 10
110.2635789999997
 20
156.192309
 30
0.0
 40
8.942308
 50
180.0
 51
0.0
  0
ARC
  5
4F1
  8
DETAIL
  6
CONTINUOUS
 62
     5
 10
110.2635789999997
 20
186.0000009999999
 30
0.0
 40
8.942308
 50
0.0
 51
180.0
  0
LINE
  5
4F2
  8
DETAIL
  6
CONTINUOUS
 62
     5
 10
101.321272
 20
186.0000009999999
 30
0.0
 11
101.321272
 21
156.192309
 31
0.0
  0
LINE
  5
4F3
  8
DETAIL
  6
CONTINUOUS
 62
     5
 10
101.321272
 20
238.46154
 30
0.0
 11
101.321272
 21
208.653848
 31
0.0
  0
ARC
  5
4F4
  8
DETAIL
  6
CONTINUOUS
 62
     5
 10
110.2635789999997
 20
238.46154
 30
0.0
 40
8.942308
 50
0.0
 51
180.0
  0
ARC
  5
4F5
  8
DETAIL
  6
CONTINUOUS
 62
     5
 10
110.2635789999997
 20
208.653848
 30
0.0
 40
8.942308
 50
180.0
 51
0.0
  0
LINE
  5
4F6
  8
DETAIL
  6
CONTINUOUS
 62
     5
 10
101.321272
 20
238.46154
 30
0.0
 11
101.321272
 21
208.653848
 31
0.0
  0
LINE
  5
4F7
  8
DETAIL
  6
CONTINUOUS
 62
     5
 10
119.205887
 20
238.46154
 30
0.0
 11
119.205887
 21
208.653848
 31
0.0
  0
LINE
  5
4F8
  8
DETAIL
  6
CONTINUOUS
 62
     5
 10
214.6154039999997
 20
133.538462
 30
0.0
 11
214.6154039999997
 21
103.73077
 31
0.0
  0
LINE
  5
4F9
  8
DETAIL
  6
CONTINUOUS
 62
     5
 10
196.7307889999997
 20
133.538462
 30
0.0
 11
196.7307889999997
 21
103.73077
 31
0.0
  0
ARC
  5
4FA
  8
DETAIL
  6
CONTINUOUS
 62
     5
 10
205.6730959999997
 20
103.73077
 30
0.0
 40
8.942308
 50
180.0
 51
0.0
  0
ARC
  5
4FB
  8
DETAIL
  6
CONTINUOUS
 62
     5
 10
205.6730959999997
 20
133.538462
 30
0.0
 40
8.942308
 50
0.0
 51
180.0
  0
LINE
  5
4FC
  8
DETAIL
  6
CONTINUOUS
 62
     5
 10
196.7307889999997
 20
133.538462
 30
0.0
 11
196.7307889999997
 21
103.73077
 31
0.0
  0
LINE
  5
4FD
  8
DETAIL
  6
CONTINUOUS
 62
     5
 10
214.6154039999997
 20
186.0000009999999
 30
0.0
 11
214.6154039999997
 21
156.192309
 31
0.0
  0
LINE
  5
4FE
  8
DETAIL
  6
CONTINUOUS
 62
     5
 10
196.7307889999997
 20
186.0000009999999
 30
0.0
 11
196.7307889999997
 21
156.192309
 31
0.0
  0
ARC
  5
4FF
  8
DETAIL
  6
CONTINUOUS
 62
     5
 10
205.6730959999997
 20
156.192309
 30
0.0
 40
8.942308
 50
180.0
 51
0.0
  0
ARC
  5
500
  8
DETAIL
  6
CONTINUOUS
 62
     5
 10
205.6730959999997
 20
186.0000009999999
 30
0.0
 40
8.942308
 50
0.0
 51
180.0
  0
LINE
  5
501
  8
DETAIL
  6
CONTINUOUS
 62
     5
 10
196.7307889999997
 20
186.0000009999999
 30
0.0
 11
196.7307889999997
 21
156.192309
 31
0.0
  0
LINE
  5
502
  8
DETAIL
  6
CONTINUOUS
 62
     5
 10
196.7307889999997
 20
238.46154
 30
0.0
 11
196.7307889999997
 21
208.653848
 31
0.0
  0
ARC
  5
503
  8
DETAIL
  6
CONTINUOUS
 62
     5
 10
205.6730959999997
 20
238.46154
 30
0.0
 40
8.942308
 50
0.0
 51
180.0
  0
ARC
  5
504
  8
DETAIL
  6
CONTINUOUS
 62
     5
 10
205.6730959999997
 20
208.653848
 30
0.0
 40
8.942308
 50
180.0
 51
0.0
  0
LINE
  5
505
  8
DETAIL
  6
CONTINUOUS
 62
     5
 10
196.7307889999997
 20
238.46154
 30
0.0
 11
196.7307889999997
 21
208.653848
 31
0.0
  0
LINE
  5
506
  8
DETAIL
  6
CONTINUOUS
 62
     5
 10
214.6154039999997
 20
238.46154
 30
0.0
 11
214.6154039999997
 21
208.653848
 31
0.0
  0
LINE
  5
507
  8
DETAIL
  6
CONTINUOUS
 62
     5
 10
214.6154039999997
 20
67.96153900000002
 30
0.0
 11
214.6154039999997
 21
38.15384600000003
 31
0.0
  0
LINE
  5
508
  8
DETAIL
  6
CONTINUOUS
 62
     5
 10
196.7307889999997
 20
67.96153900000002
 30
0.0
 11
196.7307889999997
 21
38.15384600000003
 31
0.0
  0
ARC
  5
509
  8
DETAIL
  6
CONTINUOUS
 62
     5
 10
205.6730959999997
 20
38.15384600000003
 30
0.0
 40
8.942308
 50
180.0
 51
0.0
  0
ARC
  5
50A
  8
DETAIL
  6
CONTINUOUS
 62
     5
 10
205.6730959999997
 20
67.96153900000002
 30
0.0
 40
8.942308
 50
0.0
 51
180.0
  0
LINE
  5
50B
  8
DETAIL
  6
CONTINUOUS
 62
     5
 10
196.7307889999997
 20
67.96153900000002
 30
0.0
 11
196.7307889999997
 21
38.15384600000003
 31
0.0
  0
LINE
  5
50C
  8
DETAIL
  6
CONTINUOUS
 62
     5
 10
196.7307889999997
 20
15.50000000000002
 30
0.0
 11
196.7307889999997
 21
-14.30769199999997
 31
0.0
  0
ARC
  5
50D
  8
DETAIL
  6
CONTINUOUS
 62
     5
 10
205.6730959999997
 20
15.50000000000002
 30
0.0
 40
8.942308
 50
0.0
 51
180.0
  0
ARC
  5
50E
  8
DETAIL
  6
CONTINUOUS
 62
     5
 10
205.6730959999997
 20
-14.30769199999997
 30
0.0
 40
8.942308
 50
180.0
 51
0.0
  0
LINE
  5
50F
  8
DETAIL
  6
CONTINUOUS
 62
     5
 10
196.7307889999997
 20
15.50000000000002
 30
0.0
 11
196.7307889999997
 21
-14.30769199999997
 31
0.0
  0
LINE
  5
510
  8
DETAIL
  6
CONTINUOUS
 62
     5
 10
214.6154039999997
 20
15.50000000000002
 30
0.0
 11
214.6154039999997
 21
-14.30769199999997
 31
0.0
  0
LINE
  5
511
  8
DETAIL
  6
CONTINUOUS
 62
     5
 10
196.7307889999997
 20
-36.96153899999985
 30
0.0
 11
196.7307889999997
 21
-66.76923099999995
 31
0.0
  0
ARC
  5
512
  8
DETAIL
  6
CONTINUOUS
 62
     5
 10
205.6730959999997
 20
-36.96153899999985
 30
0.0
 40
8.942308
 50
0.0
 51
180.0
  0
ARC
  5
513
  8
DETAIL
  6
CONTINUOUS
 62
     5
 10
205.6730959999997
 20
-66.76923099999995
 30
0.0
 40
8.942308
 50
180.0
 51
0.0
  0
LINE
  5
514
  8
DETAIL
  6
CONTINUOUS
 62
     5
 10
196.7307889999997
 20
-36.96153899999985
 30
0.0
 11
196.7307889999997
 21
-66.76923099999995
 31
0.0
  0
LINE
  5
515
  8
DETAIL
  6
CONTINUOUS
 62
     5
 10
214.6154039999997
 20
-36.96153899999985
 30
0.0
 11
214.6154039999997
 21
-66.76923099999995
 31
0.0
  0
LINE
  5
516
  8
DETAIL
  6
CONTINUOUS
 62
     5
 10
119.205887
 20
67.96153900000002
 30
0.0
 11
119.205887
 21
38.15384600000003
 31
0.0
  0
LINE
  5
517
  8
DETAIL
  6
CONTINUOUS
 62
     5
 10
101.321272
 20
67.96153900000002
 30
0.0
 11
101.321272
 21
38.15384600000003
 31
0.0
  0
ARC
  5
518
  8
DETAIL
  6
CONTINUOUS
 62
     5
 10
110.2635789999997
 20
38.15384600000003
 30
0.0
 40
8.942308
 50
180.0
 51
0.0
  0
ARC
  5
519
  8
DETAIL
  6
CONTINUOUS
 62
     5
 10
110.2635789999997
 20
67.96153900000002
 30
0.0
 40
8.942308
 50
0.0
 51
180.0
  0
LINE
  5
51A
  8
DETAIL
  6
CONTINUOUS
 62
     5
 10
101.321272
 20
67.96153900000002
 30
0.0
 11
101.321272
 21
38.15384600000003
 31
0.0
  0
LINE
  5
51B
  8
DETAIL
  6
CONTINUOUS
 62
     5
 10
101.321272
 20
15.50000000000002
 30
0.0
 11
101.321272
 21
-14.30769199999997
 31
0.0
  0
ARC
  5
51C
  8
DETAIL
  6
CONTINUOUS
 62
     5
 10
110.2635789999997
 20
15.50000000000002
 30
0.0
 40
8.942308
 50
0.0
 51
180.0
  0
ARC
  5
51D
  8
DETAIL
  6
CONTINUOUS
 62
     5
 10
110.2635789999997
 20
-14.30769199999997
 30
0.0
 40
8.942308
 50
180.0
 51
0.0
  0
LINE
  5
51E
  8
DETAIL
  6
CONTINUOUS
 62
     5
 10
101.321272
 20
15.50000000000002
 30
0.0
 11
101.321272
 21
-14.30769199999997
 31
0.0
  0
LINE
  5
51F
  8
DETAIL
  6
CONTINUOUS
 62
     5
 10
119.205887
 20
15.50000000000002
 30
0.0
 11
119.205887
 21
-14.30769199999997
 31
0.0
  0
LINE
  5
520
  8
DETAIL
  6
CONTINUOUS
 62
     5
 10
101.321272
 20
-36.96153899999985
 30
0.0
 11
101.321272
 21
-66.76923099999995
 31
0.0
  0
ARC
  5
521
  8
DETAIL
  6
CONTINUOUS
 62
     5
 10
110.2635789999997
 20
-36.96153899999985
 30
0.0
 40
8.942308
 50
0.0
 51
180.0
  0
ARC
  5
522
  8
DETAIL
  6
CONTINUOUS
 62
     5
 10
110.2635789999997
 20
-66.76923099999995
 30
0.0
 40
8.942308
 50
180.0
 51
0.0
  0
LINE
  5
523
  8
DETAIL
  6
CONTINUOUS
 62
     5
 10
101.321272
 20
-36.96153899999985
 30
0.0
 11
101.321272
 21
-66.76923099999995
 31
0.0
  0
LINE
  5
524
  8
DETAIL
  6
CONTINUOUS
 62
     5
 10
119.205887
 20
-36.96153899999985
 30
0.0
 11
119.205887
 21
-66.76923099999995
 31
0.0
  0
LINE
  5
525
  8
DETAIL
  6
CONTINUOUS
 62
     5
 10
95.359733
 20
67.96153900000002
 30
0.0
 11
95.359733
 21
38.15384600000003
 31
0.0
  0
LINE
  5
526
  8
DETAIL
  6
CONTINUOUS
 62
     5
 10
77.47511800000001
 20
67.96153900000002
 30
0.0
 11
77.47511800000001
 21
38.15384600000003
 31
0.0
  0
ARC
  5
527
  8
DETAIL
  6
CONTINUOUS
 62
     5
 10
86.41742499999992
 20
38.15384600000003
 30
0.0
 40
8.942308
 50
180.0
 51
0.0
  0
ARC
  5
528
  8
DETAIL
  6
CONTINUOUS
 62
     5
 10
86.41742499999992
 20
67.96153900000002
 30
0.0
 40
8.942308
 50
0.0
 51
180.0
  0
LINE
  5
529
  8
DETAIL
  6
CONTINUOUS
 62
     5
 10
77.47511800000001
 20
67.96153900000002
 30
0.0
 11
77.47511800000001
 21
38.15384600000003
 31
0.0
  0
LINE
  5
52A
  8
DETAIL
  6
CONTINUOUS
 62
     5
 10
77.47511800000001
 20
15.50000000000002
 30
0.0
 11
77.47511800000001
 21
-14.30769199999997
 31
0.0
  0
ARC
  5
52B
  8
DETAIL
  6
CONTINUOUS
 62
     5
 10
86.41742499999992
 20
15.50000000000002
 30
0.0
 40
8.942308
 50
0.0
 51
180.0
  0
ARC
  5
52C
  8
DETAIL
  6
CONTINUOUS
 62
     5
 10
86.41742499999992
 20
-14.30769199999997
 30
0.0
 40
8.942308
 50
180.0
 51
0.0
  0
LINE
  5
52D
  8
DETAIL
  6
CONTINUOUS
 62
     5
 10
77.47511800000001
 20
15.50000000000002
 30
0.0
 11
77.47511800000001
 21
-14.30769199999997
 31
0.0
  0
LINE
  5
52E
  8
DETAIL
  6
CONTINUOUS
 62
     5
 10
95.359733
 20
15.50000000000002
 30
0.0
 11
95.359733
 21
-14.30769199999997
 31
0.0
  0
LINE
  5
52F
  8
DETAIL
  6
CONTINUOUS
 62
     5
 10
77.47511800000001
 20
-36.96153899999985
 30
0.0
 11
77.47511800000001
 21
-66.76923099999995
 31
0.0
  0
ARC
  5
530
  8
DETAIL
  6
CONTINUOUS
 62
     5
 10
86.41742499999992
 20
-36.96153899999985
 30
0.0
 40
8.942308
 50
0.0
 51
180.0
  0
ARC
  5
531
  8
DETAIL
  6
CONTINUOUS
 62
     5
 10
86.41742499999992
 20
-66.76923099999995
 30
0.0
 40
8.942308
 50
180.0
 51
0.0
  0
LINE
  5
532
  8
DETAIL
  6
CONTINUOUS
 62
     5
 10
77.47511800000001
 20
-36.96153899999985
 30
0.0
 11
77.47511800000001
 21
-66.76923099999995
 31
0.0
  0
LINE
  5
533
  8
DETAIL
  6
CONTINUOUS
 62
     5
 10
95.359733
 20
-36.96153899999985
 30
0.0
 11
95.359733
 21
-66.76923099999995
 31
0.0
  0
LINE
  5
534
  8
DETAIL
  6
CONTINUOUS
 62
     5
 10
166.8981949999999
 20
-36.96153899999985
 30
0.0
 11
166.8981949999999
 21
-66.76923099999995
 31
0.0
  0
LINE
  5
535
  8
DETAIL
  6
CONTINUOUS
 62
     5
 10
149.01358
 20
-36.96153899999985
 30
0.0
 11
149.01358
 21
-66.76923099999995
 31
0.0
  0
ARC
  5
536
  8
DETAIL
  6
CONTINUOUS
 62
     5
 10
157.955887
 20
-66.76923099999995
 30
0.0
 40
8.942308
 50
180.0
 51
0.0
  0
ARC
  5
537
  8
DETAIL
  6
CONTINUOUS
 62
     5
 10
157.955887
 20
-36.96153899999985
 30
0.0
 40
8.942308
 50
0.0
 51
180.0
  0
LINE
  5
538
  8
DETAIL
  6
CONTINUOUS
 62
     5
 10
149.01358
 20
-36.96153899999985
 30
0.0
 11
149.01358
 21
-66.76923099999995
 31
0.0
  0
LINE
  5
539
  8
DETAIL
  6
CONTINUOUS
 62
     5
 10
166.8981949999999
 20
15.50000000000002
 30
0.0
 11
166.8981949999999
 21
-14.30769199999997
 31
0.0
  0
LINE
  5
53A
  8
DETAIL
  6
CONTINUOUS
 62
     5
 10
149.01358
 20
15.50000000000002
 30
0.0
 11
149.01358
 21
-14.30769199999997
 31
0.0
  0
ARC
  5
53B
  8
DETAIL
  6
CONTINUOUS
 62
     5
 10
157.955887
 20
-14.30769199999997
 30
0.0
 40
8.942308
 50
180.0
 51
0.0
  0
ARC
  5
53C
  8
DETAIL
  6
CONTINUOUS
 62
     5
 10
157.955887
 20
15.50000000000002
 30
0.0
 40
8.942308
 50
0.0
 51
180.0
  0
LINE
  5
53D
  8
DETAIL
  6
CONTINUOUS
 62
     5
 10
149.01358
 20
15.50000000000002
 30
0.0
 11
149.01358
 21
-14.30769199999997
 31
0.0
  0
LINE
  5
53E
  8
DETAIL
  6
CONTINUOUS
 62
     5
 10
149.01358
 20
67.96153900000002
 30
0.0
 11
149.01358
 21
38.15384600000003
 31
0.0
  0
ARC
  5
53F
  8
DETAIL
  6
CONTINUOUS
 62
     5
 10
157.955887
 20
67.96153900000002
 30
0.0
 40
8.942308
 50
0.0
 51
180.0
  0
ARC
  5
540
  8
DETAIL
  6
CONTINUOUS
 62
     5
 10
157.955887
 20
38.15384600000003
 30
0.0
 40
8.942308
 50
180.0
 51
0.0
  0
LINE
  5
541
  8
DETAIL
  6
CONTINUOUS
 62
     5
 10
149.01358
 20
67.96153900000002
 30
0.0
 11
149.01358
 21
38.15384600000003
 31
0.0
  0
LINE
  5
542
  8
DETAIL
  6
CONTINUOUS
 62
     5
 10
166.8981949999999
 20
67.96153900000002
 30
0.0
 11
166.8981949999999
 21
38.15384600000003
 31
0.0
  0
LINE
  5
543
  8
DETAIL
  6
CONTINUOUS
 62
     5
 10
143.052041
 20
67.96153900000002
 30
0.0
 11
143.052041
 21
38.15384600000003
 31
0.0
  0
LINE
  5
544
  8
DETAIL
  6
CONTINUOUS
 62
     5
 10
125.1674259999999
 20
67.96153900000002
 30
0.0
 11
125.1674259999999
 21
38.15384600000003
 31
0.0
  0
ARC
  5
545
  8
DETAIL
  6
CONTINUOUS
 62
     5
 10
134.109733
 20
38.15384600000003
 30
0.0
 40
8.942308
 50
180.0
 51
0.0
  0
ARC
  5
546
  8
DETAIL
  6
CONTINUOUS
 62
     5
 10
134.109733
 20
67.96153900000002
 30
0.0
 40
8.942308
 50
0.0
 51
180.0
  0
LINE
  5
547
  8
DETAIL
  6
CONTINUOUS
 62
     5
 10
125.1674259999999
 20
67.96153900000002
 30
0.0
 11
125.1674259999999
 21
38.15384600000003
 31
0.0
  0
LINE
  5
548
  8
DETAIL
  6
CONTINUOUS
 62
     5
 10
125.1674259999999
 20
15.50000000000002
 30
0.0
 11
125.1674259999999
 21
-14.30769199999997
 31
0.0
  0
ARC
  5
549
  8
DETAIL
  6
CONTINUOUS
 62
     5
 10
134.109733
 20
15.50000000000002
 30
0.0
 40
8.942308
 50
0.0
 51
180.0
  0
ARC
  5
54A
  8
DETAIL
  6
CONTINUOUS
 62
     5
 10
134.109733
 20
-14.30769199999997
 30
0.0
 40
8.942308
 50
180.0
 51
0.0
  0
LINE
  5
54B
  8
DETAIL
  6
CONTINUOUS
 62
     5
 10
125.1674259999999
 20
15.50000000000002
 30
0.0
 11
125.1674259999999
 21
-14.30769199999997
 31
0.0
  0
LINE
  5
54C
  8
DETAIL
  6
CONTINUOUS
 62
     5
 10
143.052041
 20
15.50000000000002
 30
0.0
 11
143.052041
 21
-14.30769199999997
 31
0.0
  0
LINE
  5
54D
  8
DETAIL
  6
CONTINUOUS
 62
     5
 10
125.1674259999999
 20
-36.96153899999985
 30
0.0
 11
125.1674259999999
 21
-66.76923099999995
 31
0.0
  0
ARC
  5
54E
  8
DETAIL
  6
CONTINUOUS
 62
     5
 10
134.109733
 20
-36.96153899999985
 30
0.0
 40
8.942308
 50
0.0
 51
180.0
  0
ARC
  5
54F
  8
DETAIL
  6
CONTINUOUS
 62
     5
 10
134.109733
 20
-66.76923099999995
 30
0.0
 40
8.942308
 50
180.0
 51
0.0
  0
LINE
  5
550
  8
DETAIL
  6
CONTINUOUS
 62
     5
 10
125.1674259999999
 20
-36.96153899999985
 30
0.0
 11
125.1674259999999
 21
-66.76923099999995
 31
0.0
  0
LINE
  5
551
  8
DETAIL
  6
CONTINUOUS
 62
     5
 10
143.052041
 20
-36.96153899999985
 30
0.0
 11
143.052041
 21
-66.76923099999995
 31
0.0
  0
LINE
  5
552
  8
DETAIL
  6
CONTINUOUS
 62
     5
 10
190.7443489999997
 20
-36.96153899999985
 30
0.0
 11
190.7443489999997
 21
-66.76923099999995
 31
0.0
  0
LINE
  5
553
  8
DETAIL
  6
CONTINUOUS
 62
     5
 10
172.8597339999998
 20
-36.96153899999985
 30
0.0
 11
172.8597339999998
 21
-66.76923099999995
 31
0.0
  0
ARC
  5
554
  8
DETAIL
  6
CONTINUOUS
 62
     5
 10
181.802041
 20
-66.76923099999995
 30
0.0
 40
8.942308
 50
180.0
 51
0.0
  0
ARC
  5
555
  8
DETAIL
  6
CONTINUOUS
 62
     5
 10
181.802041
 20
-36.96153899999985
 30
0.0
 40
8.942308
 50
0.0
 51
180.0
  0
LINE
  5
556
  8
DETAIL
  6
CONTINUOUS
 62
     5
 10
172.8597339999998
 20
-36.96153899999985
 30
0.0
 11
172.8597339999998
 21
-66.76923099999995
 31
0.0
  0
LINE
  5
557
  8
DETAIL
  6
CONTINUOUS
 62
     5
 10
190.7443489999997
 20
15.50000000000002
 30
0.0
 11
190.7443489999997
 21
-14.30769199999997
 31
0.0
  0
LINE
  5
558
  8
DETAIL
  6
CONTINUOUS
 62
     5
 10
172.8597339999998
 20
15.50000000000002
 30
0.0
 11
172.8597339999998
 21
-14.30769199999997
 31
0.0
  0
ARC
  5
559
  8
DETAIL
  6
CONTINUOUS
 62
     5
 10
181.802041
 20
-14.30769199999997
 30
0.0
 40
8.942308
 50
180.0
 51
0.0
  0
ARC
  5
55A
  8
DETAIL
  6
CONTINUOUS
 62
     5
 10
181.802041
 20
15.50000000000002
 30
0.0
 40
8.942308
 50
0.0
 51
180.0
  0
LINE
  5
55B
  8
DETAIL
  6
CONTINUOUS
 62
     5
 10
172.8597339999998
 20
15.50000000000002
 30
0.0
 11
172.8597339999998
 21
-14.30769199999997
 31
0.0
  0
LINE
  5
55C
  8
DETAIL
  6
CONTINUOUS
 62
     5
 10
172.8597339999998
 20
67.96153900000002
 30
0.0
 11
172.8597339999998
 21
38.15384600000003
 31
0.0
  0
ARC
  5
55D
  8
DETAIL
  6
CONTINUOUS
 62
     5
 10
181.802041
 20
67.96153900000002
 30
0.0
 40
8.942308
 50
0.0
 51
180.0
  0
ARC
  5
55E
  8
DETAIL
  6
CONTINUOUS
 62
     5
 10
181.802041
 20
38.15384600000003
 30
0.0
 40
8.942308
 50
180.0
 51
0.0
  0
LINE
  5
55F
  8
DETAIL
  6
CONTINUOUS
 62
     5
 10
172.8597339999998
 20
67.96153900000002
 30
0.0
 11
172.8597339999998
 21
38.15384600000003
 31
0.0
  0
LINE
  5
560
  8
DETAIL
  6
CONTINUOUS
 62
     5
 10
190.7443489999997
 20
67.96153900000002
 30
0.0
 11
190.7443489999997
 21
38.15384600000003
 31
0.0
  0
LINE
  5
561
  8
DETAIL
  6
CONTINUOUS
 62
     5
 10
190.7443489999997
 20
-102.5384619999999
 30
0.0
 11
190.7443489999997
 21
-132.346155
 31
0.0
  0
LINE
  5
562
  8
DETAIL
  6
CONTINUOUS
 62
     5
 10
172.8597339999998
 20
-102.5384619999999
 30
0.0
 11
172.8597339999998
 21
-132.346155
 31
0.0
  0
ARC
  5
563
  8
DETAIL
  6
CONTINUOUS
 62
     5
 10
181.802041
 20
-132.346155
 30
0.0
 40
8.942308
 50
180.0
 51
0.0
  0
ARC
  5
564
  8
DETAIL
  6
CONTINUOUS
 62
     5
 10
181.802041
 20
-102.5384619999999
 30
0.0
 40
8.942308
 50
0.0
 51
180.0
  0
LINE
  5
565
  8
DETAIL
  6
CONTINUOUS
 62
     5
 10
172.8597339999998
 20
-102.5384619999999
 30
0.0
 11
172.8597339999998
 21
-132.346155
 31
0.0
  0
LINE
  5
566
  8
DETAIL
  6
CONTINUOUS
 62
     5
 10
172.8597339999998
 20
-155.0000009999999
 30
0.0
 11
172.8597339999998
 21
-184.8076939999997
 31
0.0
  0
ARC
  5
567
  8
DETAIL
  6
CONTINUOUS
 62
     5
 10
181.802041
 20
-155.0000009999999
 30
0.0
 40
8.942308
 50
0.0
 51
180.0
  0
ARC
  5
568
  8
DETAIL
  6
CONTINUOUS
 62
     5
 10
181.802041
 20
-184.8076939999997
 30
0.0
 40
8.942308
 50
180.0
 51
0.0
  0
LINE
  5
569
  8
DETAIL
  6
CONTINUOUS
 62
     5
 10
172.8597339999998
 20
-155.0000009999999
 30
0.0
 11
172.8597339999998
 21
-184.8076939999997
 31
0.0
  0
LINE
  5
56A
  8
DETAIL
  6
CONTINUOUS
 62
     5
 10
190.7443489999997
 20
-155.0000009999999
 30
0.0
 11
190.7443489999997
 21
-184.8076939999997
 31
0.0
  0
LINE
  5
56B
  8
DETAIL
  6
CONTINUOUS
 62
     5
 10
172.8597339999998
 20
-207.46154
 30
0.0
 11
172.8597339999998
 21
-237.2692319999999
 31
0.0
  0
ARC
  5
56C
  8
DETAIL
  6
CONTINUOUS
 62
     5
 10
181.802041
 20
-207.46154
 30
0.0
 40
8.942308
 50
0.0
 51
180.0
  0
ARC
  5
56D
  8
DETAIL
  6
CONTINUOUS
 62
     5
 10
181.802041
 20
-237.2692319999999
 30
0.0
 40
8.942308
 50
180.0
 51
0.0
  0
LINE
  5
56E
  8
DETAIL
  6
CONTINUOUS
 62
     5
 10
172.8597339999998
 20
-207.46154
 30
0.0
 11
172.8597339999998
 21
-237.2692319999999
 31
0.0
  0
LINE
  5
56F
  8
DETAIL
  6
CONTINUOUS
 62
     5
 10
190.7443489999997
 20
-207.46154
 30
0.0
 11
190.7443489999997
 21
-237.2692319999999
 31
0.0
  0
LINE
  5
570
  8
DETAIL
  6
CONTINUOUS
 62
     5
 10
143.052041
 20
-207.46154
 30
0.0
 11
143.052041
 21
-237.2692319999999
 31
0.0
  0
LINE
  5
571
  8
DETAIL
  6
CONTINUOUS
 62
     5
 10
125.1674259999999
 20
-207.46154
 30
0.0
 11
125.1674259999999
 21
-237.2692319999999
 31
0.0
  0
ARC
  5
572
  8
DETAIL
  6
CONTINUOUS
 62
     5
 10
134.109733
 20
-237.2692319999999
 30
0.0
 40
8.942308
 50
180.0
 51
0.0
  0
ARC
  5
573
  8
DETAIL
  6
CONTINUOUS
 62
     5
 10
134.109733
 20
-207.46154
 30
0.0
 40
8.942308
 50
0.0
 51
180.0
  0
LINE
  5
574
  8
DETAIL
  6
CONTINUOUS
 62
     5
 10
125.1674259999999
 20
-207.46154
 30
0.0
 11
125.1674259999999
 21
-237.2692319999999
 31
0.0
  0
LINE
  5
575
  8
DETAIL
  6
CONTINUOUS
 62
     5
 10
143.052041
 20
-155.0000009999999
 30
0.0
 11
143.052041
 21
-184.8076939999997
 31
0.0
  0
LINE
  5
576
  8
DETAIL
  6
CONTINUOUS
 62
     5
 10
125.1674259999999
 20
-155.0000009999999
 30
0.0
 11
125.1674259999999
 21
-184.8076939999997
 31
0.0
  0
ARC
  5
577
  8
DETAIL
  6
CONTINUOUS
 62
     5
 10
134.109733
 20
-184.8076939999997
 30
0.0
 40
8.942308
 50
180.0
 51
0.0
  0
ARC
  5
578
  8
DETAIL
  6
CONTINUOUS
 62
     5
 10
134.109733
 20
-155.0000009999999
 30
0.0
 40
8.942308
 50
0.0
 51
180.0
  0
LINE
  5
579
  8
DETAIL
  6
CONTINUOUS
 62
     5
 10
125.1674259999999
 20
-155.0000009999999
 30
0.0
 11
125.1674259999999
 21
-184.8076939999997
 31
0.0
  0
LINE
  5
57A
  8
DETAIL
  6
CONTINUOUS
 62
     5
 10
125.1674259999999
 20
-102.5384619999999
 30
0.0
 11
125.1674259999999
 21
-132.346155
 31
0.0
  0
ARC
  5
57B
  8
DETAIL
  6
CONTINUOUS
 62
     5
 10
134.109733
 20
-102.5384619999999
 30
0.0
 40
8.942308
 50
0.0
 51
180.0
  0
ARC
  5
57C
  8
DETAIL
  6
CONTINUOUS
 62
     5
 10
134.109733
 20
-132.346155
 30
0.0
 40
8.942308
 50
180.0
 51
0.0
  0
LINE
  5
57D
  8
DETAIL
  6
CONTINUOUS
 62
     5
 10
125.1674259999999
 20
-102.5384619999999
 30
0.0
 11
125.1674259999999
 21
-132.346155
 31
0.0
  0
LINE
  5
57E
  8
DETAIL
  6
CONTINUOUS
 62
     5
 10
143.052041
 20
-102.5384619999999
 30
0.0
 11
143.052041
 21
-132.346155
 31
0.0
  0
LINE
  5
57F
  8
DETAIL
  6
CONTINUOUS
 62
     5
 10
166.8981949999999
 20
-102.5384619999999
 30
0.0
 11
166.8981949999999
 21
-132.346155
 31
0.0
  0
LINE
  5
580
  8
DETAIL
  6
CONTINUOUS
 62
     5
 10
149.01358
 20
-102.5384619999999
 30
0.0
 11
149.01358
 21
-132.346155
 31
0.0
  0
ARC
  5
581
  8
DETAIL
  6
CONTINUOUS
 62
     5
 10
157.955887
 20
-132.346155
 30
0.0
 40
8.942308
 50
180.0
 51
0.0
  0
ARC
  5
582
  8
DETAIL
  6
CONTINUOUS
 62
     5
 10
157.955887
 20
-102.5384619999999
 30
0.0
 40
8.942308
 50
0.0
 51
180.0
  0
LINE
  5
583
  8
DETAIL
  6
CONTINUOUS
 62
     5
 10
149.01358
 20
-102.5384619999999
 30
0.0
 11
149.01358
 21
-132.346155
 31
0.0
  0
LINE
  5
584
  8
DETAIL
  6
CONTINUOUS
 62
     5
 10
149.01358
 20
-155.0000009999999
 30
0.0
 11
149.01358
 21
-184.8076939999997
 31
0.0
  0
ARC
  5
585
  8
DETAIL
  6
CONTINUOUS
 62
     5
 10
157.955887
 20
-155.0000009999999
 30
0.0
 40
8.942308
 50
0.0
 51
180.0
  0
ARC
  5
586
  8
DETAIL
  6
CONTINUOUS
 62
     5
 10
157.955887
 20
-184.8076939999997
 30
0.0
 40
8.942308
 50
180.0
 51
0.0
  0
LINE
  5
587
  8
DETAIL
  6
CONTINUOUS
 62
     5
 10
149.01358
 20
-155.0000009999999
 30
0.0
 11
149.01358
 21
-184.8076939999997
 31
0.0
  0
LINE
  5
588
  8
DETAIL
  6
CONTINUOUS
 62
     5
 10
166.8981949999999
 20
-155.0000009999999
 30
0.0
 11
166.8981949999999
 21
-184.8076939999997
 31
0.0
  0
LINE
  5
589
  8
DETAIL
  6
CONTINUOUS
 62
     5
 10
149.01358
 20
-207.46154
 30
0.0
 11
149.01358
 21
-237.2692319999999
 31
0.0
  0
ARC
  5
58A
  8
DETAIL
  6
CONTINUOUS
 62
     5
 10
157.955887
 20
-207.46154
 30
0.0
 40
8.942308
 50
0.0
 51
180.0
  0
ARC
  5
58B
  8
DETAIL
  6
CONTINUOUS
 62
     5
 10
157.955887
 20
-237.2692319999999
 30
0.0
 40
8.942308
 50
180.0
 51
0.0
  0
LINE
  5
58C
  8
DETAIL
  6
CONTINUOUS
 62
     5
 10
149.01358
 20
-207.46154
 30
0.0
 11
149.01358
 21
-237.2692319999999
 31
0.0
  0
LINE
  5
58D
  8
DETAIL
  6
CONTINUOUS
 62
     5
 10
166.8981949999999
 20
-207.46154
 30
0.0
 11
166.8981949999999
 21
-237.2692319999999
 31
0.0
  0
LINE
  5
58E
  8
DETAIL
  6
CONTINUOUS
 62
     5
 10
95.359733
 20
-207.46154
 30
0.0
 11
95.359733
 21
-237.2692319999999
 31
0.0
  0
LINE
  5
58F
  8
DETAIL
  6
CONTINUOUS
 62
     5
 10
77.47511800000001
 20
-207.46154
 30
0.0
 11
77.47511800000001
 21
-237.2692319999999
 31
0.0
  0
ARC
  5
590
  8
DETAIL
  6
CONTINUOUS
 62
     5
 10
86.41742499999992
 20
-237.2692319999999
 30
0.0
 40
8.942308
 50
180.0
 51
0.0
  0
ARC
  5
591
  8
DETAIL
  6
CONTINUOUS
 62
     5
 10
86.41742499999992
 20
-207.46154
 30
0.0
 40
8.942308
 50
0.0
 51
180.0
  0
LINE
  5
592
  8
DETAIL
  6
CONTINUOUS
 62
     5
 10
77.47511800000001
 20
-207.46154
 30
0.0
 11
77.47511800000001
 21
-237.2692319999999
 31
0.0
  0
LINE
  5
593
  8
DETAIL
  6
CONTINUOUS
 62
     5
 10
95.359733
 20
-155.0000009999999
 30
0.0
 11
95.359733
 21
-184.8076939999997
 31
0.0
  0
LINE
  5
594
  8
DETAIL
  6
CONTINUOUS
 62
     5
 10
77.47511800000001
 20
-155.0000009999999
 30
0.0
 11
77.47511800000001
 21
-184.8076939999997
 31
0.0
  0
ARC
  5
595
  8
DETAIL
  6
CONTINUOUS
 62
     5
 10
86.41742499999992
 20
-184.8076939999997
 30
0.0
 40
8.942308
 50
180.0
 51
0.0
  0
ARC
  5
596
  8
DETAIL
  6
CONTINUOUS
 62
     5
 10
86.41742499999992
 20
-155.0000009999999
 30
0.0
 40
8.942308
 50
0.0
 51
180.0
  0
LINE
  5
597
  8
DETAIL
  6
CONTINUOUS
 62
     5
 10
77.47511800000001
 20
-155.0000009999999
 30
0.0
 11
77.47511800000001
 21
-184.8076939999997
 31
0.0
  0
LINE
  5
598
  8
DETAIL
  6
CONTINUOUS
 62
     5
 10
77.47511800000001
 20
-102.5384619999999
 30
0.0
 11
77.47511800000001
 21
-132.346155
 31
0.0
  0
ARC
  5
599
  8
DETAIL
  6
CONTINUOUS
 62
     5
 10
86.41742499999992
 20
-102.5384619999999
 30
0.0
 40
8.942308
 50
0.0
 51
180.0
  0
ARC
  5
59A
  8
DETAIL
  6
CONTINUOUS
 62
     5
 10
86.41742499999992
 20
-132.346155
 30
0.0
 40
8.942308
 50
180.0
 51
0.0
  0
LINE
  5
59B
  8
DETAIL
  6
CONTINUOUS
 62
     5
 10
77.47511800000001
 20
-102.5384619999999
 30
0.0
 11
77.47511800000001
 21
-132.346155
 31
0.0
  0
LINE
  5
59C
  8
DETAIL
  6
CONTINUOUS
 62
     5
 10
95.359733
 20
-102.5384619999999
 30
0.0
 11
95.359733
 21
-132.346155
 31
0.0
  0
LINE
  5
59D
  8
DETAIL
  6
CONTINUOUS
 62
     5
 10
119.205887
 20
-207.46154
 30
0.0
 11
119.205887
 21
-237.2692319999999
 31
0.0
  0
LINE
  5
59E
  8
DETAIL
  6
CONTINUOUS
 62
     5
 10
101.321272
 20
-207.46154
 30
0.0
 11
101.321272
 21
-237.2692319999999
 31
0.0
  0
ARC
  5
59F
  8
DETAIL
  6
CONTINUOUS
 62
     5
 10
110.2635789999997
 20
-237.2692319999999
 30
0.0
 40
8.942308
 50
180.0
 51
0.0
  0
ARC
  5
5A0
  8
DETAIL
  6
CONTINUOUS
 62
     5
 10
110.2635789999997
 20
-207.46154
 30
0.0
 40
8.942308
 50
0.0
 51
180.0
  0
LINE
  5
5A1
  8
DETAIL
  6
CONTINUOUS
 62
     5
 10
101.321272
 20
-207.46154
 30
0.0
 11
101.321272
 21
-237.2692319999999
 31
0.0
  0
LINE
  5
5A2
  8
DETAIL
  6
CONTINUOUS
 62
     5
 10
119.205887
 20
-155.0000009999999
 30
0.0
 11
119.205887
 21
-184.8076939999997
 31
0.0
  0
LINE
  5
5A3
  8
DETAIL
  6
CONTINUOUS
 62
     5
 10
101.321272
 20
-155.0000009999999
 30
0.0
 11
101.321272
 21
-184.8076939999997
 31
0.0
  0
ARC
  5
5A4
  8
DETAIL
  6
CONTINUOUS
 62
     5
 10
110.2635789999997
 20
-184.8076939999997
 30
0.0
 40
8.942308
 50
180.0
 51
0.0
  0
ARC
  5
5A5
  8
DETAIL
  6
CONTINUOUS
 62
     5
 10
110.2635789999997
 20
-155.0000009999999
 30
0.0
 40
8.942308
 50
0.0
 51
180.0
  0
LINE
  5
5A6
  8
DETAIL
  6
CONTINUOUS
 62
     5
 10
101.321272
 20
-155.0000009999999
 30
0.0
 11
101.321272
 21
-184.8076939999997
 31
0.0
  0
LINE
  5
5A7
  8
DETAIL
  6
CONTINUOUS
 62
     5
 10
101.321272
 20
-102.5384619999999
 30
0.0
 11
101.321272
 21
-132.346155
 31
0.0
  0
ARC
  5
5A8
  8
DETAIL
  6
CONTINUOUS
 62
     5
 10
110.2635789999997
 20
-102.5384619999999
 30
0.0
 40
8.942308
 50
0.0
 51
180.0
  0
ARC
  5
5A9
  8
DETAIL
  6
CONTINUOUS
 62
     5
 10
110.2635789999997
 20
-132.346155
 30
0.0
 40
8.942308
 50
180.0
 51
0.0
  0
LINE
  5
5AA
  8
DETAIL
  6
CONTINUOUS
 62
     5
 10
101.321272
 20
-102.5384619999999
 30
0.0
 11
101.321272
 21
-132.346155
 31
0.0
  0
LINE
  5
5AB
  8
DETAIL
  6
CONTINUOUS
 62
     5
 10
119.205887
 20
-102.5384619999999
 30
0.0
 11
119.205887
 21
-132.346155
 31
0.0
  0
LINE
  5
5AC
  8
DETAIL
  6
CONTINUOUS
 62
     5
 10
214.6154039999997
 20
-207.46154
 30
0.0
 11
214.6154039999997
 21
-237.2692319999999
 31
0.0
  0
LINE
  5
5AD
  8
DETAIL
  6
CONTINUOUS
 62
     5
 10
196.7307889999997
 20
-207.46154
 30
0.0
 11
196.7307889999997
 21
-237.2692319999999
 31
0.0
  0
ARC
  5
5AE
  8
DETAIL
  6
CONTINUOUS
 62
     5
 10
205.6730959999997
 20
-237.2692319999999
 30
0.0
 40
8.942308
 50
180.0
 51
0.0
  0
ARC
  5
5AF
  8
DETAIL
  6
CONTINUOUS
 62
     5
 10
205.6730959999997
 20
-207.46154
 30
0.0
 40
8.942308
 50
0.0
 51
180.0
  0
LINE
  5
5B0
  8
DETAIL
  6
CONTINUOUS
 62
     5
 10
196.7307889999997
 20
-207.46154
 30
0.0
 11
196.7307889999997
 21
-237.2692319999999
 31
0.0
  0
LINE
  5
5B1
  8
DETAIL
  6
CONTINUOUS
 62
     5
 10
214.6154039999997
 20
-155.0000009999999
 30
0.0
 11
214.6154039999997
 21
-184.8076939999997
 31
0.0
  0
LINE
  5
5B2
  8
DETAIL
  6
CONTINUOUS
 62
     5
 10
196.7307889999997
 20
-155.0000009999999
 30
0.0
 11
196.7307889999997
 21
-184.8076939999997
 31
0.0
  0
ARC
  5
5B3
  8
DETAIL
  6
CONTINUOUS
 62
     5
 10
205.6730959999997
 20
-184.8076939999997
 30
0.0
 40
8.942308
 50
180.0
 51
0.0
  0
ARC
  5
5B4
  8
DETAIL
  6
CONTINUOUS
 62
     5
 10
205.6730959999997
 20
-155.0000009999999
 30
0.0
 40
8.942308
 50
0.0
 51
180.0
  0
LINE
  5
5B5
  8
DETAIL
  6
CONTINUOUS
 62
     5
 10
196.7307889999997
 20
-155.0000009999999
 30
0.0
 11
196.7307889999997
 21
-184.8076939999997
 31
0.0
  0
LINE
  5
5B6
  8
DETAIL
  6
CONTINUOUS
 62
     5
 10
196.7307889999997
 20
-102.5384619999999
 30
0.0
 11
196.7307889999997
 21
-132.346155
 31
0.0
  0
ARC
  5
5B7
  8
DETAIL
  6
CONTINUOUS
 62
     5
 10
205.6730959999997
 20
-102.5384619999999
 30
0.0
 40
8.942308
 50
0.0
 51
180.0
  0
ARC
  5
5B8
  8
DETAIL
  6
CONTINUOUS
 62
     5
 10
205.6730959999997
 20
-132.346155
 30
0.0
 40
8.942308
 50
180.0
 51
0.0
  0
LINE
  5
5B9
  8
DETAIL
  6
CONTINUOUS
 62
     5
 10
196.7307889999997
 20
-102.5384619999999
 30
0.0
 11
196.7307889999997
 21
-132.346155
 31
0.0
  0
LINE
  5
5BA
  8
DETAIL
  6
CONTINUOUS
 62
     5
 10
214.6154039999997
 20
-102.5384619999999
 30
0.0
 11
214.6154039999997
 21
-132.346155
 31
0.0
  0
LINE
  5
5BB
  8
DETAIL
  6
CONTINUOUS
 62
     5
 10
71.53846199999981
 20
262.903848
 30
0.0
 11
71.53846199999981
 21
-262.903848
 31
0.0
  0
LINE
  5
5BC
  8
DETAIL
  6
CONTINUOUS
 62
     5
 10
131.1538469999999
 20
262.903848
 30
0.0
 11
131.1538469999999
 21
-262.903848
 31
0.0
  0
ARC
  5
5BD
  8
DETAIL
  6
CONTINUOUS
 62
     5
 10
194.0
 20
278.9999999999998
 30
0.0
 40
30.0
 50
0.0
 51
90.0
  0
ARC
  5
5BE
  8
DETAIL
  6
CONTINUOUS
 62
     5
 10
194.0
 20
-278.9999999999998
 30
0.0
 40
30.0
 50
270.0
 51
0.0
  0
LINE
  5
5BF
  8
SIZE
  6
BYBLOCK
 62
    30
 10
0.0
 20
328.9999999999998
 30
0.0
 11
0.0
 21
502.565816
 31
0.0
  0
LINE
  5
5C0
  8
SIZE
  6
BYBLOCK
 62
    30
 10
223.9999999999997
 20
298.9999999999999
 30
0.0
 11
223.9999999999997
 21
581.7406503959692
 31
0.0
  0
LINE
  5
5C1
  8
SIZE
  6
BYBLOCK
 62
    30
 10
2.0
 20
550.182059269945
 30
0.0
 11
221.9999999999997
 21
550.182059269945
 31
0.0
  0
TEXT
  5
5C2
  8
SIZE
  6
BYBLOCK
 62
    30
 10
36.57142899999991
 20
582.182059269945
 30
0.0
 40
64.0
  1
224
 41
0.9
  0
LINE
  5
5C3
  8
SIZE
  6
BYBLOCK
 62
    30
 10
-20.00000000000028
 20
308.9999999999999
 30
0.0
 11
-721.8906109763628
 21
308.9999999999999
 31
0.0
  0
LINE
  5
5C4
  8
SIZE
  6
BYBLOCK
 62
    30
 10
-20.00000000000028
 20
-308.9999999999999
 30
0.0
 11
-724.1205931003886
 21
-308.9999999999999
 31
0.0
  0
LINE
  5
5C5
  8
SIZE
  6
BYBLOCK
 62
    30
 10
-689.224401271592
 20
306.9999999999999
 30
0.0
 11
-689.224401271592
 21
-306.9999999999999
 31
0.0
  0
TEXT
  5
5C6
  8
SIZE
  6
BYBLOCK
 62
    30
 10
-721.224401271592
 20
-68.57142899999975
 30
0.0
 40
64.0
  1
618
 50
90.0
 41
0.9
  0
LINE
  5
5C7
  8
SIZE
  6
BYBLOCK
 62
    30
 10
-40.00000000000028
 20
279.9999999999999
 30
0.0
 11
-601.4713962285075
 21
279.9999999999999
 31
0.0
  0
LINE
  5
5C8
  8
SIZE
  6
BYBLOCK
 62
    30
 10
-40.00000000000028
 20
-279.9999999999999
 30
0.0
 11
-603.701386536645
 21
-279.9999999999999
 31
0.0
  0
LINE
  5
5C9
  8
SIZE
  6
BYBLOCK
 62
    30
 10
-567.2345252715919
 20
277.9999999999999
 30
0.0
 11
-567.2345252715919
 21
-277.9999999999999
 31
0.0
  0
TEXT
  5
5CA
  8
SIZE
  6
BYBLOCK
 62
    30
 10
-599.2345252715919
 20
-74.05714299999984
 30
0.0
 40
64.0
  1
560
 50
90.0
 41
0.9
  0
LINE
  5
5CB
  8
SIZE
  6
BYBLOCK
 62
    30
 10
-209.0
 20
261.9999999999998
 30
0.0
 11
-458.7523356880573
 21
261.9999999999998
 31
0.0
  0
LINE
  5
5CC
  8
SIZE
  6
BYBLOCK
 62
    30
 10
-209.0
 20
-261.9999999999998
 30
0.0
 11
-465.4422902442475
 21
-261.9999999999998
 31
0.0
  0
LINE
  5
5CD
  8
SIZE
  6
BYBLOCK
 62
    30
 10
-427.075945271592
 20
259.9999999999998
 30
0.0
 11
-427.075945271592
 21
-259.9999999999998
 31
0.0
  0
TEXT
  5
5CE
  8
SIZE
  6
BYBLOCK
 62
    30
 10
-459.0759452715918
 20
-108.0685709999999
 30
0.0
 40
64.0
  1
□524
 50
90.0
 41
0.9
  0
LINE
  5
5CF
  8
SIZE
  6
BYBLOCK
 62
    30
 10
-189.0
 20
267.4444235915253
 30
0.0
 11
-189.0
 21
583.9697033208787
 31
0.0
  0
LINE
  5
5D0
  8
SIZE
  6
BYBLOCK
 62
    30
 10
0.0
 20
319.9999999999999
 30
0.0
 11
0.0
 21
583.9697033208787
 31
0.0
  0
LINE
  5
5D1
  8
SIZE
  6
BYBLOCK
 62
    30
 10
-187.0
 20
550.182059269945
 30
0.0
 11
-94.5
 21
550.182059269945
 31
0.0
  0
LINE
  5
5D2
  8
SIZE
  6
BYBLOCK
 62
    30
 10
-2.0
 20
550.182059269945
 30
0.0
 11
-94.5
 21
550.182059269945
 31
0.0
  0
TEXT
  5
5D3
  8
SIZE
  6
BYBLOCK
 62
    30
 10
-161.7
 20
582.182059269945
 30
0.0
 40
64.0
  1
189
 41
0.9
  0
CIRCLE
  5
5D4
  8
SIZE
  6
CONTINUOUS
 62
    30
 10
0.0
 20
550.182059269945
 30
0.0
 40
6.0
  0
CIRCLE
  5
5D5
  8
SIZE
  6
CONTINUOUS
 62
    30
 10
-189.0
 20
550.182059269945
 30
0.0
 40
6.0
  0
CIRCLE
  5
5D6
  8
SIZE
  6
CONTINUOUS
 62
    30
 10
-427.075945271592
 20
-261.9999999999998
 30
0.0
 40
6.0
  0
CIRCLE
  5
5D7
  8
SIZE
  6
CONTINUOUS
 62
    30
 10
-427.075945271592
 20
261.9999999999998
 30
0.0
 40
6.0
  0
CIRCLE
  5
5D8
  8
SIZE
  6
CONTINUOUS
 62
    30
 10
-567.2345252715919
 20
-279.9999999999999
 30
0.0
 40
6.0
  0
CIRCLE
  5
5D9
  8
SIZE
  6
CONTINUOUS
 62
    30
 10
-567.2345252715919
 20
279.9999999999999
 30
0.0
 40
6.0
  0
CIRCLE
  5
5DA
  8
SIZE
  6
CONTINUOUS
 62
    30
 10
-689.224401271592
 20
-308.9999999999999
 30
0.0
 40
6.0
  0
CIRCLE
  5
5DB
  8
SIZE
  6
CONTINUOUS
 62
    30
 10
-689.224401271592
 20
308.9999999999999
 30
0.0
 40
6.0
  0
CIRCLE
  5
5DC
  8
SIZE
  6
CONTINUOUS
 62
    30
 10
223.9999999999997
 20
550.182059269945
 30
0.0
 40
6.0
  0
CIRCLE
  5
5DD
  8
SIZE
  6
CONTINUOUS
 62
    30
 10
0.0
 20
550.182059269945
 30
0.0
 40
6.0
  0
LINE
  5
5DE
  8
NOTE
  6
CONTINUOUS
 62
     4
 10
19.99999999999972
 20
-279.9999999999999
 30
0.0
 11
-20.00000000000028
 21
-279.9999999999999
 31
0.0
  0
LINE
  5
5DF
  8
NOTE
  6
CONTINUOUS
 62
     4
 10
0.0
 20
-259.9999999999998
 30
0.0
 11
0.0
 21
-299.9999999999998
 31
0.0
  0
LINE
  5
5E0
  8
NOTE
  6
CONTINUOUS
 62
     4
 10
19.99999999999972
 20
279.9999999999999
 30
0.0
 11
-20.00000000000028
 21
279.9999999999999
 31
0.0
  0
LINE
  5
5E1
  8
NOTE
  6
CONTINUOUS
 62
     4
 10
0.0
 20
299.9999999999998
 30
0.0
 11
0.0
 21
259.9999999999998
 31
0.0
  0
TEXT
  5
5E2
  8
ETC
  6
CONTINUOUS
 62
    61
 10
365.2234947937441
 20
621.9112250673425
 30
0.0
 40
64.0
  1
EGG-50MSTB_5
 41
0.9
  0
TEXT
  5
5E3
  8
ETC
  6
CONTINUOUS
 62
    61
 10
474.2976884952459
 20
452.1948779335514
 30
0.0
 40
50.0
  1
EGG-50MSTB
 41
0.9
  0
TEXT
  5
5E4
  8
ETC
  6
CONTINUOUS
 62
    61
 10
357.1500167937442
 20
521.7542213510688
 30
0.0
 40
64.0
  1
産業扇
 41
0.9
  0
LINE
  5
5E5
  8
SIZE
  6
BYBLOCK
 62
    30
 10
-232.0
 20
191.6566789371125
 30
0.0
 11
-232.0
 21
579.5116029503114
 31
0.0
  0
CIRCLE
  5
5E6
  8
FIX
  6
CONTINUOUS
 62
    11
 10
0.0
 20
279.9999999999999
 30
0.0
 40
5.0
  0
CIRCLE
  5
5E7
  8
FIX
  6
CONTINUOUS
 62
    11
 10
0.0
 20
-279.9999999999999
 30
0.0
 40
5.0
  0
ARC
  5
5E8
  8
DETAIL
  6
CONTINUOUS
 62
     5
 39
50.0
 10
-207.0
 20
-20.14660201576135
 30
0.0
 40
25.0
 50
124.0000000000017
 51
172.4316149876895
  0
LINE
  5
5E9
  8
DETAIL
  6
CONTINUOUS
 62
     5
 39
50.0
 10
-189.0
 20
19.1344551287403
 30
0.0
 11
-218.4798225867687
 21
-0.7499362810389556
 31
0.0
  0
ARC
  5
5EA
  8
DETAIL
  6
CONTINUOUS
 62
     5
 39
50.0
 10
-201.4304896841381
 20
-24.23967509733099
 30
0.0
 40
29.02494758104372
 50
125.972912528025
 51
165.2581636225749
  0
LINE
  5
5EB
  8
DETAIL
  6
CONTINUOUS
 62
     5
 39
50.0
 10
-189.0
 20
-72.64999999999985
 30
0.0
 11
-220.9798225867686
 21
-94.22066270188525
 31
0.0
  0
LINE
  5
5EC
  8
DETAIL
  6
CONTINUOUS
 62
     5
 39
50.0
 10
-189.0
 20
-167.4499999999998
 30
0.0
 11
-220.9798225867686
 21
-189.0206627018852
 31
0.0
  0
LINE
  5
5ED
  8
DETAIL
  6
CONTINUOUS
 62
     5
 39
50.0
 10
-229.4999999999999
 20
-111.6538662242242
 30
0.0
 11
-231.7822091631704
 21
-111.6538662242242
 31
0.0
  0
LINE
  5
5EE
  8
DETAIL
  6
CONTINUOUS
 62
     5
 39
50.0
 10
-229.4999999999999
 20
-16.85386622422435
 30
0.0
 11
-231.7822091631705
 21
-16.85386622422435
 31
0.0
  0
LINE
  5
5EF
  8
DETAIL
  6
CONTINUOUS
 62
     5
 39
50.0
 10
-229.4999999999999
 20
-206.4538662242243
 30
0.0
 11
-232.0
 21
-206.4538662242243
 31
0.0
  0
LINE
  5
5F0
  8
DETAIL
  6
CONTINUOUS
 62
     5
 39
50.0
 10
-189.0
 20
-75.66554487125974
 30
0.0
 11
-218.4798225867687
 21
-95.54993628103894
 31
0.0
  0
LINE
  5
5F1
  8
DETAIL
  6
CONTINUOUS
 62
     5
 39
50.0
 10
-189.0
 20
-170.4655448712596
 30
0.0
 11
-218.4798225867687
 21
-190.3499362810389
 31
0.0
  0
ARC
  5
5F2
  8
DETAIL
  6
CONTINUOUS
 62
     5
 39
50.0
 10
-201.4304896841381
 20
-119.0396750973309
 30
0.0
 40
29.0249475810438
 50
125.972912528025
 51
165.2581636225749
  0
ARC
  5
5F3
  8
DETAIL
  6
CONTINUOUS
 62
     5
 39
50.0
 10
-207.0
 20
-209.7466020157611
 30
0.0
 40
24.99999999999994
 50
124.0000000000017
 51
172.4316149876895
  0
ARC
  5
5F4
  8
DETAIL
  6
CONTINUOUS
 62
     5
 39
50.0
 10
-201.4304896841378
 20
-213.8396750973311
 30
0.0
 40
29.02494758104409
 50
125.972912528025
 51
165.2581636225749
  0
ARC
  5
5F5
  8
DETAIL
  6
CONTINUOUS
 62
     5
 10
-207.0
 20
-114.9466020157611
 30
0.0
 40
25.0
 50
124.0000000000017
 51
172.4316149876895
  0
LINE
  5
5F6
  8
DETAIL
  6
CONTINUOUS
 62
     5
 39
50.0
 10
-189.0
 20
211.7499999999998
 30
0.0
 11
-220.9798225867686
 21
190.1793372981147
 31
0.0
  0
LINE
  5
5F7
  8
DETAIL
  6
CONTINUOUS
 62
     5
 39
50.0
 10
-189.0
 20
116.9499999999999
 30
0.0
 11
-218.4798225867687
 21
97.06560859022073
 31
0.0
  0
LINE
  5
5F8
  8
DETAIL
  6
CONTINUOUS
 62
     5
 39
50.0
 10
-190.3979822586768
 20
119.0225939313876
 30
0.0
 11
-220.9798225867686
 21
98.39488216937447
 31
0.0
  0
LINE
  5
5F9
  8
DETAIL
  6
CONTINUOUS
 62
     5
 39
50.0
 10
-189.0
 20
22.15
 30
0.0
 11
-220.9798225867686
 21
0.5793372981147087
 31
0.0
  0
LINE
  5
5FA
  8
DETAIL
  6
CONTINUOUS
 62
     5
 39
50.0
 10
-229.4999999999999
 20
80.96167864703546
 30
0.0
 11
-231.7822091631704
 21
80.96167864703546
 31
0.0
  0
ARC
  5
5FB
  8
DETAIL
  6
CONTINUOUS
 62
     5
 39
50.0
 10
-207.0
 20
77.66894285549843
 30
0.0
 40
25.0
 50
124.0000000000017
 51
172.4316149876895
  0
LINE
  5
5FC
  8
DETAIL
  6
CONTINUOUS
 62
     5
 39
50.0
 10
-189.0
 20
208.7344551287399
 30
0.0
 11
-218.4798225867687
 21
188.8500637189608
 31
0.0
  0
LINE
  5
5FD
  8
DETAIL
  6
CONTINUOUS
 62
     5
 39
50.0
 10
-229.4999999999999
 20
172.7461337757755
 30
0.0
 11
-231.7822091631704
 21
172.7461337757755
 31
0.0
  0
ARC
  5
5FE
  8
DETAIL
  6
CONTINUOUS
 62
     5
 39
50.0
 10
-207.0
 20
169.4533979842386
 30
0.0
 40
25.0
 50
124.0000000000017
 51
172.4316149876895
  0
ARC
  5
5FF
  8
DETAIL
  6
CONTINUOUS
 62
     5
 39
50.0
 10
-201.4304896841381
 20
165.360324902669
 30
0.0
 40
29.02494758104369
 50
125.9729125280249
 51
165.2581636225748
  0
ARC
  5
600
  8
DETAIL
  6
CONTINUOUS
 62
     5
 39
50.0
 10
-201.4304896841378
 20
73.5758697739284
 30
0.0
 40
29.02494758104423
 50
125.972912528025
 51
165.2581636225749
  0
ARC
  5
601
  8
DETAIL
  6
CONTINUOUS
 62
     5
 10
-174.0
 20
246.9999999999999
 30
0.0
 40
15.0
 50
90.0
 51
180.0
  0
ARC
  5
602
  8
DETAIL
  6
CONTINUOUS
 62
     5
 10
-174.0
 20
-246.9999999999999
 30
0.0
 40
15.0
 50
180.0
 51
270.0
  0
LINE
  5
603
  8
SIZE
  6
CONTINUOUS
 62
    30
 10
-189.0
 20
550.182059269945
 30
0.0
 11
-394.0827558819674
 21
550.182059269945
 31
0.0
  0
TEXT
  5
604
  8
SIZE
  6
BYBLOCK
 62
    30
 10
-373.5486209628154
 20
582.182059269945
 30
0.0
 40
64.0
  1
43
 41
0.9
  0
CIRCLE
  5
605
  8
SIZE
  6
CONTINUOUS
 62
    30
 10
-232.0
 20
550.182059269945
 30
0.0
 40
6.0
  0
LINE
  5
606
  8
OUTLINE
  6
CONTINUOUS
 62
     3
 10
223.9999999999997
 20
278.9999999999998
 30
0.0
 11
223.9999999999997
 21
-278.9999999999998
 31
0.0
  0
LINE
  5
607
  8
OUTLINE
  6
CONTINUOUS
 62
     3
 10
0.0
 20
308.9999999999999
 30
0.0
 11
0.0
 21
-308.9999999999999
 31
0.0
  0
LINE
  5
608
  8
OUTLINE
  6
CONTINUOUS
 62
     3
 10
-189.0
 20
246.9999999999999
 30
0.0
 11
-189.0
 21
-246.9999999999999
 31
0.0
  0
CIRCLE
  5
609
  8
ARRANGE
  6
CONTINUOUS
 62
     1
 10
0.0
 20
0.0
 30
0.0
 40
54.48275999999999
  0
POINT
  5
60A
  8
ARRANGE
  6
CONTINUOUS
 62
     1
 10
0.0
 20
0.0
 30
0.0
  0
ARC
  5
60B
  8
OUTLINE
  6
CONTINUOUS
 62
     3
 10
194.0
 20
-278.9999999999998
 30
0.0
 40
30.0
 50
270.0
 51
0.0
  0
LINE
  5
60C
  8
OUTLINE
  6
CONTINUOUS
 62
     3
 10
-174.0
 20
-261.9999999999998
 30
0.0
 11
0.0
 21
-261.9999999999998
 31
0.0
  0
ARC
  5
60D
  8
OUTLINE
  6
CONTINUOUS
 62
     3
 10
-174.0
 20
-246.9999999999999
 30
0.0
 40
15.0
 50
180.0
 51
270.0
  0
LINE
  5
60E
  8
OUTLINE
  6
CONTINUOUS
 62
     3
 10
0.0
 20
-308.9999999999999
 30
0.0
 11
194.0
 21
-308.9999999999999
 31
0.0
  0
ARC
  5
60F
  8
OUTLINE
  6
CONTINUOUS
 62
     3
 10
194.0
 20
278.9999999999998
 30
0.0
 40
30.0
 50
0.0
 51
90.0
  0
LINE
  5
610
  8
OUTLINE
  6
CONTINUOUS
 62
     3
 10
-174.0
 20
261.9999999999998
 30
0.0
 11
0.0
 21
261.9999999999998
 31
0.0
  0
ARC
  5
611
  8
OUTLINE
  6
CONTINUOUS
 62
     3
 10
-174.0
 20
246.9999999999999
 30
0.0
 40
15.0
 50
90.0
 51
180.0
  0
LINE
  5
612
  8
OUTLINE
  6
CONTINUOUS
 62
     3
 10
0.0
 20
308.9999999999999
 30
0.0
 11
194.0
 21
308.9999999999999
 31
0.0
  0
LINE
  5
613
  8
NOTE
  6
CONTINUOUS
 62
     4
 10
-27.12708900000018
 20
309.3959359999998
 30
0.0
 11
0.0
 21
279.9999999999999
 31
0.0
  0
LINE
  5
614
  8
NOTE
  6
CONTINUOUS
 62
     4
 10
0.0
 20
279.9999999999999
 30
0.0
 11
-38.19071600000009
 21
291.894083
 31
0.0
  0
ENDSEC
  0
EOF
