  0
SECTION
  2
HEADER
  9
$ACADVER
  1
AC1009
  9
$DWGCODEPAGE
  3
ansi_932
  9
$INSBASE
 10
0.0
 20
0.0
 30
0.0
  9
$EXTMIN
 10
-38.86647277514635
 20
-361.4490247122794
 30
0.0
  9
$EXTMAX
 10
1612.823590246003
 20
916.2834310752518
 30
0.0
  9
$LIMMIN
 10
-2970.0
 20
-2100.0
  9
$LIMMAX
 10
2970.0
 20
2100.0
  9
$ORTHOMODE
 70
     1
  9
$REGENMODE
 70
     0
  9
$FILLMODE
 70
     1
  9
$QTEXTMODE
 70
     0
  9
$MIRRTEXT
 70
     0
  9
$DRAGMODE
 70
     2
  9
$LTSCALE
 40
20.0
  9
$OSMODE
 70
    37
  9
$ATTMODE
 70
     1
  9
$TEXTSIZE
 40
64.0
  9
$TRACEWID
 40
0.05
  9
$TEXTSTYLE
  7
STANDARD
  9
$CLAYER
  8
0
  9
$CELTYPE
  6
CONTINUOUS
  9
$CECOLOR
 62
     1
  9
$DIMSCALE
 40
1.0
  9
$DIMASZ
 40
2.0
  9
$DIMEXO
 40
20.0
  9
$DIMDLI
 40
200.0
  9
$DIMRND
 40
0.0
  9
$DIMDLE
 40
0.0
  9
$DIMEXE
 40
30.0
  9
$DIMTP
 40
0.0
  9
$DIMTM
 40
0.0
  9
$DIMTXT
 40
64.0
  9
$DIMCEN
 40
0.09
  9
$DIMTSZ
 40
0.0
  9
$DIMTOL
 70
     0
  9
$DIMLIM
 70
     0
  9
$DIMTIH
 70
     0
  9
$DIMTOH
 70
     0
  9
$DIMSE1
 70
     0
  9
$DIMSE2
 70
     0
  9
$DIMTAD
 70
     1
  9
$DIMZIN
 70
     8
  9
$DIMBLK
  1

  9
$DIMASO
 70
     1
  9
$DIMSHO
 70
     0
  9
$DIMPOST
  1

  9
$DIMAPOST
  1

  9
$DIMALT
 70
     0
  9
$DIMALTD
 70
     2
  9
$DIMALTF
 40
25.4
  9
$DIMLFAC
 40
1.0
  9
$DIMTOFL
 70
     1
  9
$DIMTVP
 40
0.0
  9
$DIMTIX
 70
     1
  9
$DIMSOXD
 70
     0
  9
$DIMSAH
 70
     0
  9
$DIMBLK1
  1

  9
$DIMBLK2
  1

  9
$DIMSTYLE
  2
STANDARD
  9
$DIMCLRD
 70
     0
  9
$DIMCLRE
 70
     0
  9
$DIMCLRT
 70
     0
  9
$DIMTFAC
 40
1.0
  9
$DIMGAP
 40
0.09
  9
$LUNITS
 70
     2
  9
$LUPREC
 70
     4
  9
$SKETCHINC
 40
0.1
  9
$FILLETRAD
 40
30.0
  9
$AUNITS
 70
     1
  9
$AUPREC
 70
     3
  9
$MENU
  1
ACAD
  9
$ELEVATION
 40
0.0
  9
$PELEVATION
 40
0.0
  9
$THICKNESS
 40
0.0
  9
$LIMCHECK
 70
     0
  9
$CHAMFERA
 40
0.0
  9
$CHAMFERB
 40
0.0
  9
$SKPOLY
 70
     0
  9
$TDCREATE
 40
2450968.508831007
  9
$TDUPDATE
 40
2457485.556161458
  9
$TDINDWG
 40
0.034176412
  9
$TDUSRTIMER
 40
0.0341758796
  9
$USRTIMER
 70
     1
  9
$ANGBASE
 50
0.0
  9
$ANGDIR
 70
     0
  9
$PDMODE
 70
     3
  9
$PDSIZE
 40
-2.0
  9
$PLINEWID
 40
0.0
  9
$COORDS
 70
     1
  9
$SPLFRAME
 70
     0
  9
$SPLINETYPE
 70
     6
  9
$SPLINESEGS
 70
     8
  9
$ATTDIA
 70
     0
  9
$ATTREQ
 70
     1
  9
$HANDLING
 70
     1
  9
$HANDSEED
  5
E34
  9
$SURFTAB1
 70
     6
  9
$SURFTAB2
 70
     6
  9
$SURFTYPE
 70
     6
  9
$SURFU
 70
     6
  9
$SURFV
 70
     6
  9
$UCSNAME
  2

  9
$UCSORG
 10
0.0
 20
0.0
 30
0.0
  9
$UCSXDIR
 10
1.0
 20
0.0
 30
0.0
  9
$UCSYDIR
 10
0.0
 20
1.0
 30
0.0
  9
$PUCSNAME
  2

  9
$PUCSORG
 10
0.0
 20
0.0
 30
0.0
  9
$PUCSXDIR
 10
1.0
 20
0.0
 30
0.0
  9
$PUCSYDIR
 10
0.0
 20
1.0
 30
0.0
  9
$USERI1
 70
     0
  9
$USERI2
 70
     0
  9
$USERI3
 70
     0
  9
$USERI4
 70
     0
  9
$USERI5
 70
     0
  9
$USERR1
 40
20.0
  9
$USERR2
 40
0.0
  9
$USERR3
 40
0.0
  9
$USERR4
 40
0.0
  9
$USERR5
 40
0.0
  9
$WORLDVIEW
 70
     1
  9
$SHADEDGE
 70
     3
  9
$SHADEDIF
 70
    70
  9
$TILEMODE
 70
     1
  9
$MAXACTVP
 70
    64
  9
$PLIMCHECK
 70
     0
  9
$PEXTMIN
 10
1.000000000000000E+20
 20
1.000000000000000E+20
 30
1.000000000000000E+20
  9
$PEXTMAX
 10
-1.000000000000000E+20
 20
-1.000000000000000E+20
 30
-1.000000000000000E+20
  9
$PLIMMIN
 10
0.0
 20
0.0
  9
$PLIMMAX
 10
12.0
 20
9.0
  9
$UNITMODE
 70
     0
  9
$VISRETAIN
 70
     1
  9
$PLINEGEN
 70
     0
  9
$PSLTSCALE
 70
     1
  0
ENDSEC
  0
SECTION
  2
TABLES
  0
TABLE
  2
VPORT
 70
     1
  0
VPORT
  2
*ACTIVE
 70
     0
 10
0.0
 20
0.0
 11
1.0
 21
1.0
 12
757.5634660710061
 22
273.8350303010369
 13
0.0
 23
0.0
 14
50.0
 24
50.0
 15
100.0
 25
100.0
 16
0.0
 26
0.0
 36
1.0
 17
0.0
 27
0.0
 37
0.0
 40
1835.569011382314
 41
1.493654822335025
 42
50.0
 43
0.0
 44
0.0
 50
0.0
 51
0.0
 71
     0
 72
  1000
 73
     1
 74
     0
 75
     0
 76
     0
 77
     0
 78
     1
  0
ENDTAB
  0
TABLE
  2
LTYPE
 70
     7
  0
LTYPE
  2
CONTINUOUS
 70
     0
  3
実線
 72
    65
 73
     0
 40
0.0
  0
LTYPE
  2
DASHDOT
 70
     0
  3
____ _ ____ _ ____ _ ____ _ ____ _ ____ _ ____
 72
    65
 73
     4
 40
5.5
 49
4.0
 49
-0.6
 49
0.3
 49
-0.6
  0
LTYPE
  2
DASHED
 70
     0
  3
_ _ _ _ _ _ _ _ _ _ _ _ _ _ _ _ _ _ _ _ _ _ _
 72
    65
 73
     2
 40
1.999999999999999
 49
1.199999999999999
 49
-0.8
  0
LTYPE
  2
DOT
 70
     0
  3
...............................................
 72
    65
 73
     2
 40
0.8
 49
0.5
 49
-0.3
  0
LTYPE
  2
DASHDOT1
 70
     0
  3
____ _ ____ _ ____ _ ____ _ ____ _ ____ _ ____
 72
    65
 73
     4
 40
2.0
 49
1.5
 49
-0.2
 49
0.1
 49
-0.2
  0
LTYPE
  2
DIVIDE
 70
     0
  3
_____ _ _ _____ _ _ _____ _ _ _____ _ _ ____
 72
    65
 73
     6
 40
6.4
 49
4.0
 49
-0.6
 49
0.3
 49
-0.6
 49
0.3
 49
-0.6
  0
LTYPE
  2
DIVIDE1
 70
     0
  3
_____ _ _ _____ _ _ _____ _ _ _____ _ _ ____
 72
    65
 73
     6
 40
3.2
 49
2.0
 49
-0.3
 49
0.15
 49
-0.3
 49
0.15
 49
-0.3
  0
ENDTAB
  0
TABLE
  2
LAYER
 70
    12
  0
LAYER
  2
0
 70
     0
 62
     7
  6
CONTINUOUS
  0
LAYER
  2
OUTLINE
 70
     0
 62
     3
  6
CONTINUOUS
  0
LAYER
  2
DETAIL
 70
     0
 62
     5
  6
CONTINUOUS
  0
LAYER
  2
BASIS
 70
     0
 62
     6
  6
DASHDOT
  0
LAYER
  2
SIZE
 70
     0
 62
    30
  6
CONTINUOUS
  0
LAYER
  2
NOTE
 70
     0
 62
     4
  6
CONTINUOUS
  0
LAYER
  2
DEFPOINTS
 70
     0
 62
     7
  6
CONTINUOUS
  0
LAYER
  2
ETC
 70
     0
 62
    61
  6
CONTINUOUS
  0
LAYER
  2
ARRANGE
 70
     0
 62
     1
  6
CONTINUOUS
  0
LAYER
  2
FIX
 70
     0
 62
    11
  6
CONTINUOUS
  0
LAYER
  2
SERVICESPACE
 70
     0
 62
     2
  6
DASHDOT
  0
LAYER
  2
SYMBOLLINE
 70
     0
 62
    15
  6
CONTINUOUS
  0
ENDTAB
  0
TABLE
  2
STYLE
 70
     1
  0
STYLE
  2
STANDARD
 70
     0
 40
0.0
 41
0.9
 50
0.0
 71
     0
 42
64.0
  3
SIMPLEX
  4
BIGFONT
  0
ENDTAB
  0
TABLE
  2
VIEW
 70
     1
  0
VIEW
  2
ALL
 70
     0
 40
4282.619807999997
 10
0.0
 20
41.30990399999999
 41
5940.0
 11
0.0
 21
0.0
 31
1.0
 12
0.0
 22
0.0
 32
0.0
 42
50.0
 43
0.0
 44
0.0
 50
0.0
 71
     0
  0
ENDTAB
  0
TABLE
  2
UCS
 70
     0
  0
ENDTAB
  0
TABLE
  2
APPID
 70
     1
  0
APPID
  2
ACAD
 70
     0
  0
ENDTAB
  0
TABLE
  2
DIMSTYLE
 70
     1
  0
DIMSTYLE
  2
STANDARD
 70
     0
  3

  4

  5

  6

  7

 40
1.0
 41
0.18
 42
0.0625
 43
0.38
 44
0.18
 45
0.0
 46
0.0
 47
0.0
 48
0.0
140
0.18
141
0.09
142
0.0
143
25.4
144
1.0
145
0.0
146
1.0
147
0.09
 71
     0
 72
     0
 73
     1
 74
     1
 75
     0
 76
     0
 77
     0
 78
     0
170
     0
171
     2
172
     0
173
     0
174
     0
175
     0
176
     0
177
     0
178
     0
  0
ENDTAB
  0
ENDSEC
  0
SECTION
  2
BLOCKS
  0
BLOCK
  8
0
  2
$MODEL_SPACE
 70
     0
 10
0.0
 20
0.0
 30
0.0
  3
$MODEL_SPACE
  1

  0
ENDBLK
  5
94E
  8
0
  0
BLOCK
 67
     1
  8
0
  2
$PAPER_SPACE
 70
     0
 10
0.0
 20
0.0
 30
0.0
  3
$PAPER_SPACE
  1

  0
ENDBLK
  5
94A
 67
     1
  8
0
  0
ENDSEC
  0
SECTION
  2
ENTITIES
  0
LINE
  5
96C
  8
BASIS
  6
DASHDOT
 62
     6
 10
0.0
 20
411.4312169999998
 30
0.0
 11
0.0
 21
-405.6515749999999
 31
0.0
  0
POINT
  5
96D
  8
ARRANGE
  6
CONTINUOUS
 62
     1
 10
0.0
 20
0.0
 30
0.0
  0
LINE
  5
96E
  8
DETAIL
  6
CONTINUOUS
 62
     5
 10
355.0000000000002
 20
324.9999999999999
 30
0.0
 11
355.0000000000002
 21
-324.9999999999999
 31
0.0
  0
LINE
  5
96F
  8
DETAIL
  6
CONTINUOUS
 62
     5
 10
-354.9999999999999
 20
324.9999999999999
 30
0.0
 11
-354.9999999999999
 21
-324.9999999999999
 31
0.0
  0
CIRCLE
  5
970
  8
ARRANGE
  6
CONTINUOUS
 62
     1
 10
0.0
 20
0.0
 30
0.0
 40
54.48275999999999
  0
LINE
  5
971
  8
BASIS
  6
DASHDOT
 62
     6
 10
-403.2061669999999
 20
0.0
 30
0.0
 11
413.8357090000001
 21
0.0
 31
0.0
  0
LINE
  5
972
  8
DETAIL
  6
CONTINUOUS
 62
     5
 10
-324.9999999999999
 20
353.9999999999999
 30
0.0
 11
325.0000000000001
 21
353.9999999999999
 31
0.0
  0
LINE
  5
973
  8
DETAIL
  6
CONTINUOUS
 62
     5
 10
-324.9999999999999
 20
-353.9999999999999
 30
0.0
 11
325.0000000000001
 21
-353.9999999999999
 31
0.0
  0
ARC
  5
974
  8
DETAIL
  6
CONTINUOUS
 62
     5
 10
-324.9999999999999
 20
323.9999999999999
 30
0.0
 40
30.0
 50
90.0
 51
180.0
  0
ARC
  5
975
  8
DETAIL
  6
CONTINUOUS
 62
     5
 10
-324.9999999999999
 20
-323.9999999999998
 30
0.0
 40
30.0
 50
180.0
 51
270.0
  0
ARC
  5
976
  8
DETAIL
  6
CONTINUOUS
 62
     5
 10
325.0000000000001
 20
-323.9999999999998
 30
0.0
 40
30.0
 50
270.0
 51
0.0
  0
ARC
  5
977
  8
DETAIL
  6
CONTINUOUS
 62
     5
 10
325.0000000000001
 20
323.9999999999999
 30
0.0
 40
30.0
 50
0.0
 51
90.0
  0
LINE
  5
978
  8
OUTLINE
  6
CONTINUOUS
 62
     3
 10
-354.9999999999999
 20
324.9999999999999
 30
0.0
 11
-354.9999999999999
 21
-324.9999999999999
 31
0.0
  0
ARC
  5
979
  8
OUTLINE
  6
CONTINUOUS
 62
     3
 10
-324.9999999999999
 20
323.9999999999999
 30
0.0
 40
30.0
 50
90.0
 51
180.0
  0
LINE
  5
97A
  8
OUTLINE
  6
CONTINUOUS
 62
     3
 10
-324.9999999999999
 20
353.9999999999999
 30
0.0
 11
325.0000000000001
 21
353.9999999999999
 31
0.0
  0
ARC
  5
97B
  8
OUTLINE
  6
CONTINUOUS
 62
     3
 10
325.0000000000001
 20
323.9999999999999
 30
0.0
 40
30.0
 50
0.0
 51
90.0
  0
LINE
  5
97C
  8
OUTLINE
  6
CONTINUOUS
 62
     3
 10
355.0000000000002
 20
324.9999999999999
 30
0.0
 11
355.0000000000002
 21
-324.9999999999999
 31
0.0
  0
ARC
  5
97D
  8
OUTLINE
  6
CONTINUOUS
 62
     3
 10
325.0000000000001
 20
-323.9999999999998
 30
0.0
 40
30.0
 50
270.0
 51
0.0
  0
LINE
  5
97E
  8
OUTLINE
  6
CONTINUOUS
 62
     3
 10
-324.9999999999999
 20
-353.9999999999999
 30
0.0
 11
325.0000000000001
 21
-353.9999999999999
 31
0.0
  0
ARC
  5
97F
  8
OUTLINE
  6
CONTINUOUS
 62
     3
 10
-324.9999999999999
 20
-323.9999999999998
 30
0.0
 40
30.0
 50
180.0
 51
270.0
  0
LINE
  5
980
  8
DETAIL
  6
CONTINUOUS
 62
     5
 10
-355.0000109999999
 20
-300.1423749999998
 30
0.0
 11
355.0000000000002
 21
-300.1423749999998
 31
0.0
  0
LINE
  5
981
  8
DETAIL
  6
CONTINUOUS
 62
     5
 10
-355.0000109999999
 20
301.9922489999998
 30
0.0
 11
355.0000000000002
 21
301.9922489999998
 31
0.0
  0
LINE
  5
982
  8
DETAIL
  6
CONTINUOUS
 62
     5
 10
-355.0000109999999
 20
101.2807079999999
 30
0.0
 11
355.0000000000002
 21
101.2807079999999
 31
0.0
  0
LINE
  5
983
  8
DETAIL
  6
CONTINUOUS
 62
     5
 10
-355.0000109999999
 20
95.81916899999996
 30
0.0
 11
355.0000000000002
 21
95.81916899999996
 31
0.0
  0
LINE
  5
984
  8
DETAIL
  6
CONTINUOUS
 62
     5
 10
-355.0000109999999
 20
-93.96929499999996
 30
0.0
 11
355.0000000000002
 21
-93.96929499999996
 31
0.0
  0
LINE
  5
985
  8
DETAIL
  6
CONTINUOUS
 62
     5
 10
-355.0000109999999
 20
-99.430833
 30
0.0
 11
355.0000000000002
 21
-99.430833
 31
0.0
  0
LINE
  5
986
  8
DETAIL
  6
CONTINUOUS
 62
     5
 10
-355.0000109999999
 20
296.5307109999999
 30
0.0
 11
355.0000000000002
 21
296.5307109999999
 31
0.0
  0
LINE
  5
987
  8
DETAIL
  6
CONTINUOUS
 62
     5
 10
-355.0000109999999
 20
291.0691719999999
 30
0.0
 11
355.0000000000002
 21
291.0691719999999
 31
0.0
  0
LINE
  5
988
  8
DETAIL
  6
CONTINUOUS
 62
     5
 10
-355.0000109999999
 20
-294.6808359999998
 30
0.0
 11
355.0000000000002
 21
-294.6808359999998
 31
0.0
  0
LINE
  5
989
  8
DETAIL
  6
CONTINUOUS
 62
     5
 10
-355.0000109999999
 20
-289.219298
 30
0.0
 11
355.0000000000002
 21
-289.219298
 31
0.0
  0
LINE
  5
98A
  8
DETAIL
  6
CONTINUOUS
 62
     5
 10
-273.1054689999999
 20
274.001864
 30
0.0
 11
-273.1054689999999
 21
239.867249
 31
0.0
  0
LINE
  5
98B
  8
DETAIL
  6
CONTINUOUS
 62
     5
 10
-266.2785459999999
 20
274.001864
 30
0.0
 11
-266.2785459999999
 21
239.867249
 31
0.0
  0
LINE
  5
98C
  8
DETAIL
  6
CONTINUOUS
 62
     5
 10
-245.7977759999999
 20
274.001864
 30
0.0
 11
-245.7977759999999
 21
239.867249
 31
0.0
  0
ARC
  5
98D
  8
DETAIL
  6
CONTINUOUS
 62
     5
 10
-283.3458539999999
 20
274.001864
 30
0.0
 40
10.240385
 50
0.0
 51
180.0
  0
ARC
  5
98E
  8
DETAIL
  6
CONTINUOUS
 62
     5
 10
-283.3458539999999
 20
239.867249
 30
0.0
 40
10.240385
 50
180.0
 51
0.0
  0
ARC
  5
98F
  8
DETAIL
  6
CONTINUOUS
 62
     5
 10
-256.038161
 20
239.867249
 30
0.0
 40
10.240385
 50
180.0
 51
0.0
  0
ARC
  5
990
  8
DETAIL
  6
CONTINUOUS
 62
     5
 10
-256.038161
 20
274.001864
 30
0.0
 40
10.240385
 50
0.0
 51
180.0
  0
LINE
  5
991
  8
DETAIL
  6
CONTINUOUS
 62
     5
 10
-245.7977759999999
 20
274.001864
 30
0.0
 11
-245.7977759999999
 21
239.867249
 31
0.0
  0
ARC
  5
992
  8
DETAIL
  6
CONTINUOUS
 62
     5
 10
-283.3458539999999
 20
179.790325
 30
0.0
 40
10.240385
 50
180.0
 51
0.0
  0
ARC
  5
993
  8
DETAIL
  6
CONTINUOUS
 62
     5
 10
-283.3458539999999
 20
213.9249399999999
 30
0.0
 40
10.240385
 50
0.0
 51
180.0
  0
LINE
  5
994
  8
DETAIL
  6
CONTINUOUS
 62
     5
 10
-273.1054689999999
 20
213.9249399999999
 30
0.0
 11
-273.1054689999999
 21
179.790325
 31
0.0
  0
LINE
  5
995
  8
DETAIL
  6
CONTINUOUS
 62
     5
 10
-273.1054689999999
 20
153.8480159999999
 30
0.0
 11
-273.1054689999999
 21
119.7134009999999
 31
0.0
  0
ARC
  5
996
  8
DETAIL
  6
CONTINUOUS
 62
     5
 10
-283.3458539999999
 20
153.8480159999999
 30
0.0
 40
10.240385
 50
0.0
 51
180.0
  0
ARC
  5
997
  8
DETAIL
  6
CONTINUOUS
 62
     5
 10
-283.3458539999999
 20
119.7134009999999
 30
0.0
 40
10.240385
 50
180.0
 51
0.0
  0
LINE
  5
998
  8
DETAIL
  6
CONTINUOUS
 62
     5
 10
-245.7977759999999
 20
213.9249399999999
 30
0.0
 11
-245.7977759999999
 21
179.790325
 31
0.0
  0
ARC
  5
999
  8
DETAIL
  6
CONTINUOUS
 62
     5
 10
-256.038161
 20
213.9249399999999
 30
0.0
 40
10.240385
 50
0.0
 51
180.0
  0
ARC
  5
99A
  8
DETAIL
  6
CONTINUOUS
 62
     5
 10
-256.038161
 20
179.790325
 30
0.0
 40
10.240385
 50
180.0
 51
0.0
  0
LINE
  5
99B
  8
DETAIL
  6
CONTINUOUS
 62
     5
 10
-245.7977759999999
 20
213.9249399999999
 30
0.0
 11
-245.7977759999999
 21
179.790325
 31
0.0
  0
LINE
  5
99C
  8
DETAIL
  6
CONTINUOUS
 62
     5
 10
-266.2785459999999
 20
213.9249399999999
 30
0.0
 11
-266.2785459999999
 21
179.790325
 31
0.0
  0
LINE
  5
99D
  8
DETAIL
  6
CONTINUOUS
 62
     5
 10
-245.7977759999999
 20
153.8480159999999
 30
0.0
 11
-245.7977759999999
 21
119.7134009999999
 31
0.0
  0
ARC
  5
99E
  8
DETAIL
  6
CONTINUOUS
 62
     5
 10
-256.038161
 20
153.8480159999999
 30
0.0
 40
10.240385
 50
0.0
 51
180.0
  0
ARC
  5
99F
  8
DETAIL
  6
CONTINUOUS
 62
     5
 10
-256.038161
 20
119.7134009999999
 30
0.0
 40
10.240385
 50
180.0
 51
0.0
  0
LINE
  5
9A0
  8
DETAIL
  6
CONTINUOUS
 62
     5
 10
-245.7977759999999
 20
153.8480159999999
 30
0.0
 11
-245.7977759999999
 21
119.7134009999999
 31
0.0
  0
LINE
  5
9A1
  8
DETAIL
  6
CONTINUOUS
 62
     5
 10
-266.2785459999999
 20
153.8480159999999
 30
0.0
 11
-266.2785459999999
 21
119.7134009999999
 31
0.0
  0
LINE
  5
9A2
  8
DETAIL
  6
CONTINUOUS
 62
     5
 10
-211.6631600000001
 20
153.8480159999999
 30
0.0
 11
-211.6631600000001
 21
119.7134009999999
 31
0.0
  0
LINE
  5
9A3
  8
DETAIL
  6
CONTINUOUS
 62
     5
 10
-191.1823910000001
 20
153.8480159999999
 30
0.0
 11
-191.1823910000001
 21
119.7134009999999
 31
0.0
  0
ARC
  5
9A4
  8
DETAIL
  6
CONTINUOUS
 62
     5
 10
-201.422776
 20
119.7134009999999
 30
0.0
 40
10.240385
 50
180.0
 51
0.0
  0
ARC
  5
9A5
  8
DETAIL
  6
CONTINUOUS
 62
     5
 10
-201.422776
 20
153.8480159999999
 30
0.0
 40
10.240385
 50
0.0
 51
180.0
  0
LINE
  5
9A6
  8
DETAIL
  6
CONTINUOUS
 62
     5
 10
-191.1823910000001
 20
153.8480159999999
 30
0.0
 11
-191.1823910000001
 21
119.7134009999999
 31
0.0
  0
LINE
  5
9A7
  8
DETAIL
  6
CONTINUOUS
 62
     5
 10
-211.6631600000001
 20
213.9249399999999
 30
0.0
 11
-211.6631600000001
 21
179.790325
 31
0.0
  0
LINE
  5
9A8
  8
DETAIL
  6
CONTINUOUS
 62
     5
 10
-191.1823910000001
 20
213.9249399999999
 30
0.0
 11
-191.1823910000001
 21
179.790325
 31
0.0
  0
ARC
  5
9A9
  8
DETAIL
  6
CONTINUOUS
 62
     5
 10
-201.422776
 20
179.790325
 30
0.0
 40
10.240385
 50
180.0
 51
0.0
  0
ARC
  5
9AA
  8
DETAIL
  6
CONTINUOUS
 62
     5
 10
-201.422776
 20
213.9249399999999
 30
0.0
 40
10.240385
 50
0.0
 51
180.0
  0
LINE
  5
9AB
  8
DETAIL
  6
CONTINUOUS
 62
     5
 10
-191.1823910000001
 20
213.9249399999999
 30
0.0
 11
-191.1823910000001
 21
179.790325
 31
0.0
  0
LINE
  5
9AC
  8
DETAIL
  6
CONTINUOUS
 62
     5
 10
-191.1823910000001
 20
274.001864
 30
0.0
 11
-191.1823910000001
 21
239.867249
 31
0.0
  0
ARC
  5
9AD
  8
DETAIL
  6
CONTINUOUS
 62
     5
 10
-201.422776
 20
274.001864
 30
0.0
 40
10.240385
 50
0.0
 51
180.0
  0
ARC
  5
9AE
  8
DETAIL
  6
CONTINUOUS
 62
     5
 10
-201.422776
 20
239.867249
 30
0.0
 40
10.240385
 50
180.0
 51
0.0
  0
LINE
  5
9AF
  8
DETAIL
  6
CONTINUOUS
 62
     5
 10
-191.1823910000001
 20
274.001864
 30
0.0
 11
-191.1823910000001
 21
239.867249
 31
0.0
  0
LINE
  5
9B0
  8
DETAIL
  6
CONTINUOUS
 62
     5
 10
-211.6631600000001
 20
274.001864
 30
0.0
 11
-211.6631600000001
 21
239.867249
 31
0.0
  0
LINE
  5
9B1
  8
DETAIL
  6
CONTINUOUS
 62
     5
 10
-238.9708530000001
 20
274.001864
 30
0.0
 11
-238.9708530000001
 21
239.867249
 31
0.0
  0
LINE
  5
9B2
  8
DETAIL
  6
CONTINUOUS
 62
     5
 10
-218.4900840000001
 20
274.001864
 30
0.0
 11
-218.4900840000001
 21
239.867249
 31
0.0
  0
ARC
  5
9B3
  8
DETAIL
  6
CONTINUOUS
 62
     5
 10
-228.730468
 20
239.867249
 30
0.0
 40
10.240385
 50
180.0
 51
0.0
  0
ARC
  5
9B4
  8
DETAIL
  6
CONTINUOUS
 62
     5
 10
-228.730468
 20
274.001864
 30
0.0
 40
10.240385
 50
0.0
 51
180.0
  0
LINE
  5
9B5
  8
DETAIL
  6
CONTINUOUS
 62
     5
 10
-218.4900840000001
 20
274.001864
 30
0.0
 11
-218.4900840000001
 21
239.867249
 31
0.0
  0
LINE
  5
9B6
  8
DETAIL
  6
CONTINUOUS
 62
     5
 10
-218.4900840000001
 20
213.9249399999999
 30
0.0
 11
-218.4900840000001
 21
179.790325
 31
0.0
  0
ARC
  5
9B7
  8
DETAIL
  6
CONTINUOUS
 62
     5
 10
-228.730468
 20
213.9249399999999
 30
0.0
 40
10.240385
 50
0.0
 51
180.0
  0
ARC
  5
9B8
  8
DETAIL
  6
CONTINUOUS
 62
     5
 10
-228.730468
 20
179.790325
 30
0.0
 40
10.240385
 50
180.0
 51
0.0
  0
LINE
  5
9B9
  8
DETAIL
  6
CONTINUOUS
 62
     5
 10
-218.4900840000001
 20
213.9249399999999
 30
0.0
 11
-218.4900840000001
 21
179.790325
 31
0.0
  0
LINE
  5
9BA
  8
DETAIL
  6
CONTINUOUS
 62
     5
 10
-238.9708530000001
 20
213.9249399999999
 30
0.0
 11
-238.9708530000001
 21
179.790325
 31
0.0
  0
LINE
  5
9BB
  8
DETAIL
  6
CONTINUOUS
 62
     5
 10
-218.4900840000001
 20
153.8480159999999
 30
0.0
 11
-218.4900840000001
 21
119.7134009999999
 31
0.0
  0
ARC
  5
9BC
  8
DETAIL
  6
CONTINUOUS
 62
     5
 10
-228.730468
 20
153.8480159999999
 30
0.0
 40
10.240385
 50
0.0
 51
180.0
  0
ARC
  5
9BD
  8
DETAIL
  6
CONTINUOUS
 62
     5
 10
-228.730468
 20
119.7134009999999
 30
0.0
 40
10.240385
 50
180.0
 51
0.0
  0
LINE
  5
9BE
  8
DETAIL
  6
CONTINUOUS
 62
     5
 10
-218.4900840000001
 20
153.8480159999999
 30
0.0
 11
-218.4900840000001
 21
119.7134009999999
 31
0.0
  0
LINE
  5
9BF
  8
DETAIL
  6
CONTINUOUS
 62
     5
 10
-238.9708530000001
 20
153.8480159999999
 30
0.0
 11
-238.9708530000001
 21
119.7134009999999
 31
0.0
  0
LINE
  5
9C0
  8
DETAIL
  6
CONTINUOUS
 62
     5
 10
-157.0477750000001
 20
153.8480159999999
 30
0.0
 11
-157.0477750000001
 21
119.7134009999999
 31
0.0
  0
LINE
  5
9C1
  8
DETAIL
  6
CONTINUOUS
 62
     5
 10
-136.5670049999999
 20
153.8480159999999
 30
0.0
 11
-136.5670049999999
 21
119.7134009999999
 31
0.0
  0
ARC
  5
9C2
  8
DETAIL
  6
CONTINUOUS
 62
     5
 10
-146.8073899999999
 20
119.7134009999999
 30
0.0
 40
10.240385
 50
180.0
 51
0.0
  0
ARC
  5
9C3
  8
DETAIL
  6
CONTINUOUS
 62
     5
 10
-146.8073899999999
 20
153.8480159999999
 30
0.0
 40
10.240385
 50
0.0
 51
180.0
  0
LINE
  5
9C4
  8
DETAIL
  6
CONTINUOUS
 62
     5
 10
-136.5670049999999
 20
153.8480159999999
 30
0.0
 11
-136.5670049999999
 21
119.7134009999999
 31
0.0
  0
LINE
  5
9C5
  8
DETAIL
  6
CONTINUOUS
 62
     5
 10
-157.0477750000001
 20
213.9249399999999
 30
0.0
 11
-157.0477750000001
 21
179.790325
 31
0.0
  0
LINE
  5
9C6
  8
DETAIL
  6
CONTINUOUS
 62
     5
 10
-136.5670049999999
 20
213.9249399999999
 30
0.0
 11
-136.5670049999999
 21
179.790325
 31
0.0
  0
ARC
  5
9C7
  8
DETAIL
  6
CONTINUOUS
 62
     5
 10
-146.8073899999999
 20
179.790325
 30
0.0
 40
10.240385
 50
180.0
 51
0.0
  0
ARC
  5
9C8
  8
DETAIL
  6
CONTINUOUS
 62
     5
 10
-146.8073899999999
 20
213.9249399999999
 30
0.0
 40
10.240385
 50
0.0
 51
180.0
  0
LINE
  5
9C9
  8
DETAIL
  6
CONTINUOUS
 62
     5
 10
-136.5670049999999
 20
213.9249399999999
 30
0.0
 11
-136.5670049999999
 21
179.790325
 31
0.0
  0
LINE
  5
9CA
  8
DETAIL
  6
CONTINUOUS
 62
     5
 10
-136.5670049999999
 20
274.001864
 30
0.0
 11
-136.5670049999999
 21
239.867249
 31
0.0
  0
ARC
  5
9CB
  8
DETAIL
  6
CONTINUOUS
 62
     5
 10
-146.8073899999999
 20
274.001864
 30
0.0
 40
10.240385
 50
0.0
 51
180.0
  0
ARC
  5
9CC
  8
DETAIL
  6
CONTINUOUS
 62
     5
 10
-146.8073899999999
 20
239.867249
 30
0.0
 40
10.240385
 50
180.0
 51
0.0
  0
LINE
  5
9CD
  8
DETAIL
  6
CONTINUOUS
 62
     5
 10
-136.5670049999999
 20
274.001864
 30
0.0
 11
-136.5670049999999
 21
239.867249
 31
0.0
  0
LINE
  5
9CE
  8
DETAIL
  6
CONTINUOUS
 62
     5
 10
-157.0477750000001
 20
274.001864
 30
0.0
 11
-157.0477750000001
 21
239.867249
 31
0.0
  0
LINE
  5
9CF
  8
DETAIL
  6
CONTINUOUS
 62
     5
 10
-129.7400820000001
 20
274.001864
 30
0.0
 11
-129.7400820000001
 21
239.867249
 31
0.0
  0
LINE
  5
9D0
  8
DETAIL
  6
CONTINUOUS
 62
     5
 10
-109.2593129999999
 20
274.001864
 30
0.0
 11
-109.2593129999999
 21
239.867249
 31
0.0
  0
ARC
  5
9D1
  8
DETAIL
  6
CONTINUOUS
 62
     5
 10
-119.4996969999999
 20
239.867249
 30
0.0
 40
10.240385
 50
180.0
 51
0.0
  0
ARC
  5
9D2
  8
DETAIL
  6
CONTINUOUS
 62
     5
 10
-119.4996969999999
 20
274.001864
 30
0.0
 40
10.240385
 50
0.0
 51
180.0
  0
LINE
  5
9D3
  8
DETAIL
  6
CONTINUOUS
 62
     5
 10
-109.2593129999999
 20
274.001864
 30
0.0
 11
-109.2593129999999
 21
239.867249
 31
0.0
  0
LINE
  5
9D4
  8
DETAIL
  6
CONTINUOUS
 62
     5
 10
-109.2593129999999
 20
213.9249399999999
 30
0.0
 11
-109.2593129999999
 21
179.790325
 31
0.0
  0
ARC
  5
9D5
  8
DETAIL
  6
CONTINUOUS
 62
     5
 10
-119.4996969999999
 20
213.9249399999999
 30
0.0
 40
10.240385
 50
0.0
 51
180.0
  0
ARC
  5
9D6
  8
DETAIL
  6
CONTINUOUS
 62
     5
 10
-119.4996969999999
 20
179.790325
 30
0.0
 40
10.240385
 50
180.0
 51
0.0
  0
LINE
  5
9D7
  8
DETAIL
  6
CONTINUOUS
 62
     5
 10
-109.2593129999999
 20
213.9249399999999
 30
0.0
 11
-109.2593129999999
 21
179.790325
 31
0.0
  0
LINE
  5
9D8
  8
DETAIL
  6
CONTINUOUS
 62
     5
 10
-129.7400820000001
 20
213.9249399999999
 30
0.0
 11
-129.7400820000001
 21
179.790325
 31
0.0
  0
LINE
  5
9D9
  8
DETAIL
  6
CONTINUOUS
 62
     5
 10
-109.2593129999999
 20
153.8480159999999
 30
0.0
 11
-109.2593129999999
 21
119.7134009999999
 31
0.0
  0
ARC
  5
9DA
  8
DETAIL
  6
CONTINUOUS
 62
     5
 10
-119.4996969999999
 20
153.8480159999999
 30
0.0
 40
10.240385
 50
0.0
 51
180.0
  0
ARC
  5
9DB
  8
DETAIL
  6
CONTINUOUS
 62
     5
 10
-119.4996969999999
 20
119.7134009999999
 30
0.0
 40
10.240385
 50
180.0
 51
0.0
  0
LINE
  5
9DC
  8
DETAIL
  6
CONTINUOUS
 62
     5
 10
-109.2593129999999
 20
153.8480159999999
 30
0.0
 11
-109.2593129999999
 21
119.7134009999999
 31
0.0
  0
LINE
  5
9DD
  8
DETAIL
  6
CONTINUOUS
 62
     5
 10
-129.7400820000001
 20
153.8480159999999
 30
0.0
 11
-129.7400820000001
 21
119.7134009999999
 31
0.0
  0
LINE
  5
9DE
  8
DETAIL
  6
CONTINUOUS
 62
     5
 10
-184.3554679999999
 20
153.8480159999999
 30
0.0
 11
-184.3554679999999
 21
119.7134009999999
 31
0.0
  0
LINE
  5
9DF
  8
DETAIL
  6
CONTINUOUS
 62
     5
 10
-163.874698
 20
153.8480159999999
 30
0.0
 11
-163.874698
 21
119.7134009999999
 31
0.0
  0
ARC
  5
9E0
  8
DETAIL
  6
CONTINUOUS
 62
     5
 10
-174.1150830000001
 20
119.7134009999999
 30
0.0
 40
10.240385
 50
180.0
 51
0.0
  0
ARC
  5
9E1
  8
DETAIL
  6
CONTINUOUS
 62
     5
 10
-174.1150830000001
 20
153.8480159999999
 30
0.0
 40
10.240385
 50
0.0
 51
180.0
  0
LINE
  5
9E2
  8
DETAIL
  6
CONTINUOUS
 62
     5
 10
-163.874698
 20
153.8480159999999
 30
0.0
 11
-163.874698
 21
119.7134009999999
 31
0.0
  0
LINE
  5
9E3
  8
DETAIL
  6
CONTINUOUS
 62
     5
 10
-184.3554679999999
 20
213.9249399999999
 30
0.0
 11
-184.3554679999999
 21
179.790325
 31
0.0
  0
LINE
  5
9E4
  8
DETAIL
  6
CONTINUOUS
 62
     5
 10
-163.874698
 20
213.9249399999999
 30
0.0
 11
-163.874698
 21
179.790325
 31
0.0
  0
ARC
  5
9E5
  8
DETAIL
  6
CONTINUOUS
 62
     5
 10
-174.1150830000001
 20
179.790325
 30
0.0
 40
10.240385
 50
180.0
 51
0.0
  0
ARC
  5
9E6
  8
DETAIL
  6
CONTINUOUS
 62
     5
 10
-174.1150830000001
 20
213.9249399999999
 30
0.0
 40
10.240385
 50
0.0
 51
180.0
  0
LINE
  5
9E7
  8
DETAIL
  6
CONTINUOUS
 62
     5
 10
-163.874698
 20
213.9249399999999
 30
0.0
 11
-163.874698
 21
179.790325
 31
0.0
  0
LINE
  5
9E8
  8
DETAIL
  6
CONTINUOUS
 62
     5
 10
-163.874698
 20
274.001864
 30
0.0
 11
-163.874698
 21
239.867249
 31
0.0
  0
ARC
  5
9E9
  8
DETAIL
  6
CONTINUOUS
 62
     5
 10
-174.1150830000001
 20
274.001864
 30
0.0
 40
10.240385
 50
0.0
 51
180.0
  0
ARC
  5
9EA
  8
DETAIL
  6
CONTINUOUS
 62
     5
 10
-174.1150830000001
 20
239.867249
 30
0.0
 40
10.240385
 50
180.0
 51
0.0
  0
LINE
  5
9EB
  8
DETAIL
  6
CONTINUOUS
 62
     5
 10
-163.874698
 20
274.001864
 30
0.0
 11
-163.874698
 21
239.867249
 31
0.0
  0
LINE
  5
9EC
  8
DETAIL
  6
CONTINUOUS
 62
     5
 10
-184.3554679999999
 20
274.001864
 30
0.0
 11
-184.3554679999999
 21
239.867249
 31
0.0
  0
LINE
  5
9ED
  8
DETAIL
  6
CONTINUOUS
 62
     5
 10
-20.480796
 20
274.001864
 30
0.0
 11
-20.480796
 21
239.867249
 31
0.0
  0
LINE
  5
9EE
  8
DETAIL
  6
CONTINUOUS
 62
     5
 10
-0.0000260000001049
 20
274.001864
 30
0.0
 11
-0.0000260000001049
 21
239.867249
 31
0.0
  0
ARC
  5
9EF
  8
DETAIL
  6
CONTINUOUS
 62
     5
 10
-10.24041099999999
 20
239.867249
 30
0.0
 40
10.240385
 50
180.0
 51
0.0
  0
ARC
  5
9F0
  8
DETAIL
  6
CONTINUOUS
 62
     5
 10
-10.24041099999999
 20
274.001864
 30
0.0
 40
10.240385
 50
0.0
 51
180.0
  0
LINE
  5
9F1
  8
DETAIL
  6
CONTINUOUS
 62
     5
 10
-0.0000260000001049
 20
274.001864
 30
0.0
 11
-0.0000260000001049
 21
239.867249
 31
0.0
  0
LINE
  5
9F2
  8
DETAIL
  6
CONTINUOUS
 62
     5
 10
-0.0000260000001049
 20
213.9249399999999
 30
0.0
 11
-0.0000260000001049
 21
179.790325
 31
0.0
  0
ARC
  5
9F3
  8
DETAIL
  6
CONTINUOUS
 62
     5
 10
-10.24041099999999
 20
213.9249399999999
 30
0.0
 40
10.240385
 50
0.0
 51
180.0
  0
ARC
  5
9F4
  8
DETAIL
  6
CONTINUOUS
 62
     5
 10
-10.24041099999999
 20
179.790325
 30
0.0
 40
10.240385
 50
180.0
 51
0.0
  0
LINE
  5
9F5
  8
DETAIL
  6
CONTINUOUS
 62
     5
 10
-0.0000260000001049
 20
213.9249399999999
 30
0.0
 11
-0.0000260000001049
 21
179.790325
 31
0.0
  0
LINE
  5
9F6
  8
DETAIL
  6
CONTINUOUS
 62
     5
 10
-20.480796
 20
213.9249399999999
 30
0.0
 11
-20.480796
 21
179.790325
 31
0.0
  0
LINE
  5
9F7
  8
DETAIL
  6
CONTINUOUS
 62
     5
 10
-0.0000260000001049
 20
153.8480159999999
 30
0.0
 11
-0.0000260000001049
 21
119.7134009999999
 31
0.0
  0
ARC
  5
9F8
  8
DETAIL
  6
CONTINUOUS
 62
     5
 10
-10.24041099999999
 20
153.8480159999999
 30
0.0
 40
10.240385
 50
0.0
 51
180.0
  0
ARC
  5
9F9
  8
DETAIL
  6
CONTINUOUS
 62
     5
 10
-10.24041099999999
 20
119.7134009999999
 30
0.0
 40
10.240385
 50
180.0
 51
0.0
  0
LINE
  5
9FA
  8
DETAIL
  6
CONTINUOUS
 62
     5
 10
-0.0000260000001049
 20
153.8480159999999
 30
0.0
 11
-0.0000260000001049
 21
119.7134009999999
 31
0.0
  0
LINE
  5
9FB
  8
DETAIL
  6
CONTINUOUS
 62
     5
 10
-20.480796
 20
153.8480159999999
 30
0.0
 11
-20.480796
 21
119.7134009999999
 31
0.0
  0
LINE
  5
9FC
  8
DETAIL
  6
CONTINUOUS
 62
     5
 10
34.13459
 20
153.8480159999999
 30
0.0
 11
34.13459
 21
119.7134009999999
 31
0.0
  0
LINE
  5
9FD
  8
DETAIL
  6
CONTINUOUS
 62
     5
 10
54.61535900000001
 20
153.8480159999999
 30
0.0
 11
54.61535900000001
 21
119.7134009999999
 31
0.0
  0
ARC
  5
9FE
  8
DETAIL
  6
CONTINUOUS
 62
     5
 10
44.37497500000001
 20
119.7134009999999
 30
0.0
 40
10.240385
 50
180.0
 51
0.0
  0
ARC
  5
9FF
  8
DETAIL
  6
CONTINUOUS
 62
     5
 10
44.37497500000001
 20
153.8480159999999
 30
0.0
 40
10.240385
 50
0.0
 51
180.0
  0
LINE
  5
A00
  8
DETAIL
  6
CONTINUOUS
 62
     5
 10
54.61535900000001
 20
153.8480159999999
 30
0.0
 11
54.61535900000001
 21
119.7134009999999
 31
0.0
  0
LINE
  5
A01
  8
DETAIL
  6
CONTINUOUS
 62
     5
 10
34.13459
 20
213.9249399999999
 30
0.0
 11
34.13459
 21
179.790325
 31
0.0
  0
LINE
  5
A02
  8
DETAIL
  6
CONTINUOUS
 62
     5
 10
54.61535900000001
 20
213.9249399999999
 30
0.0
 11
54.61535900000001
 21
179.790325
 31
0.0
  0
ARC
  5
A03
  8
DETAIL
  6
CONTINUOUS
 62
     5
 10
44.37497500000001
 20
179.790325
 30
0.0
 40
10.240385
 50
180.0
 51
0.0
  0
ARC
  5
A04
  8
DETAIL
  6
CONTINUOUS
 62
     5
 10
44.37497500000001
 20
213.9249399999999
 30
0.0
 40
10.240385
 50
0.0
 51
180.0
  0
LINE
  5
A05
  8
DETAIL
  6
CONTINUOUS
 62
     5
 10
54.61535900000001
 20
213.9249399999999
 30
0.0
 11
54.61535900000001
 21
179.790325
 31
0.0
  0
LINE
  5
A06
  8
DETAIL
  6
CONTINUOUS
 62
     5
 10
54.61535900000001
 20
274.001864
 30
0.0
 11
54.61535900000001
 21
239.867249
 31
0.0
  0
ARC
  5
A07
  8
DETAIL
  6
CONTINUOUS
 62
     5
 10
44.37497500000001
 20
274.001864
 30
0.0
 40
10.240385
 50
0.0
 51
180.0
  0
ARC
  5
A08
  8
DETAIL
  6
CONTINUOUS
 62
     5
 10
44.37497500000001
 20
239.867249
 30
0.0
 40
10.240385
 50
180.0
 51
0.0
  0
LINE
  5
A09
  8
DETAIL
  6
CONTINUOUS
 62
     5
 10
54.61535900000001
 20
274.001864
 30
0.0
 11
54.61535900000001
 21
239.867249
 31
0.0
  0
LINE
  5
A0A
  8
DETAIL
  6
CONTINUOUS
 62
     5
 10
34.13459
 20
274.001864
 30
0.0
 11
34.13459
 21
239.867249
 31
0.0
  0
LINE
  5
A0B
  8
DETAIL
  6
CONTINUOUS
 62
     5
 10
6.826897000000031
 20
274.001864
 30
0.0
 11
6.826897000000031
 21
239.867249
 31
0.0
  0
LINE
  5
A0C
  8
DETAIL
  6
CONTINUOUS
 62
     5
 10
27.30766699999992
 20
274.001864
 30
0.0
 11
27.30766699999992
 21
239.867249
 31
0.0
  0
ARC
  5
A0D
  8
DETAIL
  6
CONTINUOUS
 62
     5
 10
17.06728199999992
 20
239.867249
 30
0.0
 40
10.240385
 50
180.0
 51
0.0
  0
ARC
  5
A0E
  8
DETAIL
  6
CONTINUOUS
 62
     5
 10
17.06728199999992
 20
274.001864
 30
0.0
 40
10.240385
 50
0.0
 51
180.0
  0
LINE
  5
A0F
  8
DETAIL
  6
CONTINUOUS
 62
     5
 10
27.30766699999992
 20
274.001864
 30
0.0
 11
27.30766699999992
 21
239.867249
 31
0.0
  0
LINE
  5
A10
  8
DETAIL
  6
CONTINUOUS
 62
     5
 10
27.30766699999992
 20
213.9249399999999
 30
0.0
 11
27.30766699999992
 21
179.790325
 31
0.0
  0
ARC
  5
A11
  8
DETAIL
  6
CONTINUOUS
 62
     5
 10
17.06728199999992
 20
213.9249399999999
 30
0.0
 40
10.240385
 50
0.0
 51
180.0
  0
ARC
  5
A12
  8
DETAIL
  6
CONTINUOUS
 62
     5
 10
17.06728199999992
 20
179.790325
 30
0.0
 40
10.240385
 50
180.0
 51
0.0
  0
LINE
  5
A13
  8
DETAIL
  6
CONTINUOUS
 62
     5
 10
27.30766699999992
 20
213.9249399999999
 30
0.0
 11
27.30766699999992
 21
179.790325
 31
0.0
  0
LINE
  5
A14
  8
DETAIL
  6
CONTINUOUS
 62
     5
 10
6.826897000000031
 20
213.9249399999999
 30
0.0
 11
6.826897000000031
 21
179.790325
 31
0.0
  0
LINE
  5
A15
  8
DETAIL
  6
CONTINUOUS
 62
     5
 10
27.30766699999992
 20
153.8480159999999
 30
0.0
 11
27.30766699999992
 21
119.7134009999999
 31
0.0
  0
ARC
  5
A16
  8
DETAIL
  6
CONTINUOUS
 62
     5
 10
17.06728199999992
 20
153.8480159999999
 30
0.0
 40
10.240385
 50
0.0
 51
180.0
  0
ARC
  5
A17
  8
DETAIL
  6
CONTINUOUS
 62
     5
 10
17.06728199999992
 20
119.7134009999999
 30
0.0
 40
10.240385
 50
180.0
 51
0.0
  0
LINE
  5
A18
  8
DETAIL
  6
CONTINUOUS
 62
     5
 10
27.30766699999992
 20
153.8480159999999
 30
0.0
 11
27.30766699999992
 21
119.7134009999999
 31
0.0
  0
LINE
  5
A19
  8
DETAIL
  6
CONTINUOUS
 62
     5
 10
6.826897000000031
 20
153.8480159999999
 30
0.0
 11
6.826897000000031
 21
119.7134009999999
 31
0.0
  0
LINE
  5
A1A
  8
DETAIL
  6
CONTINUOUS
 62
     5
 10
-75.096181
 20
153.8480159999999
 30
0.0
 11
-75.096181
 21
119.7134009999999
 31
0.0
  0
LINE
  5
A1B
  8
DETAIL
  6
CONTINUOUS
 62
     5
 10
-54.61541199999999
 20
153.8480159999999
 30
0.0
 11
-54.61541199999999
 21
119.7134009999999
 31
0.0
  0
ARC
  5
A1C
  8
DETAIL
  6
CONTINUOUS
 62
     5
 10
-64.855796
 20
119.7134009999999
 30
0.0
 40
10.240385
 50
180.0
 51
0.0
  0
ARC
  5
A1D
  8
DETAIL
  6
CONTINUOUS
 62
     5
 10
-64.855796
 20
153.8480159999999
 30
0.0
 40
10.240385
 50
0.0
 51
180.0
  0
LINE
  5
A1E
  8
DETAIL
  6
CONTINUOUS
 62
     5
 10
-54.61541199999999
 20
153.8480159999999
 30
0.0
 11
-54.61541199999999
 21
119.7134009999999
 31
0.0
  0
LINE
  5
A1F
  8
DETAIL
  6
CONTINUOUS
 62
     5
 10
-75.096181
 20
213.9249399999999
 30
0.0
 11
-75.096181
 21
179.790325
 31
0.0
  0
LINE
  5
A20
  8
DETAIL
  6
CONTINUOUS
 62
     5
 10
-54.61541199999999
 20
213.9249399999999
 30
0.0
 11
-54.61541199999999
 21
179.790325
 31
0.0
  0
ARC
  5
A21
  8
DETAIL
  6
CONTINUOUS
 62
     5
 10
-64.855796
 20
179.790325
 30
0.0
 40
10.240385
 50
180.0
 51
0.0
  0
ARC
  5
A22
  8
DETAIL
  6
CONTINUOUS
 62
     5
 10
-64.855796
 20
213.9249399999999
 30
0.0
 40
10.240385
 50
0.0
 51
180.0
  0
LINE
  5
A23
  8
DETAIL
  6
CONTINUOUS
 62
     5
 10
-54.61541199999999
 20
213.9249399999999
 30
0.0
 11
-54.61541199999999
 21
179.790325
 31
0.0
  0
LINE
  5
A24
  8
DETAIL
  6
CONTINUOUS
 62
     5
 10
-54.61541199999999
 20
274.001864
 30
0.0
 11
-54.61541199999999
 21
239.867249
 31
0.0
  0
ARC
  5
A25
  8
DETAIL
  6
CONTINUOUS
 62
     5
 10
-64.855796
 20
274.001864
 30
0.0
 40
10.240385
 50
0.0
 51
180.0
  0
ARC
  5
A26
  8
DETAIL
  6
CONTINUOUS
 62
     5
 10
-64.855796
 20
239.867249
 30
0.0
 40
10.240385
 50
180.0
 51
0.0
  0
LINE
  5
A27
  8
DETAIL
  6
CONTINUOUS
 62
     5
 10
-54.61541199999999
 20
274.001864
 30
0.0
 11
-54.61541199999999
 21
239.867249
 31
0.0
  0
LINE
  5
A28
  8
DETAIL
  6
CONTINUOUS
 62
     5
 10
-75.096181
 20
274.001864
 30
0.0
 11
-75.096181
 21
239.867249
 31
0.0
  0
LINE
  5
A29
  8
DETAIL
  6
CONTINUOUS
 62
     5
 10
-47.78848799999997
 20
274.001864
 30
0.0
 11
-47.78848799999997
 21
239.867249
 31
0.0
  0
LINE
  5
A2A
  8
DETAIL
  6
CONTINUOUS
 62
     5
 10
-27.30771899999991
 20
274.001864
 30
0.0
 11
-27.30771899999991
 21
239.867249
 31
0.0
  0
ARC
  5
A2B
  8
DETAIL
  6
CONTINUOUS
 62
     5
 10
-37.54810399999997
 20
239.867249
 30
0.0
 40
10.240385
 50
180.0
 51
0.0
  0
ARC
  5
A2C
  8
DETAIL
  6
CONTINUOUS
 62
     5
 10
-37.54810399999997
 20
274.001864
 30
0.0
 40
10.240385
 50
0.0
 51
180.0
  0
LINE
  5
A2D
  8
DETAIL
  6
CONTINUOUS
 62
     5
 10
-27.30771899999991
 20
274.001864
 30
0.0
 11
-27.30771899999991
 21
239.867249
 31
0.0
  0
LINE
  5
A2E
  8
DETAIL
  6
CONTINUOUS
 62
     5
 10
-27.30771899999991
 20
213.9249399999999
 30
0.0
 11
-27.30771899999991
 21
179.790325
 31
0.0
  0
ARC
  5
A2F
  8
DETAIL
  6
CONTINUOUS
 62
     5
 10
-37.54810399999997
 20
213.9249399999999
 30
0.0
 40
10.240385
 50
0.0
 51
180.0
  0
ARC
  5
A30
  8
DETAIL
  6
CONTINUOUS
 62
     5
 10
-37.54810399999997
 20
179.790325
 30
0.0
 40
10.240385
 50
180.0
 51
0.0
  0
LINE
  5
A31
  8
DETAIL
  6
CONTINUOUS
 62
     5
 10
-27.30771899999991
 20
213.9249399999999
 30
0.0
 11
-27.30771899999991
 21
179.790325
 31
0.0
  0
LINE
  5
A32
  8
DETAIL
  6
CONTINUOUS
 62
     5
 10
-47.78848799999997
 20
213.9249399999999
 30
0.0
 11
-47.78848799999997
 21
179.790325
 31
0.0
  0
LINE
  5
A33
  8
DETAIL
  6
CONTINUOUS
 62
     5
 10
-27.30771899999991
 20
153.8480159999999
 30
0.0
 11
-27.30771899999991
 21
119.7134009999999
 31
0.0
  0
ARC
  5
A34
  8
DETAIL
  6
CONTINUOUS
 62
     5
 10
-37.54810399999997
 20
153.8480159999999
 30
0.0
 40
10.240385
 50
0.0
 51
180.0
  0
ARC
  5
A35
  8
DETAIL
  6
CONTINUOUS
 62
     5
 10
-37.54810399999997
 20
119.7134009999999
 30
0.0
 40
10.240385
 50
180.0
 51
0.0
  0
LINE
  5
A36
  8
DETAIL
  6
CONTINUOUS
 62
     5
 10
-27.30771899999991
 20
153.8480159999999
 30
0.0
 11
-27.30771899999991
 21
119.7134009999999
 31
0.0
  0
LINE
  5
A37
  8
DETAIL
  6
CONTINUOUS
 62
     5
 10
-47.78848799999997
 20
153.8480159999999
 30
0.0
 11
-47.78848799999997
 21
119.7134009999999
 31
0.0
  0
LINE
  5
A38
  8
DETAIL
  6
CONTINUOUS
 62
     5
 10
-102.403874
 20
153.8480159999999
 30
0.0
 11
-102.403874
 21
119.7134009999999
 31
0.0
  0
LINE
  5
A39
  8
DETAIL
  6
CONTINUOUS
 62
     5
 10
-81.92310399999997
 20
153.8480159999999
 30
0.0
 11
-81.92310399999997
 21
119.7134009999999
 31
0.0
  0
ARC
  5
A3A
  8
DETAIL
  6
CONTINUOUS
 62
     5
 10
-92.16348899999997
 20
119.7134009999999
 30
0.0
 40
10.240385
 50
180.0
 51
0.0
  0
ARC
  5
A3B
  8
DETAIL
  6
CONTINUOUS
 62
     5
 10
-92.16348899999997
 20
153.8480159999999
 30
0.0
 40
10.240385
 50
0.0
 51
180.0
  0
LINE
  5
A3C
  8
DETAIL
  6
CONTINUOUS
 62
     5
 10
-81.92310399999997
 20
153.8480159999999
 30
0.0
 11
-81.92310399999997
 21
119.7134009999999
 31
0.0
  0
LINE
  5
A3D
  8
DETAIL
  6
CONTINUOUS
 62
     5
 10
-102.403874
 20
213.9249399999999
 30
0.0
 11
-102.403874
 21
179.790325
 31
0.0
  0
LINE
  5
A3E
  8
DETAIL
  6
CONTINUOUS
 62
     5
 10
-81.92310399999997
 20
213.9249399999999
 30
0.0
 11
-81.92310399999997
 21
179.790325
 31
0.0
  0
ARC
  5
A3F
  8
DETAIL
  6
CONTINUOUS
 62
     5
 10
-92.16348899999997
 20
179.790325
 30
0.0
 40
10.240385
 50
180.0
 51
0.0
  0
ARC
  5
A40
  8
DETAIL
  6
CONTINUOUS
 62
     5
 10
-92.16348899999997
 20
213.9249399999999
 30
0.0
 40
10.240385
 50
0.0
 51
180.0
  0
LINE
  5
A41
  8
DETAIL
  6
CONTINUOUS
 62
     5
 10
-81.92310399999997
 20
213.9249399999999
 30
0.0
 11
-81.92310399999997
 21
179.790325
 31
0.0
  0
LINE
  5
A42
  8
DETAIL
  6
CONTINUOUS
 62
     5
 10
-81.92310399999997
 20
274.001864
 30
0.0
 11
-81.92310399999997
 21
239.867249
 31
0.0
  0
ARC
  5
A43
  8
DETAIL
  6
CONTINUOUS
 62
     5
 10
-92.16348899999997
 20
274.001864
 30
0.0
 40
10.240385
 50
0.0
 51
180.0
  0
ARC
  5
A44
  8
DETAIL
  6
CONTINUOUS
 62
     5
 10
-92.16348899999997
 20
239.867249
 30
0.0
 40
10.240385
 50
180.0
 51
0.0
  0
LINE
  5
A45
  8
DETAIL
  6
CONTINUOUS
 62
     5
 10
-81.92310399999997
 20
274.001864
 30
0.0
 11
-81.92310399999997
 21
239.867249
 31
0.0
  0
LINE
  5
A46
  8
DETAIL
  6
CONTINUOUS
 62
     5
 10
-102.403874
 20
274.001864
 30
0.0
 11
-102.403874
 21
239.867249
 31
0.0
  0
LINE
  5
A47
  8
DETAIL
  6
CONTINUOUS
 62
     5
 10
136.566953
 20
274.001864
 30
0.0
 11
136.566953
 21
239.867249
 31
0.0
  0
LINE
  5
A48
  8
DETAIL
  6
CONTINUOUS
 62
     5
 10
157.0477229999999
 20
274.001864
 30
0.0
 11
157.0477229999999
 21
239.867249
 31
0.0
  0
ARC
  5
A49
  8
DETAIL
  6
CONTINUOUS
 62
     5
 10
146.807338
 20
239.867249
 30
0.0
 40
10.240385
 50
180.0
 51
0.0
  0
ARC
  5
A4A
  8
DETAIL
  6
CONTINUOUS
 62
     5
 10
146.807338
 20
274.001864
 30
0.0
 40
10.240385
 50
0.0
 51
180.0
  0
LINE
  5
A4B
  8
DETAIL
  6
CONTINUOUS
 62
     5
 10
157.0477229999999
 20
274.001864
 30
0.0
 11
157.0477229999999
 21
239.867249
 31
0.0
  0
LINE
  5
A4C
  8
DETAIL
  6
CONTINUOUS
 62
     5
 10
157.0477229999999
 20
213.9249399999999
 30
0.0
 11
157.0477229999999
 21
179.790325
 31
0.0
  0
ARC
  5
A4D
  8
DETAIL
  6
CONTINUOUS
 62
     5
 10
146.807338
 20
213.9249399999999
 30
0.0
 40
10.240385
 50
0.0
 51
180.0
  0
ARC
  5
A4E
  8
DETAIL
  6
CONTINUOUS
 62
     5
 10
146.807338
 20
179.790325
 30
0.0
 40
10.240385
 50
180.0
 51
0.0
  0
LINE
  5
A4F
  8
DETAIL
  6
CONTINUOUS
 62
     5
 10
157.0477229999999
 20
213.9249399999999
 30
0.0
 11
157.0477229999999
 21
179.790325
 31
0.0
  0
LINE
  5
A50
  8
DETAIL
  6
CONTINUOUS
 62
     5
 10
136.566953
 20
213.9249399999999
 30
0.0
 11
136.566953
 21
179.790325
 31
0.0
  0
LINE
  5
A51
  8
DETAIL
  6
CONTINUOUS
 62
     5
 10
157.0477229999999
 20
153.8480159999999
 30
0.0
 11
157.0477229999999
 21
119.7134009999999
 31
0.0
  0
ARC
  5
A52
  8
DETAIL
  6
CONTINUOUS
 62
     5
 10
146.807338
 20
153.8480159999999
 30
0.0
 40
10.240385
 50
0.0
 51
180.0
  0
ARC
  5
A53
  8
DETAIL
  6
CONTINUOUS
 62
     5
 10
146.807338
 20
119.7134009999999
 30
0.0
 40
10.240385
 50
180.0
 51
0.0
  0
LINE
  5
A54
  8
DETAIL
  6
CONTINUOUS
 62
     5
 10
157.0477229999999
 20
153.8480159999999
 30
0.0
 11
157.0477229999999
 21
119.7134009999999
 31
0.0
  0
LINE
  5
A55
  8
DETAIL
  6
CONTINUOUS
 62
     5
 10
136.566953
 20
153.8480159999999
 30
0.0
 11
136.566953
 21
119.7134009999999
 31
0.0
  0
LINE
  5
A56
  8
DETAIL
  6
CONTINUOUS
 62
     5
 10
191.182339
 20
153.8480159999999
 30
0.0
 11
191.182339
 21
119.7134009999999
 31
0.0
  0
LINE
  5
A57
  8
DETAIL
  6
CONTINUOUS
 62
     5
 10
211.663108
 20
153.8480159999999
 30
0.0
 11
211.663108
 21
119.7134009999999
 31
0.0
  0
ARC
  5
A58
  8
DETAIL
  6
CONTINUOUS
 62
     5
 10
201.422723
 20
119.7134009999999
 30
0.0
 40
10.240385
 50
180.0
 51
0.0
  0
ARC
  5
A59
  8
DETAIL
  6
CONTINUOUS
 62
     5
 10
201.422723
 20
153.8480159999999
 30
0.0
 40
10.240385
 50
0.0
 51
180.0
  0
LINE
  5
A5A
  8
DETAIL
  6
CONTINUOUS
 62
     5
 10
211.663108
 20
153.8480159999999
 30
0.0
 11
211.663108
 21
119.7134009999999
 31
0.0
  0
LINE
  5
A5B
  8
DETAIL
  6
CONTINUOUS
 62
     5
 10
191.182339
 20
213.9249399999999
 30
0.0
 11
191.182339
 21
179.790325
 31
0.0
  0
LINE
  5
A5C
  8
DETAIL
  6
CONTINUOUS
 62
     5
 10
211.663108
 20
213.9249399999999
 30
0.0
 11
211.663108
 21
179.790325
 31
0.0
  0
ARC
  5
A5D
  8
DETAIL
  6
CONTINUOUS
 62
     5
 10
201.422723
 20
179.790325
 30
0.0
 40
10.240385
 50
180.0
 51
0.0
  0
ARC
  5
A5E
  8
DETAIL
  6
CONTINUOUS
 62
     5
 10
201.422723
 20
213.9249399999999
 30
0.0
 40
10.240385
 50
0.0
 51
180.0
  0
LINE
  5
A5F
  8
DETAIL
  6
CONTINUOUS
 62
     5
 10
211.663108
 20
213.9249399999999
 30
0.0
 11
211.663108
 21
179.790325
 31
0.0
  0
LINE
  5
A60
  8
DETAIL
  6
CONTINUOUS
 62
     5
 10
211.663108
 20
274.001864
 30
0.0
 11
211.663108
 21
239.867249
 31
0.0
  0
ARC
  5
A61
  8
DETAIL
  6
CONTINUOUS
 62
     5
 10
201.422723
 20
274.001864
 30
0.0
 40
10.240385
 50
0.0
 51
180.0
  0
ARC
  5
A62
  8
DETAIL
  6
CONTINUOUS
 62
     5
 10
201.422723
 20
239.867249
 30
0.0
 40
10.240385
 50
180.0
 51
0.0
  0
LINE
  5
A63
  8
DETAIL
  6
CONTINUOUS
 62
     5
 10
211.663108
 20
274.001864
 30
0.0
 11
211.663108
 21
239.867249
 31
0.0
  0
LINE
  5
A64
  8
DETAIL
  6
CONTINUOUS
 62
     5
 10
191.182339
 20
274.001864
 30
0.0
 11
191.182339
 21
239.867249
 31
0.0
  0
LINE
  5
A65
  8
DETAIL
  6
CONTINUOUS
 62
     5
 10
163.8746460000001
 20
274.001864
 30
0.0
 11
163.8746460000001
 21
239.867249
 31
0.0
  0
LINE
  5
A66
  8
DETAIL
  6
CONTINUOUS
 62
     5
 10
184.3554150000001
 20
274.001864
 30
0.0
 11
184.3554150000001
 21
239.867249
 31
0.0
  0
ARC
  5
A67
  8
DETAIL
  6
CONTINUOUS
 62
     5
 10
174.1150310000002
 20
239.867249
 30
0.0
 40
10.240385
 50
180.0
 51
0.0
  0
ARC
  5
A68
  8
DETAIL
  6
CONTINUOUS
 62
     5
 10
174.1150310000002
 20
274.001864
 30
0.0
 40
10.240385
 50
0.0
 51
180.0
  0
LINE
  5
A69
  8
DETAIL
  6
CONTINUOUS
 62
     5
 10
184.3554150000001
 20
274.001864
 30
0.0
 11
184.3554150000001
 21
239.867249
 31
0.0
  0
LINE
  5
A6A
  8
DETAIL
  6
CONTINUOUS
 62
     5
 10
184.3554150000001
 20
213.9249399999999
 30
0.0
 11
184.3554150000001
 21
179.790325
 31
0.0
  0
ARC
  5
A6B
  8
DETAIL
  6
CONTINUOUS
 62
     5
 10
174.1150310000002
 20
213.9249399999999
 30
0.0
 40
10.240385
 50
0.0
 51
180.0
  0
ARC
  5
A6C
  8
DETAIL
  6
CONTINUOUS
 62
     5
 10
174.1150310000002
 20
179.790325
 30
0.0
 40
10.240385
 50
180.0
 51
0.0
  0
LINE
  5
A6D
  8
DETAIL
  6
CONTINUOUS
 62
     5
 10
184.3554150000001
 20
213.9249399999999
 30
0.0
 11
184.3554150000001
 21
179.790325
 31
0.0
  0
LINE
  5
A6E
  8
DETAIL
  6
CONTINUOUS
 62
     5
 10
163.8746460000001
 20
213.9249399999999
 30
0.0
 11
163.8746460000001
 21
179.790325
 31
0.0
  0
LINE
  5
A6F
  8
DETAIL
  6
CONTINUOUS
 62
     5
 10
184.3554150000001
 20
153.8480159999999
 30
0.0
 11
184.3554150000001
 21
119.7134009999999
 31
0.0
  0
ARC
  5
A70
  8
DETAIL
  6
CONTINUOUS
 62
     5
 10
174.1150310000002
 20
153.8480159999999
 30
0.0
 40
10.240385
 50
0.0
 51
180.0
  0
ARC
  5
A71
  8
DETAIL
  6
CONTINUOUS
 62
     5
 10
174.1150310000002
 20
119.7134009999999
 30
0.0
 40
10.240385
 50
180.0
 51
0.0
  0
LINE
  5
A72
  8
DETAIL
  6
CONTINUOUS
 62
     5
 10
184.3554150000001
 20
153.8480159999999
 30
0.0
 11
184.3554150000001
 21
119.7134009999999
 31
0.0
  0
LINE
  5
A73
  8
DETAIL
  6
CONTINUOUS
 62
     5
 10
163.8746460000001
 20
153.8480159999999
 30
0.0
 11
163.8746460000001
 21
119.7134009999999
 31
0.0
  0
LINE
  5
A74
  8
DETAIL
  6
CONTINUOUS
 62
     5
 10
245.797724
 20
153.8480159999999
 30
0.0
 11
245.797724
 21
119.7134009999999
 31
0.0
  0
LINE
  5
A75
  8
DETAIL
  6
CONTINUOUS
 62
     5
 10
266.2784939999999
 20
153.8480159999999
 30
0.0
 11
266.2784939999999
 21
119.7134009999999
 31
0.0
  0
ARC
  5
A76
  8
DETAIL
  6
CONTINUOUS
 62
     5
 10
256.038109
 20
119.7134009999999
 30
0.0
 40
10.240385
 50
180.0
 51
0.0
  0
ARC
  5
A77
  8
DETAIL
  6
CONTINUOUS
 62
     5
 10
256.038109
 20
153.8480159999999
 30
0.0
 40
10.240385
 50
0.0
 51
180.0
  0
LINE
  5
A78
  8
DETAIL
  6
CONTINUOUS
 62
     5
 10
266.2784939999999
 20
153.8480159999999
 30
0.0
 11
266.2784939999999
 21
119.7134009999999
 31
0.0
  0
LINE
  5
A79
  8
DETAIL
  6
CONTINUOUS
 62
     5
 10
245.797724
 20
213.9249399999999
 30
0.0
 11
245.797724
 21
179.790325
 31
0.0
  0
LINE
  5
A7A
  8
DETAIL
  6
CONTINUOUS
 62
     5
 10
266.2784939999999
 20
213.9249399999999
 30
0.0
 11
266.2784939999999
 21
179.790325
 31
0.0
  0
ARC
  5
A7B
  8
DETAIL
  6
CONTINUOUS
 62
     5
 10
256.038109
 20
179.790325
 30
0.0
 40
10.240385
 50
180.0
 51
0.0
  0
ARC
  5
A7C
  8
DETAIL
  6
CONTINUOUS
 62
     5
 10
256.038109
 20
213.9249399999999
 30
0.0
 40
10.240385
 50
0.0
 51
180.0
  0
LINE
  5
A7D
  8
DETAIL
  6
CONTINUOUS
 62
     5
 10
266.2784939999999
 20
213.9249399999999
 30
0.0
 11
266.2784939999999
 21
179.790325
 31
0.0
  0
LINE
  5
A7E
  8
DETAIL
  6
CONTINUOUS
 62
     5
 10
266.2784939999999
 20
274.001864
 30
0.0
 11
266.2784939999999
 21
239.867249
 31
0.0
  0
ARC
  5
A7F
  8
DETAIL
  6
CONTINUOUS
 62
     5
 10
256.038109
 20
274.001864
 30
0.0
 40
10.240385
 50
0.0
 51
180.0
  0
ARC
  5
A80
  8
DETAIL
  6
CONTINUOUS
 62
     5
 10
256.038109
 20
239.867249
 30
0.0
 40
10.240385
 50
180.0
 51
0.0
  0
LINE
  5
A81
  8
DETAIL
  6
CONTINUOUS
 62
     5
 10
266.2784939999999
 20
274.001864
 30
0.0
 11
266.2784939999999
 21
239.867249
 31
0.0
  0
LINE
  5
A82
  8
DETAIL
  6
CONTINUOUS
 62
     5
 10
245.797724
 20
274.001864
 30
0.0
 11
245.797724
 21
239.867249
 31
0.0
  0
LINE
  5
A83
  8
DETAIL
  6
CONTINUOUS
 62
     5
 10
273.105417
 20
274.001864
 30
0.0
 11
273.105417
 21
239.867249
 31
0.0
  0
LINE
  5
A84
  8
DETAIL
  6
CONTINUOUS
 62
     5
 10
293.5861860000001
 20
274.001864
 30
0.0
 11
293.5861860000001
 21
239.867249
 31
0.0
  0
ARC
  5
A85
  8
DETAIL
  6
CONTINUOUS
 62
     5
 10
283.345802
 20
239.867249
 30
0.0
 40
10.240385
 50
180.0
 51
0.0
  0
ARC
  5
A86
  8
DETAIL
  6
CONTINUOUS
 62
     5
 10
283.345802
 20
274.001864
 30
0.0
 40
10.240385
 50
0.0
 51
180.0
  0
LINE
  5
A87
  8
DETAIL
  6
CONTINUOUS
 62
     5
 10
293.5861860000001
 20
274.001864
 30
0.0
 11
293.5861860000001
 21
239.867249
 31
0.0
  0
LINE
  5
A88
  8
DETAIL
  6
CONTINUOUS
 62
     5
 10
293.5861860000001
 20
213.9249399999999
 30
0.0
 11
293.5861860000001
 21
179.790325
 31
0.0
  0
ARC
  5
A89
  8
DETAIL
  6
CONTINUOUS
 62
     5
 10
283.345802
 20
213.9249399999999
 30
0.0
 40
10.240385
 50
0.0
 51
180.0
  0
ARC
  5
A8A
  8
DETAIL
  6
CONTINUOUS
 62
     5
 10
283.345802
 20
179.790325
 30
0.0
 40
10.240385
 50
180.0
 51
0.0
  0
LINE
  5
A8B
  8
DETAIL
  6
CONTINUOUS
 62
     5
 10
293.5861860000001
 20
213.9249399999999
 30
0.0
 11
293.5861860000001
 21
179.790325
 31
0.0
  0
LINE
  5
A8C
  8
DETAIL
  6
CONTINUOUS
 62
     5
 10
273.105417
 20
213.9249399999999
 30
0.0
 11
273.105417
 21
179.790325
 31
0.0
  0
LINE
  5
A8D
  8
DETAIL
  6
CONTINUOUS
 62
     5
 10
293.5861860000001
 20
153.8480159999999
 30
0.0
 11
293.5861860000001
 21
119.7134009999999
 31
0.0
  0
ARC
  5
A8E
  8
DETAIL
  6
CONTINUOUS
 62
     5
 10
283.345802
 20
153.8480159999999
 30
0.0
 40
10.240385
 50
0.0
 51
180.0
  0
ARC
  5
A8F
  8
DETAIL
  6
CONTINUOUS
 62
     5
 10
283.345802
 20
119.7134009999999
 30
0.0
 40
10.240385
 50
180.0
 51
0.0
  0
LINE
  5
A90
  8
DETAIL
  6
CONTINUOUS
 62
     5
 10
293.5861860000001
 20
153.8480159999999
 30
0.0
 11
293.5861860000001
 21
119.7134009999999
 31
0.0
  0
LINE
  5
A91
  8
DETAIL
  6
CONTINUOUS
 62
     5
 10
273.105417
 20
153.8480159999999
 30
0.0
 11
273.105417
 21
119.7134009999999
 31
0.0
  0
LINE
  5
A92
  8
DETAIL
  6
CONTINUOUS
 62
     5
 10
218.4900310000002
 20
153.8480159999999
 30
0.0
 11
218.4900310000002
 21
119.7134009999999
 31
0.0
  0
LINE
  5
A93
  8
DETAIL
  6
CONTINUOUS
 62
     5
 10
238.9708010000001
 20
153.8480159999999
 30
0.0
 11
238.9708010000001
 21
119.7134009999999
 31
0.0
  0
ARC
  5
A94
  8
DETAIL
  6
CONTINUOUS
 62
     5
 10
228.7304159999998
 20
119.7134009999999
 30
0.0
 40
10.240385
 50
180.0
 51
0.0
  0
ARC
  5
A95
  8
DETAIL
  6
CONTINUOUS
 62
     5
 10
228.7304159999998
 20
153.8480159999999
 30
0.0
 40
10.240385
 50
0.0
 51
180.0
  0
LINE
  5
A96
  8
DETAIL
  6
CONTINUOUS
 62
     5
 10
238.9708010000001
 20
153.8480159999999
 30
0.0
 11
238.9708010000001
 21
119.7134009999999
 31
0.0
  0
LINE
  5
A97
  8
DETAIL
  6
CONTINUOUS
 62
     5
 10
218.4900310000002
 20
213.9249399999999
 30
0.0
 11
218.4900310000002
 21
179.790325
 31
0.0
  0
LINE
  5
A98
  8
DETAIL
  6
CONTINUOUS
 62
     5
 10
238.9708010000001
 20
213.9249399999999
 30
0.0
 11
238.9708010000001
 21
179.790325
 31
0.0
  0
ARC
  5
A99
  8
DETAIL
  6
CONTINUOUS
 62
     5
 10
228.7304159999998
 20
179.790325
 30
0.0
 40
10.240385
 50
180.0
 51
0.0
  0
ARC
  5
A9A
  8
DETAIL
  6
CONTINUOUS
 62
     5
 10
228.7304159999998
 20
213.9249399999999
 30
0.0
 40
10.240385
 50
0.0
 51
180.0
  0
LINE
  5
A9B
  8
DETAIL
  6
CONTINUOUS
 62
     5
 10
238.9708010000001
 20
213.9249399999999
 30
0.0
 11
238.9708010000001
 21
179.790325
 31
0.0
  0
LINE
  5
A9C
  8
DETAIL
  6
CONTINUOUS
 62
     5
 10
238.9708010000001
 20
274.001864
 30
0.0
 11
238.9708010000001
 21
239.867249
 31
0.0
  0
ARC
  5
A9D
  8
DETAIL
  6
CONTINUOUS
 62
     5
 10
228.7304159999998
 20
274.001864
 30
0.0
 40
10.240385
 50
0.0
 51
180.0
  0
ARC
  5
A9E
  8
DETAIL
  6
CONTINUOUS
 62
     5
 10
228.7304159999998
 20
239.867249
 30
0.0
 40
10.240385
 50
180.0
 51
0.0
  0
LINE
  5
A9F
  8
DETAIL
  6
CONTINUOUS
 62
     5
 10
238.9708010000001
 20
274.001864
 30
0.0
 11
238.9708010000001
 21
239.867249
 31
0.0
  0
LINE
  5
AA0
  8
DETAIL
  6
CONTINUOUS
 62
     5
 10
218.4900310000002
 20
274.001864
 30
0.0
 11
218.4900310000002
 21
239.867249
 31
0.0
  0
LINE
  5
AA1
  8
DETAIL
  6
CONTINUOUS
 62
     5
 10
54.61535900000001
 20
274.001864
 30
0.0
 11
54.61535900000001
 21
239.867249
 31
0.0
  0
LINE
  5
AA2
  8
DETAIL
  6
CONTINUOUS
 62
     5
 10
75.09612900000002
 20
274.001864
 30
0.0
 11
75.09612900000002
 21
239.867249
 31
0.0
  0
ARC
  5
AA3
  8
DETAIL
  6
CONTINUOUS
 62
     5
 10
64.85574400000002
 20
239.867249
 30
0.0
 40
10.240385
 50
180.0
 51
0.0
  0
ARC
  5
AA4
  8
DETAIL
  6
CONTINUOUS
 62
     5
 10
64.85574400000002
 20
274.001864
 30
0.0
 40
10.240385
 50
0.0
 51
180.0
  0
LINE
  5
AA5
  8
DETAIL
  6
CONTINUOUS
 62
     5
 10
75.09612900000002
 20
274.001864
 30
0.0
 11
75.09612900000002
 21
239.867249
 31
0.0
  0
LINE
  5
AA6
  8
DETAIL
  6
CONTINUOUS
 62
     5
 10
75.09612900000002
 20
213.9249399999999
 30
0.0
 11
75.09612900000002
 21
179.790325
 31
0.0
  0
ARC
  5
AA7
  8
DETAIL
  6
CONTINUOUS
 62
     5
 10
64.85574400000002
 20
213.9249399999999
 30
0.0
 40
10.240385
 50
0.0
 51
180.0
  0
ARC
  5
AA8
  8
DETAIL
  6
CONTINUOUS
 62
     5
 10
64.85574400000002
 20
179.790325
 30
0.0
 40
10.240385
 50
180.0
 51
0.0
  0
LINE
  5
AA9
  8
DETAIL
  6
CONTINUOUS
 62
     5
 10
75.09612900000002
 20
213.9249399999999
 30
0.0
 11
75.09612900000002
 21
179.790325
 31
0.0
  0
LINE
  5
AAA
  8
DETAIL
  6
CONTINUOUS
 62
     5
 10
54.61535900000001
 20
213.9249399999999
 30
0.0
 11
54.61535900000001
 21
179.790325
 31
0.0
  0
LINE
  5
AAB
  8
DETAIL
  6
CONTINUOUS
 62
     5
 10
75.09612900000002
 20
153.8480159999999
 30
0.0
 11
75.09612900000002
 21
119.7134009999999
 31
0.0
  0
ARC
  5
AAC
  8
DETAIL
  6
CONTINUOUS
 62
     5
 10
64.85574400000002
 20
153.8480159999999
 30
0.0
 40
10.240385
 50
0.0
 51
180.0
  0
ARC
  5
AAD
  8
DETAIL
  6
CONTINUOUS
 62
     5
 10
64.85574400000002
 20
119.7134009999999
 30
0.0
 40
10.240385
 50
180.0
 51
0.0
  0
LINE
  5
AAE
  8
DETAIL
  6
CONTINUOUS
 62
     5
 10
75.09612900000002
 20
153.8480159999999
 30
0.0
 11
75.09612900000002
 21
119.7134009999999
 31
0.0
  0
LINE
  5
AAF
  8
DETAIL
  6
CONTINUOUS
 62
     5
 10
54.61535900000001
 20
153.8480159999999
 30
0.0
 11
54.61535900000001
 21
119.7134009999999
 31
0.0
  0
LINE
  5
AB0
  8
DETAIL
  6
CONTINUOUS
 62
     5
 10
109.230745
 20
153.8480159999999
 30
0.0
 11
109.230745
 21
119.7134009999999
 31
0.0
  0
LINE
  5
AB1
  8
DETAIL
  6
CONTINUOUS
 62
     5
 10
129.7115139999999
 20
153.8480159999999
 30
0.0
 11
129.7115139999999
 21
119.7134009999999
 31
0.0
  0
ARC
  5
AB2
  8
DETAIL
  6
CONTINUOUS
 62
     5
 10
119.4711299999999
 20
119.7134009999999
 30
0.0
 40
10.240385
 50
180.0
 51
0.0
  0
ARC
  5
AB3
  8
DETAIL
  6
CONTINUOUS
 62
     5
 10
119.4711299999999
 20
153.8480159999999
 30
0.0
 40
10.240385
 50
0.0
 51
180.0
  0
LINE
  5
AB4
  8
DETAIL
  6
CONTINUOUS
 62
     5
 10
129.7115139999999
 20
153.8480159999999
 30
0.0
 11
129.7115139999999
 21
119.7134009999999
 31
0.0
  0
LINE
  5
AB5
  8
DETAIL
  6
CONTINUOUS
 62
     5
 10
109.230745
 20
213.9249399999999
 30
0.0
 11
109.230745
 21
179.790325
 31
0.0
  0
LINE
  5
AB6
  8
DETAIL
  6
CONTINUOUS
 62
     5
 10
129.7115139999999
 20
213.9249399999999
 30
0.0
 11
129.7115139999999
 21
179.790325
 31
0.0
  0
ARC
  5
AB7
  8
DETAIL
  6
CONTINUOUS
 62
     5
 10
119.4711299999999
 20
179.790325
 30
0.0
 40
10.240385
 50
180.0
 51
0.0
  0
ARC
  5
AB8
  8
DETAIL
  6
CONTINUOUS
 62
     5
 10
119.4711299999999
 20
213.9249399999999
 30
0.0
 40
10.240385
 50
0.0
 51
180.0
  0
LINE
  5
AB9
  8
DETAIL
  6
CONTINUOUS
 62
     5
 10
129.7115139999999
 20
213.9249399999999
 30
0.0
 11
129.7115139999999
 21
179.790325
 31
0.0
  0
LINE
  5
ABA
  8
DETAIL
  6
CONTINUOUS
 62
     5
 10
129.7115139999999
 20
274.001864
 30
0.0
 11
129.7115139999999
 21
239.867249
 31
0.0
  0
ARC
  5
ABB
  8
DETAIL
  6
CONTINUOUS
 62
     5
 10
119.4711299999999
 20
274.001864
 30
0.0
 40
10.240385
 50
0.0
 51
180.0
  0
ARC
  5
ABC
  8
DETAIL
  6
CONTINUOUS
 62
     5
 10
119.4711299999999
 20
239.867249
 30
0.0
 40
10.240385
 50
180.0
 51
0.0
  0
LINE
  5
ABD
  8
DETAIL
  6
CONTINUOUS
 62
     5
 10
129.7115139999999
 20
274.001864
 30
0.0
 11
129.7115139999999
 21
239.867249
 31
0.0
  0
LINE
  5
ABE
  8
DETAIL
  6
CONTINUOUS
 62
     5
 10
109.230745
 20
274.001864
 30
0.0
 11
109.230745
 21
239.867249
 31
0.0
  0
LINE
  5
ABF
  8
DETAIL
  6
CONTINUOUS
 62
     5
 10
81.92305199999993
 20
274.001864
 30
0.0
 11
81.92305199999993
 21
239.867249
 31
0.0
  0
LINE
  5
AC0
  8
DETAIL
  6
CONTINUOUS
 62
     5
 10
102.4038219999999
 20
274.001864
 30
0.0
 11
102.4038219999999
 21
239.867249
 31
0.0
  0
ARC
  5
AC1
  8
DETAIL
  6
CONTINUOUS
 62
     5
 10
92.16343699999993
 20
239.867249
 30
0.0
 40
10.240385
 50
180.0
 51
0.0
  0
ARC
  5
AC2
  8
DETAIL
  6
CONTINUOUS
 62
     5
 10
92.16343699999993
 20
274.001864
 30
0.0
 40
10.240385
 50
0.0
 51
180.0
  0
LINE
  5
AC3
  8
DETAIL
  6
CONTINUOUS
 62
     5
 10
102.4038219999999
 20
274.001864
 30
0.0
 11
102.4038219999999
 21
239.867249
 31
0.0
  0
LINE
  5
AC4
  8
DETAIL
  6
CONTINUOUS
 62
     5
 10
102.4038219999999
 20
213.9249399999999
 30
0.0
 11
102.4038219999999
 21
179.790325
 31
0.0
  0
ARC
  5
AC5
  8
DETAIL
  6
CONTINUOUS
 62
     5
 10
92.16343699999993
 20
213.9249399999999
 30
0.0
 40
10.240385
 50
0.0
 51
180.0
  0
ARC
  5
AC6
  8
DETAIL
  6
CONTINUOUS
 62
     5
 10
92.16343699999993
 20
179.790325
 30
0.0
 40
10.240385
 50
180.0
 51
0.0
  0
LINE
  5
AC7
  8
DETAIL
  6
CONTINUOUS
 62
     5
 10
102.4038219999999
 20
213.9249399999999
 30
0.0
 11
102.4038219999999
 21
179.790325
 31
0.0
  0
LINE
  5
AC8
  8
DETAIL
  6
CONTINUOUS
 62
     5
 10
81.92305199999993
 20
213.9249399999999
 30
0.0
 11
81.92305199999993
 21
179.790325
 31
0.0
  0
LINE
  5
AC9
  8
DETAIL
  6
CONTINUOUS
 62
     5
 10
102.4038219999999
 20
153.8480159999999
 30
0.0
 11
102.4038219999999
 21
119.7134009999999
 31
0.0
  0
ARC
  5
ACA
  8
DETAIL
  6
CONTINUOUS
 62
     5
 10
92.16343699999993
 20
153.8480159999999
 30
0.0
 40
10.240385
 50
0.0
 51
180.0
  0
ARC
  5
ACB
  8
DETAIL
  6
CONTINUOUS
 62
     5
 10
92.16343699999993
 20
119.7134009999999
 30
0.0
 40
10.240385
 50
180.0
 51
0.0
  0
LINE
  5
ACC
  8
DETAIL
  6
CONTINUOUS
 62
     5
 10
102.4038219999999
 20
153.8480159999999
 30
0.0
 11
102.4038219999999
 21
119.7134009999999
 31
0.0
  0
LINE
  5
ACD
  8
DETAIL
  6
CONTINUOUS
 62
     5
 10
81.92305199999993
 20
153.8480159999999
 30
0.0
 11
81.92305199999993
 21
119.7134009999999
 31
0.0
  0
LINE
  5
ACE
  8
DETAIL
  6
CONTINUOUS
 62
     5
 10
-293.5862389999999
 20
274.001864
 30
0.0
 11
-293.5862389999999
 21
239.867249
 31
0.0
  0
LINE
  5
ACF
  8
DETAIL
  6
CONTINUOUS
 62
     5
 10
-293.5862389999999
 20
213.9249399999999
 30
0.0
 11
-293.5862389999999
 21
179.790325
 31
0.0
  0
LINE
  5
AD0
  8
DETAIL
  6
CONTINUOUS
 62
     5
 10
-293.5862389999999
 20
153.8480159999999
 30
0.0
 11
-293.5862389999999
 21
119.7134009999999
 31
0.0
  0
LINE
  5
AD1
  8
DETAIL
  6
CONTINUOUS
 62
     5
 10
-293.5862389999999
 20
-41.401986
 30
0.0
 11
-293.5862389999999
 21
-75.536602
 31
0.0
  0
LINE
  5
AD2
  8
DETAIL
  6
CONTINUOUS
 62
     5
 10
-293.5862389999999
 20
18.674938
 30
0.0
 11
-293.5862389999999
 21
-15.459678
 31
0.0
  0
LINE
  5
AD3
  8
DETAIL
  6
CONTINUOUS
 62
     5
 10
-293.5862389999999
 20
78.75186099999996
 30
0.0
 11
-293.5862389999999
 21
44.61724599999999
 31
0.0
  0
LINE
  5
AD4
  8
DETAIL
  6
CONTINUOUS
 62
     5
 10
81.92305199999993
 20
-41.401986
 30
0.0
 11
81.92305199999993
 21
-75.536602
 31
0.0
  0
LINE
  5
AD5
  8
DETAIL
  6
CONTINUOUS
 62
     5
 10
102.4038219999999
 20
-41.401986
 30
0.0
 11
102.4038219999999
 21
-75.536602
 31
0.0
  0
ARC
  5
AD6
  8
DETAIL
  6
CONTINUOUS
 62
     5
 10
92.16343699999993
 20
-75.536602
 30
0.0
 40
10.240385
 50
180.0
 51
0.0
  0
ARC
  5
AD7
  8
DETAIL
  6
CONTINUOUS
 62
     5
 10
92.16343699999993
 20
-41.401986
 30
0.0
 40
10.240385
 50
0.0
 51
180.0
  0
LINE
  5
AD8
  8
DETAIL
  6
CONTINUOUS
 62
     5
 10
102.4038219999999
 20
-41.401986
 30
0.0
 11
102.4038219999999
 21
-75.536602
 31
0.0
  0
LINE
  5
AD9
  8
DETAIL
  6
CONTINUOUS
 62
     5
 10
81.92305199999993
 20
18.674938
 30
0.0
 11
81.92305199999993
 21
-15.459678
 31
0.0
  0
LINE
  5
ADA
  8
DETAIL
  6
CONTINUOUS
 62
     5
 10
102.4038219999999
 20
18.674938
 30
0.0
 11
102.4038219999999
 21
-15.459678
 31
0.0
  0
ARC
  5
ADB
  8
DETAIL
  6
CONTINUOUS
 62
     5
 10
92.16343699999993
 20
-15.459678
 30
0.0
 40
10.240385
 50
180.0
 51
0.0
  0
ARC
  5
ADC
  8
DETAIL
  6
CONTINUOUS
 62
     5
 10
92.16343699999993
 20
18.674938
 30
0.0
 40
10.240385
 50
0.0
 51
180.0
  0
LINE
  5
ADD
  8
DETAIL
  6
CONTINUOUS
 62
     5
 10
102.4038219999999
 20
18.674938
 30
0.0
 11
102.4038219999999
 21
-15.459678
 31
0.0
  0
LINE
  5
ADE
  8
DETAIL
  6
CONTINUOUS
 62
     5
 10
102.4038219999999
 20
78.75186099999996
 30
0.0
 11
102.4038219999999
 21
44.61724599999999
 31
0.0
  0
ARC
  5
ADF
  8
DETAIL
  6
CONTINUOUS
 62
     5
 10
92.16343699999993
 20
78.75186099999996
 30
0.0
 40
10.240385
 50
0.0
 51
180.0
  0
ARC
  5
AE0
  8
DETAIL
  6
CONTINUOUS
 62
     5
 10
92.16343699999993
 20
44.61724599999999
 30
0.0
 40
10.240385
 50
180.0
 51
0.0
  0
LINE
  5
AE1
  8
DETAIL
  6
CONTINUOUS
 62
     5
 10
102.4038219999999
 20
78.75186099999996
 30
0.0
 11
102.4038219999999
 21
44.61724599999999
 31
0.0
  0
LINE
  5
AE2
  8
DETAIL
  6
CONTINUOUS
 62
     5
 10
81.92305199999993
 20
78.75186099999996
 30
0.0
 11
81.92305199999993
 21
44.61724599999999
 31
0.0
  0
LINE
  5
AE3
  8
DETAIL
  6
CONTINUOUS
 62
     5
 10
109.230745
 20
78.75186099999996
 30
0.0
 11
109.230745
 21
44.61724599999999
 31
0.0
  0
LINE
  5
AE4
  8
DETAIL
  6
CONTINUOUS
 62
     5
 10
129.7115139999999
 20
78.75186099999996
 30
0.0
 11
129.7115139999999
 21
44.61724599999999
 31
0.0
  0
ARC
  5
AE5
  8
DETAIL
  6
CONTINUOUS
 62
     5
 10
119.4711299999999
 20
44.61724599999999
 30
0.0
 40
10.240385
 50
180.0
 51
0.0
  0
ARC
  5
AE6
  8
DETAIL
  6
CONTINUOUS
 62
     5
 10
119.4711299999999
 20
78.75186099999996
 30
0.0
 40
10.240385
 50
0.0
 51
180.0
  0
LINE
  5
AE7
  8
DETAIL
  6
CONTINUOUS
 62
     5
 10
129.7115139999999
 20
78.75186099999996
 30
0.0
 11
129.7115139999999
 21
44.61724599999999
 31
0.0
  0
LINE
  5
AE8
  8
DETAIL
  6
CONTINUOUS
 62
     5
 10
129.7115139999999
 20
18.674938
 30
0.0
 11
129.7115139999999
 21
-15.459678
 31
0.0
  0
ARC
  5
AE9
  8
DETAIL
  6
CONTINUOUS
 62
     5
 10
119.4711299999999
 20
18.674938
 30
0.0
 40
10.240385
 50
0.0
 51
180.0
  0
ARC
  5
AEA
  8
DETAIL
  6
CONTINUOUS
 62
     5
 10
119.4711299999999
 20
-15.459678
 30
0.0
 40
10.240385
 50
180.0
 51
0.0
  0
LINE
  5
AEB
  8
DETAIL
  6
CONTINUOUS
 62
     5
 10
129.7115139999999
 20
18.674938
 30
0.0
 11
129.7115139999999
 21
-15.459678
 31
0.0
  0
LINE
  5
AEC
  8
DETAIL
  6
CONTINUOUS
 62
     5
 10
109.230745
 20
18.674938
 30
0.0
 11
109.230745
 21
-15.459678
 31
0.0
  0
LINE
  5
AED
  8
DETAIL
  6
CONTINUOUS
 62
     5
 10
129.7115139999999
 20
-41.401986
 30
0.0
 11
129.7115139999999
 21
-75.536602
 31
0.0
  0
ARC
  5
AEE
  8
DETAIL
  6
CONTINUOUS
 62
     5
 10
119.4711299999999
 20
-41.401986
 30
0.0
 40
10.240385
 50
0.0
 51
180.0
  0
ARC
  5
AEF
  8
DETAIL
  6
CONTINUOUS
 62
     5
 10
119.4711299999999
 20
-75.536602
 30
0.0
 40
10.240385
 50
180.0
 51
0.0
  0
LINE
  5
AF0
  8
DETAIL
  6
CONTINUOUS
 62
     5
 10
129.7115139999999
 20
-41.401986
 30
0.0
 11
129.7115139999999
 21
-75.536602
 31
0.0
  0
LINE
  5
AF1
  8
DETAIL
  6
CONTINUOUS
 62
     5
 10
109.230745
 20
-41.401986
 30
0.0
 11
109.230745
 21
-75.536602
 31
0.0
  0
LINE
  5
AF2
  8
DETAIL
  6
CONTINUOUS
 62
     5
 10
54.61535900000001
 20
-41.401986
 30
0.0
 11
54.61535900000001
 21
-75.536602
 31
0.0
  0
LINE
  5
AF3
  8
DETAIL
  6
CONTINUOUS
 62
     5
 10
75.09612900000002
 20
-41.401986
 30
0.0
 11
75.09612900000002
 21
-75.536602
 31
0.0
  0
ARC
  5
AF4
  8
DETAIL
  6
CONTINUOUS
 62
     5
 10
64.85574400000002
 20
-75.536602
 30
0.0
 40
10.240385
 50
180.0
 51
0.0
  0
ARC
  5
AF5
  8
DETAIL
  6
CONTINUOUS
 62
     5
 10
64.85574400000002
 20
-41.401986
 30
0.0
 40
10.240385
 50
0.0
 51
180.0
  0
LINE
  5
AF6
  8
DETAIL
  6
CONTINUOUS
 62
     5
 10
75.09612900000002
 20
-41.401986
 30
0.0
 11
75.09612900000002
 21
-75.536602
 31
0.0
  0
LINE
  5
AF7
  8
DETAIL
  6
CONTINUOUS
 62
     5
 10
54.61535900000001
 20
18.674938
 30
0.0
 11
54.61535900000001
 21
-15.459678
 31
0.0
  0
LINE
  5
AF8
  8
DETAIL
  6
CONTINUOUS
 62
     5
 10
75.09612900000002
 20
18.674938
 30
0.0
 11
75.09612900000002
 21
-15.459678
 31
0.0
  0
ARC
  5
AF9
  8
DETAIL
  6
CONTINUOUS
 62
     5
 10
64.85574400000002
 20
-15.459678
 30
0.0
 40
10.240385
 50
180.0
 51
0.0
  0
ARC
  5
AFA
  8
DETAIL
  6
CONTINUOUS
 62
     5
 10
64.85574400000002
 20
18.674938
 30
0.0
 40
10.240385
 50
0.0
 51
180.0
  0
LINE
  5
AFB
  8
DETAIL
  6
CONTINUOUS
 62
     5
 10
75.09612900000002
 20
18.674938
 30
0.0
 11
75.09612900000002
 21
-15.459678
 31
0.0
  0
LINE
  5
AFC
  8
DETAIL
  6
CONTINUOUS
 62
     5
 10
75.09612900000002
 20
78.75186099999996
 30
0.0
 11
75.09612900000002
 21
44.61724599999999
 31
0.0
  0
ARC
  5
AFD
  8
DETAIL
  6
CONTINUOUS
 62
     5
 10
64.85574400000002
 20
78.75186099999996
 30
0.0
 40
10.240385
 50
0.0
 51
180.0
  0
ARC
  5
AFE
  8
DETAIL
  6
CONTINUOUS
 62
     5
 10
64.85574400000002
 20
44.61724599999999
 30
0.0
 40
10.240385
 50
180.0
 51
0.0
  0
LINE
  5
AFF
  8
DETAIL
  6
CONTINUOUS
 62
     5
 10
75.09612900000002
 20
78.75186099999996
 30
0.0
 11
75.09612900000002
 21
44.61724599999999
 31
0.0
  0
LINE
  5
B00
  8
DETAIL
  6
CONTINUOUS
 62
     5
 10
54.61535900000001
 20
78.75186099999996
 30
0.0
 11
54.61535900000001
 21
44.61724599999999
 31
0.0
  0
LINE
  5
B01
  8
DETAIL
  6
CONTINUOUS
 62
     5
 10
218.4900310000002
 20
78.75186099999996
 30
0.0
 11
218.4900310000002
 21
44.61724599999999
 31
0.0
  0
LINE
  5
B02
  8
DETAIL
  6
CONTINUOUS
 62
     5
 10
238.9708010000001
 20
78.75186099999996
 30
0.0
 11
238.9708010000001
 21
44.61724599999999
 31
0.0
  0
ARC
  5
B03
  8
DETAIL
  6
CONTINUOUS
 62
     5
 10
228.7304159999998
 20
44.61724599999999
 30
0.0
 40
10.240385
 50
180.0
 51
0.0
  0
ARC
  5
B04
  8
DETAIL
  6
CONTINUOUS
 62
     5
 10
228.7304159999998
 20
78.75186099999996
 30
0.0
 40
10.240385
 50
0.0
 51
180.0
  0
LINE
  5
B05
  8
DETAIL
  6
CONTINUOUS
 62
     5
 10
238.9708010000001
 20
78.75186099999996
 30
0.0
 11
238.9708010000001
 21
44.61724599999999
 31
0.0
  0
LINE
  5
B06
  8
DETAIL
  6
CONTINUOUS
 62
     5
 10
238.9708010000001
 20
18.674938
 30
0.0
 11
238.9708010000001
 21
-15.459678
 31
0.0
  0
ARC
  5
B07
  8
DETAIL
  6
CONTINUOUS
 62
     5
 10
228.7304159999998
 20
18.674938
 30
0.0
 40
10.240385
 50
0.0
 51
180.0
  0
ARC
  5
B08
  8
DETAIL
  6
CONTINUOUS
 62
     5
 10
228.7304159999998
 20
-15.459678
 30
0.0
 40
10.240385
 50
180.0
 51
0.0
  0
LINE
  5
B09
  8
DETAIL
  6
CONTINUOUS
 62
     5
 10
238.9708010000001
 20
18.674938
 30
0.0
 11
238.9708010000001
 21
-15.459678
 31
0.0
  0
LINE
  5
B0A
  8
DETAIL
  6
CONTINUOUS
 62
     5
 10
218.4900310000002
 20
18.674938
 30
0.0
 11
218.4900310000002
 21
-15.459678
 31
0.0
  0
LINE
  5
B0B
  8
DETAIL
  6
CONTINUOUS
 62
     5
 10
238.9708010000001
 20
-41.401986
 30
0.0
 11
238.9708010000001
 21
-75.536602
 31
0.0
  0
ARC
  5
B0C
  8
DETAIL
  6
CONTINUOUS
 62
     5
 10
228.7304159999998
 20
-41.401986
 30
0.0
 40
10.240385
 50
0.0
 51
180.0
  0
ARC
  5
B0D
  8
DETAIL
  6
CONTINUOUS
 62
     5
 10
228.7304159999998
 20
-75.536602
 30
0.0
 40
10.240385
 50
180.0
 51
0.0
  0
LINE
  5
B0E
  8
DETAIL
  6
CONTINUOUS
 62
     5
 10
238.9708010000001
 20
-41.401986
 30
0.0
 11
238.9708010000001
 21
-75.536602
 31
0.0
  0
LINE
  5
B0F
  8
DETAIL
  6
CONTINUOUS
 62
     5
 10
218.4900310000002
 20
-41.401986
 30
0.0
 11
218.4900310000002
 21
-75.536602
 31
0.0
  0
LINE
  5
B10
  8
DETAIL
  6
CONTINUOUS
 62
     5
 10
273.105417
 20
-41.401986
 30
0.0
 11
273.105417
 21
-75.536602
 31
0.0
  0
LINE
  5
B11
  8
DETAIL
  6
CONTINUOUS
 62
     5
 10
293.5861860000001
 20
-41.401986
 30
0.0
 11
293.5861860000001
 21
-75.536602
 31
0.0
  0
ARC
  5
B12
  8
DETAIL
  6
CONTINUOUS
 62
     5
 10
283.345802
 20
-75.536602
 30
0.0
 40
10.240385
 50
180.0
 51
0.0
  0
ARC
  5
B13
  8
DETAIL
  6
CONTINUOUS
 62
     5
 10
283.345802
 20
-41.401986
 30
0.0
 40
10.240385
 50
0.0
 51
180.0
  0
LINE
  5
B14
  8
DETAIL
  6
CONTINUOUS
 62
     5
 10
293.5861860000001
 20
-41.401986
 30
0.0
 11
293.5861860000001
 21
-75.536602
 31
0.0
  0
LINE
  5
B15
  8
DETAIL
  6
CONTINUOUS
 62
     5
 10
273.105417
 20
18.674938
 30
0.0
 11
273.105417
 21
-15.459678
 31
0.0
  0
LINE
  5
B16
  8
DETAIL
  6
CONTINUOUS
 62
     5
 10
293.5861860000001
 20
18.674938
 30
0.0
 11
293.5861860000001
 21
-15.459678
 31
0.0
  0
ARC
  5
B17
  8
DETAIL
  6
CONTINUOUS
 62
     5
 10
283.345802
 20
-15.459678
 30
0.0
 40
10.240385
 50
180.0
 51
0.0
  0
ARC
  5
B18
  8
DETAIL
  6
CONTINUOUS
 62
     5
 10
283.345802
 20
18.674938
 30
0.0
 40
10.240385
 50
0.0
 51
180.0
  0
LINE
  5
B19
  8
DETAIL
  6
CONTINUOUS
 62
     5
 10
293.5861860000001
 20
18.674938
 30
0.0
 11
293.5861860000001
 21
-15.459678
 31
0.0
  0
LINE
  5
B1A
  8
DETAIL
  6
CONTINUOUS
 62
     5
 10
293.5861860000001
 20
78.75186099999996
 30
0.0
 11
293.5861860000001
 21
44.61724599999999
 31
0.0
  0
ARC
  5
B1B
  8
DETAIL
  6
CONTINUOUS
 62
     5
 10
283.345802
 20
78.75186099999996
 30
0.0
 40
10.240385
 50
0.0
 51
180.0
  0
ARC
  5
B1C
  8
DETAIL
  6
CONTINUOUS
 62
     5
 10
283.345802
 20
44.61724599999999
 30
0.0
 40
10.240385
 50
180.0
 51
0.0
  0
LINE
  5
B1D
  8
DETAIL
  6
CONTINUOUS
 62
     5
 10
293.5861860000001
 20
78.75186099999996
 30
0.0
 11
293.5861860000001
 21
44.61724599999999
 31
0.0
  0
LINE
  5
B1E
  8
DETAIL
  6
CONTINUOUS
 62
     5
 10
273.105417
 20
78.75186099999996
 30
0.0
 11
273.105417
 21
44.61724599999999
 31
0.0
  0
LINE
  5
B1F
  8
DETAIL
  6
CONTINUOUS
 62
     5
 10
245.797724
 20
78.75186099999996
 30
0.0
 11
245.797724
 21
44.61724599999999
 31
0.0
  0
LINE
  5
B20
  8
DETAIL
  6
CONTINUOUS
 62
     5
 10
266.2784939999999
 20
78.75186099999996
 30
0.0
 11
266.2784939999999
 21
44.61724599999999
 31
0.0
  0
ARC
  5
B21
  8
DETAIL
  6
CONTINUOUS
 62
     5
 10
256.038109
 20
44.61724599999999
 30
0.0
 40
10.240385
 50
180.0
 51
0.0
  0
ARC
  5
B22
  8
DETAIL
  6
CONTINUOUS
 62
     5
 10
256.038109
 20
78.75186099999996
 30
0.0
 40
10.240385
 50
0.0
 51
180.0
  0
LINE
  5
B23
  8
DETAIL
  6
CONTINUOUS
 62
     5
 10
266.2784939999999
 20
78.75186099999996
 30
0.0
 11
266.2784939999999
 21
44.61724599999999
 31
0.0
  0
LINE
  5
B24
  8
DETAIL
  6
CONTINUOUS
 62
     5
 10
266.2784939999999
 20
18.674938
 30
0.0
 11
266.2784939999999
 21
-15.459678
 31
0.0
  0
ARC
  5
B25
  8
DETAIL
  6
CONTINUOUS
 62
     5
 10
256.038109
 20
18.674938
 30
0.0
 40
10.240385
 50
0.0
 51
180.0
  0
ARC
  5
B26
  8
DETAIL
  6
CONTINUOUS
 62
     5
 10
256.038109
 20
-15.459678
 30
0.0
 40
10.240385
 50
180.0
 51
0.0
  0
LINE
  5
B27
  8
DETAIL
  6
CONTINUOUS
 62
     5
 10
266.2784939999999
 20
18.674938
 30
0.0
 11
266.2784939999999
 21
-15.459678
 31
0.0
  0
LINE
  5
B28
  8
DETAIL
  6
CONTINUOUS
 62
     5
 10
245.797724
 20
18.674938
 30
0.0
 11
245.797724
 21
-15.459678
 31
0.0
  0
LINE
  5
B29
  8
DETAIL
  6
CONTINUOUS
 62
     5
 10
266.2784939999999
 20
-41.401986
 30
0.0
 11
266.2784939999999
 21
-75.536602
 31
0.0
  0
ARC
  5
B2A
  8
DETAIL
  6
CONTINUOUS
 62
     5
 10
256.038109
 20
-41.401986
 30
0.0
 40
10.240385
 50
0.0
 51
180.0
  0
ARC
  5
B2B
  8
DETAIL
  6
CONTINUOUS
 62
     5
 10
256.038109
 20
-75.536602
 30
0.0
 40
10.240385
 50
180.0
 51
0.0
  0
LINE
  5
B2C
  8
DETAIL
  6
CONTINUOUS
 62
     5
 10
266.2784939999999
 20
-41.401986
 30
0.0
 11
266.2784939999999
 21
-75.536602
 31
0.0
  0
LINE
  5
B2D
  8
DETAIL
  6
CONTINUOUS
 62
     5
 10
245.797724
 20
-41.401986
 30
0.0
 11
245.797724
 21
-75.536602
 31
0.0
  0
LINE
  5
B2E
  8
DETAIL
  6
CONTINUOUS
 62
     5
 10
163.8746460000001
 20
-41.401986
 30
0.0
 11
163.8746460000001
 21
-75.536602
 31
0.0
  0
LINE
  5
B2F
  8
DETAIL
  6
CONTINUOUS
 62
     5
 10
184.3554150000001
 20
-41.401986
 30
0.0
 11
184.3554150000001
 21
-75.536602
 31
0.0
  0
ARC
  5
B30
  8
DETAIL
  6
CONTINUOUS
 62
     5
 10
174.1150310000002
 20
-75.536602
 30
0.0
 40
10.240385
 50
180.0
 51
0.0
  0
ARC
  5
B31
  8
DETAIL
  6
CONTINUOUS
 62
     5
 10
174.1150310000002
 20
-41.401986
 30
0.0
 40
10.240385
 50
0.0
 51
180.0
  0
LINE
  5
B32
  8
DETAIL
  6
CONTINUOUS
 62
     5
 10
184.3554150000001
 20
-41.401986
 30
0.0
 11
184.3554150000001
 21
-75.536602
 31
0.0
  0
LINE
  5
B33
  8
DETAIL
  6
CONTINUOUS
 62
     5
 10
163.8746460000001
 20
18.674938
 30
0.0
 11
163.8746460000001
 21
-15.459678
 31
0.0
  0
LINE
  5
B34
  8
DETAIL
  6
CONTINUOUS
 62
     5
 10
184.3554150000001
 20
18.674938
 30
0.0
 11
184.3554150000001
 21
-15.459678
 31
0.0
  0
ARC
  5
B35
  8
DETAIL
  6
CONTINUOUS
 62
     5
 10
174.1150310000002
 20
-15.459678
 30
0.0
 40
10.240385
 50
180.0
 51
0.0
  0
ARC
  5
B36
  8
DETAIL
  6
CONTINUOUS
 62
     5
 10
174.1150310000002
 20
18.674938
 30
0.0
 40
10.240385
 50
0.0
 51
180.0
  0
LINE
  5
B37
  8
DETAIL
  6
CONTINUOUS
 62
     5
 10
184.3554150000001
 20
18.674938
 30
0.0
 11
184.3554150000001
 21
-15.459678
 31
0.0
  0
LINE
  5
B38
  8
DETAIL
  6
CONTINUOUS
 62
     5
 10
184.3554150000001
 20
78.75186099999996
 30
0.0
 11
184.3554150000001
 21
44.61724599999999
 31
0.0
  0
ARC
  5
B39
  8
DETAIL
  6
CONTINUOUS
 62
     5
 10
174.1150310000002
 20
78.75186099999996
 30
0.0
 40
10.240385
 50
0.0
 51
180.0
  0
ARC
  5
B3A
  8
DETAIL
  6
CONTINUOUS
 62
     5
 10
174.1150310000002
 20
44.61724599999999
 30
0.0
 40
10.240385
 50
180.0
 51
0.0
  0
LINE
  5
B3B
  8
DETAIL
  6
CONTINUOUS
 62
     5
 10
184.3554150000001
 20
78.75186099999996
 30
0.0
 11
184.3554150000001
 21
44.61724599999999
 31
0.0
  0
LINE
  5
B3C
  8
DETAIL
  6
CONTINUOUS
 62
     5
 10
163.8746460000001
 20
78.75186099999996
 30
0.0
 11
163.8746460000001
 21
44.61724599999999
 31
0.0
  0
LINE
  5
B3D
  8
DETAIL
  6
CONTINUOUS
 62
     5
 10
191.182339
 20
78.75186099999996
 30
0.0
 11
191.182339
 21
44.61724599999999
 31
0.0
  0
LINE
  5
B3E
  8
DETAIL
  6
CONTINUOUS
 62
     5
 10
211.663108
 20
78.75186099999996
 30
0.0
 11
211.663108
 21
44.61724599999999
 31
0.0
  0
ARC
  5
B3F
  8
DETAIL
  6
CONTINUOUS
 62
     5
 10
201.422723
 20
44.61724599999999
 30
0.0
 40
10.240385
 50
180.0
 51
0.0
  0
ARC
  5
B40
  8
DETAIL
  6
CONTINUOUS
 62
     5
 10
201.422723
 20
78.75186099999996
 30
0.0
 40
10.240385
 50
0.0
 51
180.0
  0
LINE
  5
B41
  8
DETAIL
  6
CONTINUOUS
 62
     5
 10
211.663108
 20
78.75186099999996
 30
0.0
 11
211.663108
 21
44.61724599999999
 31
0.0
  0
LINE
  5
B42
  8
DETAIL
  6
CONTINUOUS
 62
     5
 10
211.663108
 20
18.674938
 30
0.0
 11
211.663108
 21
-15.459678
 31
0.0
  0
ARC
  5
B43
  8
DETAIL
  6
CONTINUOUS
 62
     5
 10
201.422723
 20
18.674938
 30
0.0
 40
10.240385
 50
0.0
 51
180.0
  0
ARC
  5
B44
  8
DETAIL
  6
CONTINUOUS
 62
     5
 10
201.422723
 20
-15.459678
 30
0.0
 40
10.240385
 50
180.0
 51
0.0
  0
LINE
  5
B45
  8
DETAIL
  6
CONTINUOUS
 62
     5
 10
211.663108
 20
18.674938
 30
0.0
 11
211.663108
 21
-15.459678
 31
0.0
  0
LINE
  5
B46
  8
DETAIL
  6
CONTINUOUS
 62
     5
 10
191.182339
 20
18.674938
 30
0.0
 11
191.182339
 21
-15.459678
 31
0.0
  0
LINE
  5
B47
  8
DETAIL
  6
CONTINUOUS
 62
     5
 10
211.663108
 20
-41.401986
 30
0.0
 11
211.663108
 21
-75.536602
 31
0.0
  0
ARC
  5
B48
  8
DETAIL
  6
CONTINUOUS
 62
     5
 10
201.422723
 20
-41.401986
 30
0.0
 40
10.240385
 50
0.0
 51
180.0
  0
ARC
  5
B49
  8
DETAIL
  6
CONTINUOUS
 62
     5
 10
201.422723
 20
-75.536602
 30
0.0
 40
10.240385
 50
180.0
 51
0.0
  0
LINE
  5
B4A
  8
DETAIL
  6
CONTINUOUS
 62
     5
 10
211.663108
 20
-41.401986
 30
0.0
 11
211.663108
 21
-75.536602
 31
0.0
  0
LINE
  5
B4B
  8
DETAIL
  6
CONTINUOUS
 62
     5
 10
191.182339
 20
-41.401986
 30
0.0
 11
191.182339
 21
-75.536602
 31
0.0
  0
LINE
  5
B4C
  8
DETAIL
  6
CONTINUOUS
 62
     5
 10
136.566953
 20
-41.401986
 30
0.0
 11
136.566953
 21
-75.536602
 31
0.0
  0
LINE
  5
B4D
  8
DETAIL
  6
CONTINUOUS
 62
     5
 10
157.0477229999999
 20
-41.401986
 30
0.0
 11
157.0477229999999
 21
-75.536602
 31
0.0
  0
ARC
  5
B4E
  8
DETAIL
  6
CONTINUOUS
 62
     5
 10
146.807338
 20
-75.536602
 30
0.0
 40
10.240385
 50
180.0
 51
0.0
  0
ARC
  5
B4F
  8
DETAIL
  6
CONTINUOUS
 62
     5
 10
146.807338
 20
-41.401986
 30
0.0
 40
10.240385
 50
0.0
 51
180.0
  0
LINE
  5
B50
  8
DETAIL
  6
CONTINUOUS
 62
     5
 10
157.0477229999999
 20
-41.401986
 30
0.0
 11
157.0477229999999
 21
-75.536602
 31
0.0
  0
LINE
  5
B51
  8
DETAIL
  6
CONTINUOUS
 62
     5
 10
136.566953
 20
18.674938
 30
0.0
 11
136.566953
 21
-15.459678
 31
0.0
  0
LINE
  5
B52
  8
DETAIL
  6
CONTINUOUS
 62
     5
 10
157.0477229999999
 20
18.674938
 30
0.0
 11
157.0477229999999
 21
-15.459678
 31
0.0
  0
ARC
  5
B53
  8
DETAIL
  6
CONTINUOUS
 62
     5
 10
146.807338
 20
-15.459678
 30
0.0
 40
10.240385
 50
180.0
 51
0.0
  0
ARC
  5
B54
  8
DETAIL
  6
CONTINUOUS
 62
     5
 10
146.807338
 20
18.674938
 30
0.0
 40
10.240385
 50
0.0
 51
180.0
  0
LINE
  5
B55
  8
DETAIL
  6
CONTINUOUS
 62
     5
 10
157.0477229999999
 20
18.674938
 30
0.0
 11
157.0477229999999
 21
-15.459678
 31
0.0
  0
LINE
  5
B56
  8
DETAIL
  6
CONTINUOUS
 62
     5
 10
157.0477229999999
 20
78.75186099999996
 30
0.0
 11
157.0477229999999
 21
44.61724599999999
 31
0.0
  0
ARC
  5
B57
  8
DETAIL
  6
CONTINUOUS
 62
     5
 10
146.807338
 20
78.75186099999996
 30
0.0
 40
10.240385
 50
0.0
 51
180.0
  0
ARC
  5
B58
  8
DETAIL
  6
CONTINUOUS
 62
     5
 10
146.807338
 20
44.61724599999999
 30
0.0
 40
10.240385
 50
180.0
 51
0.0
  0
LINE
  5
B59
  8
DETAIL
  6
CONTINUOUS
 62
     5
 10
157.0477229999999
 20
78.75186099999996
 30
0.0
 11
157.0477229999999
 21
44.61724599999999
 31
0.0
  0
LINE
  5
B5A
  8
DETAIL
  6
CONTINUOUS
 62
     5
 10
136.566953
 20
78.75186099999996
 30
0.0
 11
136.566953
 21
44.61724599999999
 31
0.0
  0
LINE
  5
B5B
  8
DETAIL
  6
CONTINUOUS
 62
     5
 10
-102.403874
 20
78.75186099999996
 30
0.0
 11
-102.403874
 21
44.61724599999999
 31
0.0
  0
LINE
  5
B5C
  8
DETAIL
  6
CONTINUOUS
 62
     5
 10
-81.92310399999997
 20
78.75186099999996
 30
0.0
 11
-81.92310399999997
 21
44.61724599999999
 31
0.0
  0
ARC
  5
B5D
  8
DETAIL
  6
CONTINUOUS
 62
     5
 10
-92.16348899999997
 20
44.61724599999999
 30
0.0
 40
10.240385
 50
180.0
 51
0.0
  0
ARC
  5
B5E
  8
DETAIL
  6
CONTINUOUS
 62
     5
 10
-92.16348899999997
 20
78.75186099999996
 30
0.0
 40
10.240385
 50
0.0
 51
180.0
  0
LINE
  5
B5F
  8
DETAIL
  6
CONTINUOUS
 62
     5
 10
-81.92310399999997
 20
78.75186099999996
 30
0.0
 11
-81.92310399999997
 21
44.61724599999999
 31
0.0
  0
LINE
  5
B60
  8
DETAIL
  6
CONTINUOUS
 62
     5
 10
-81.92310399999997
 20
18.674938
 30
0.0
 11
-81.92310399999997
 21
-15.459678
 31
0.0
  0
ARC
  5
B61
  8
DETAIL
  6
CONTINUOUS
 62
     5
 10
-92.16348899999997
 20
18.674938
 30
0.0
 40
10.240385
 50
0.0
 51
180.0
  0
ARC
  5
B62
  8
DETAIL
  6
CONTINUOUS
 62
     5
 10
-92.16348899999997
 20
-15.459678
 30
0.0
 40
10.240385
 50
180.0
 51
0.0
  0
LINE
  5
B63
  8
DETAIL
  6
CONTINUOUS
 62
     5
 10
-81.92310399999997
 20
18.674938
 30
0.0
 11
-81.92310399999997
 21
-15.459678
 31
0.0
  0
LINE
  5
B64
  8
DETAIL
  6
CONTINUOUS
 62
     5
 10
-102.403874
 20
18.674938
 30
0.0
 11
-102.403874
 21
-15.459678
 31
0.0
  0
LINE
  5
B65
  8
DETAIL
  6
CONTINUOUS
 62
     5
 10
-81.92310399999997
 20
-41.401986
 30
0.0
 11
-81.92310399999997
 21
-75.536602
 31
0.0
  0
ARC
  5
B66
  8
DETAIL
  6
CONTINUOUS
 62
     5
 10
-92.16348899999997
 20
-41.401986
 30
0.0
 40
10.240385
 50
0.0
 51
180.0
  0
ARC
  5
B67
  8
DETAIL
  6
CONTINUOUS
 62
     5
 10
-92.16348899999997
 20
-75.536602
 30
0.0
 40
10.240385
 50
180.0
 51
0.0
  0
LINE
  5
B68
  8
DETAIL
  6
CONTINUOUS
 62
     5
 10
-81.92310399999997
 20
-41.401986
 30
0.0
 11
-81.92310399999997
 21
-75.536602
 31
0.0
  0
LINE
  5
B69
  8
DETAIL
  6
CONTINUOUS
 62
     5
 10
-102.403874
 20
-41.401986
 30
0.0
 11
-102.403874
 21
-75.536602
 31
0.0
  0
LINE
  5
B6A
  8
DETAIL
  6
CONTINUOUS
 62
     5
 10
-47.78848799999997
 20
-41.401986
 30
0.0
 11
-47.78848799999997
 21
-75.536602
 31
0.0
  0
LINE
  5
B6B
  8
DETAIL
  6
CONTINUOUS
 62
     5
 10
-27.30771899999991
 20
-41.401986
 30
0.0
 11
-27.30771899999991
 21
-75.536602
 31
0.0
  0
ARC
  5
B6C
  8
DETAIL
  6
CONTINUOUS
 62
     5
 10
-37.54810399999997
 20
-75.536602
 30
0.0
 40
10.240385
 50
180.0
 51
0.0
  0
ARC
  5
B6D
  8
DETAIL
  6
CONTINUOUS
 62
     5
 10
-37.54810399999997
 20
-41.401986
 30
0.0
 40
10.240385
 50
0.0
 51
180.0
  0
LINE
  5
B6E
  8
DETAIL
  6
CONTINUOUS
 62
     5
 10
-27.30771899999991
 20
-41.401986
 30
0.0
 11
-27.30771899999991
 21
-75.536602
 31
0.0
  0
LINE
  5
B6F
  8
DETAIL
  6
CONTINUOUS
 62
     5
 10
-47.78848799999997
 20
18.674938
 30
0.0
 11
-47.78848799999997
 21
-15.459678
 31
0.0
  0
LINE
  5
B70
  8
DETAIL
  6
CONTINUOUS
 62
     5
 10
-27.30771899999991
 20
18.674938
 30
0.0
 11
-27.30771899999991
 21
-15.459678
 31
0.0
  0
ARC
  5
B71
  8
DETAIL
  6
CONTINUOUS
 62
     5
 10
-37.54810399999997
 20
-15.459678
 30
0.0
 40
10.240385
 50
180.0
 51
0.0
  0
ARC
  5
B72
  8
DETAIL
  6
CONTINUOUS
 62
     5
 10
-37.54810399999997
 20
18.674938
 30
0.0
 40
10.240385
 50
0.0
 51
180.0
  0
LINE
  5
B73
  8
DETAIL
  6
CONTINUOUS
 62
     5
 10
-27.30771899999991
 20
18.674938
 30
0.0
 11
-27.30771899999991
 21
-15.459678
 31
0.0
  0
LINE
  5
B74
  8
DETAIL
  6
CONTINUOUS
 62
     5
 10
-27.30771899999991
 20
78.75186099999996
 30
0.0
 11
-27.30771899999991
 21
44.61724599999999
 31
0.0
  0
ARC
  5
B75
  8
DETAIL
  6
CONTINUOUS
 62
     5
 10
-37.54810399999997
 20
78.75186099999996
 30
0.0
 40
10.240385
 50
0.0
 51
180.0
  0
ARC
  5
B76
  8
DETAIL
  6
CONTINUOUS
 62
     5
 10
-37.54810399999997
 20
44.61724599999999
 30
0.0
 40
10.240385
 50
180.0
 51
0.0
  0
LINE
  5
B77
  8
DETAIL
  6
CONTINUOUS
 62
     5
 10
-27.30771899999991
 20
78.75186099999996
 30
0.0
 11
-27.30771899999991
 21
44.61724599999999
 31
0.0
  0
LINE
  5
B78
  8
DETAIL
  6
CONTINUOUS
 62
     5
 10
-47.78848799999997
 20
78.75186099999996
 30
0.0
 11
-47.78848799999997
 21
44.61724599999999
 31
0.0
  0
LINE
  5
B79
  8
DETAIL
  6
CONTINUOUS
 62
     5
 10
-75.096181
 20
78.75186099999996
 30
0.0
 11
-75.096181
 21
44.61724599999999
 31
0.0
  0
LINE
  5
B7A
  8
DETAIL
  6
CONTINUOUS
 62
     5
 10
-54.61541199999999
 20
78.75186099999996
 30
0.0
 11
-54.61541199999999
 21
44.61724599999999
 31
0.0
  0
ARC
  5
B7B
  8
DETAIL
  6
CONTINUOUS
 62
     5
 10
-64.855796
 20
44.61724599999999
 30
0.0
 40
10.240385
 50
180.0
 51
0.0
  0
ARC
  5
B7C
  8
DETAIL
  6
CONTINUOUS
 62
     5
 10
-64.855796
 20
78.75186099999996
 30
0.0
 40
10.240385
 50
0.0
 51
180.0
  0
LINE
  5
B7D
  8
DETAIL
  6
CONTINUOUS
 62
     5
 10
-54.61541199999999
 20
78.75186099999996
 30
0.0
 11
-54.61541199999999
 21
44.61724599999999
 31
0.0
  0
LINE
  5
B7E
  8
DETAIL
  6
CONTINUOUS
 62
     5
 10
-54.61541199999999
 20
18.674938
 30
0.0
 11
-54.61541199999999
 21
-15.459678
 31
0.0
  0
ARC
  5
B7F
  8
DETAIL
  6
CONTINUOUS
 62
     5
 10
-64.855796
 20
18.674938
 30
0.0
 40
10.240385
 50
0.0
 51
180.0
  0
ARC
  5
B80
  8
DETAIL
  6
CONTINUOUS
 62
     5
 10
-64.855796
 20
-15.459678
 30
0.0
 40
10.240385
 50
180.0
 51
0.0
  0
LINE
  5
B81
  8
DETAIL
  6
CONTINUOUS
 62
     5
 10
-54.61541199999999
 20
18.674938
 30
0.0
 11
-54.61541199999999
 21
-15.459678
 31
0.0
  0
LINE
  5
B82
  8
DETAIL
  6
CONTINUOUS
 62
     5
 10
-75.096181
 20
18.674938
 30
0.0
 11
-75.096181
 21
-15.459678
 31
0.0
  0
LINE
  5
B83
  8
DETAIL
  6
CONTINUOUS
 62
     5
 10
-54.61541199999999
 20
-41.401986
 30
0.0
 11
-54.61541199999999
 21
-75.536602
 31
0.0
  0
ARC
  5
B84
  8
DETAIL
  6
CONTINUOUS
 62
     5
 10
-64.855796
 20
-41.401986
 30
0.0
 40
10.240385
 50
0.0
 51
180.0
  0
ARC
  5
B85
  8
DETAIL
  6
CONTINUOUS
 62
     5
 10
-64.855796
 20
-75.536602
 30
0.0
 40
10.240385
 50
180.0
 51
0.0
  0
LINE
  5
B86
  8
DETAIL
  6
CONTINUOUS
 62
     5
 10
-54.61541199999999
 20
-41.401986
 30
0.0
 11
-54.61541199999999
 21
-75.536602
 31
0.0
  0
LINE
  5
B87
  8
DETAIL
  6
CONTINUOUS
 62
     5
 10
-75.096181
 20
-41.401986
 30
0.0
 11
-75.096181
 21
-75.536602
 31
0.0
  0
LINE
  5
B88
  8
DETAIL
  6
CONTINUOUS
 62
     5
 10
6.826897000000031
 20
-41.401986
 30
0.0
 11
6.826897000000031
 21
-75.536602
 31
0.0
  0
LINE
  5
B89
  8
DETAIL
  6
CONTINUOUS
 62
     5
 10
27.30766699999992
 20
-41.401986
 30
0.0
 11
27.30766699999992
 21
-75.536602
 31
0.0
  0
ARC
  5
B8A
  8
DETAIL
  6
CONTINUOUS
 62
     5
 10
17.06728199999992
 20
-75.536602
 30
0.0
 40
10.240385
 50
180.0
 51
0.0
  0
ARC
  5
B8B
  8
DETAIL
  6
CONTINUOUS
 62
     5
 10
17.06728199999992
 20
-41.401986
 30
0.0
 40
10.240385
 50
0.0
 51
180.0
  0
LINE
  5
B8C
  8
DETAIL
  6
CONTINUOUS
 62
     5
 10
27.30766699999992
 20
-41.401986
 30
0.0
 11
27.30766699999992
 21
-75.536602
 31
0.0
  0
LINE
  5
B8D
  8
DETAIL
  6
CONTINUOUS
 62
     5
 10
6.826897000000031
 20
18.674938
 30
0.0
 11
6.826897000000031
 21
-15.459678
 31
0.0
  0
LINE
  5
B8E
  8
DETAIL
  6
CONTINUOUS
 62
     5
 10
27.30766699999992
 20
18.674938
 30
0.0
 11
27.30766699999992
 21
-15.459678
 31
0.0
  0
ARC
  5
B8F
  8
DETAIL
  6
CONTINUOUS
 62
     5
 10
17.06728199999992
 20
-15.459678
 30
0.0
 40
10.240385
 50
180.0
 51
0.0
  0
ARC
  5
B90
  8
DETAIL
  6
CONTINUOUS
 62
     5
 10
17.06728199999992
 20
18.674938
 30
0.0
 40
10.240385
 50
0.0
 51
180.0
  0
LINE
  5
B91
  8
DETAIL
  6
CONTINUOUS
 62
     5
 10
27.30766699999992
 20
18.674938
 30
0.0
 11
27.30766699999992
 21
-15.459678
 31
0.0
  0
LINE
  5
B92
  8
DETAIL
  6
CONTINUOUS
 62
     5
 10
27.30766699999992
 20
78.75186099999996
 30
0.0
 11
27.30766699999992
 21
44.61724599999999
 31
0.0
  0
ARC
  5
B93
  8
DETAIL
  6
CONTINUOUS
 62
     5
 10
17.06728199999992
 20
78.75186099999996
 30
0.0
 40
10.240385
 50
0.0
 51
180.0
  0
ARC
  5
B94
  8
DETAIL
  6
CONTINUOUS
 62
     5
 10
17.06728199999992
 20
44.61724599999999
 30
0.0
 40
10.240385
 50
180.0
 51
0.0
  0
LINE
  5
B95
  8
DETAIL
  6
CONTINUOUS
 62
     5
 10
27.30766699999992
 20
78.75186099999996
 30
0.0
 11
27.30766699999992
 21
44.61724599999999
 31
0.0
  0
LINE
  5
B96
  8
DETAIL
  6
CONTINUOUS
 62
     5
 10
6.826897000000031
 20
78.75186099999996
 30
0.0
 11
6.826897000000031
 21
44.61724599999999
 31
0.0
  0
LINE
  5
B97
  8
DETAIL
  6
CONTINUOUS
 62
     5
 10
34.13459
 20
78.75186099999996
 30
0.0
 11
34.13459
 21
44.61724599999999
 31
0.0
  0
LINE
  5
B98
  8
DETAIL
  6
CONTINUOUS
 62
     5
 10
54.61535900000001
 20
78.75186099999996
 30
0.0
 11
54.61535900000001
 21
44.61724599999999
 31
0.0
  0
ARC
  5
B99
  8
DETAIL
  6
CONTINUOUS
 62
     5
 10
44.37497500000001
 20
44.61724599999999
 30
0.0
 40
10.240385
 50
180.0
 51
0.0
  0
ARC
  5
B9A
  8
DETAIL
  6
CONTINUOUS
 62
     5
 10
44.37497500000001
 20
78.75186099999996
 30
0.0
 40
10.240385
 50
0.0
 51
180.0
  0
LINE
  5
B9B
  8
DETAIL
  6
CONTINUOUS
 62
     5
 10
54.61535900000001
 20
78.75186099999996
 30
0.0
 11
54.61535900000001
 21
44.61724599999999
 31
0.0
  0
LINE
  5
B9C
  8
DETAIL
  6
CONTINUOUS
 62
     5
 10
54.61535900000001
 20
18.674938
 30
0.0
 11
54.61535900000001
 21
-15.459678
 31
0.0
  0
ARC
  5
B9D
  8
DETAIL
  6
CONTINUOUS
 62
     5
 10
44.37497500000001
 20
18.674938
 30
0.0
 40
10.240385
 50
0.0
 51
180.0
  0
ARC
  5
B9E
  8
DETAIL
  6
CONTINUOUS
 62
     5
 10
44.37497500000001
 20
-15.459678
 30
0.0
 40
10.240385
 50
180.0
 51
0.0
  0
LINE
  5
B9F
  8
DETAIL
  6
CONTINUOUS
 62
     5
 10
54.61535900000001
 20
18.674938
 30
0.0
 11
54.61535900000001
 21
-15.459678
 31
0.0
  0
LINE
  5
BA0
  8
DETAIL
  6
CONTINUOUS
 62
     5
 10
34.13459
 20
18.674938
 30
0.0
 11
34.13459
 21
-15.459678
 31
0.0
  0
LINE
  5
BA1
  8
DETAIL
  6
CONTINUOUS
 62
     5
 10
54.61535900000001
 20
-41.401986
 30
0.0
 11
54.61535900000001
 21
-75.536602
 31
0.0
  0
ARC
  5
BA2
  8
DETAIL
  6
CONTINUOUS
 62
     5
 10
44.37497500000001
 20
-41.401986
 30
0.0
 40
10.240385
 50
0.0
 51
180.0
  0
ARC
  5
BA3
  8
DETAIL
  6
CONTINUOUS
 62
     5
 10
44.37497500000001
 20
-75.536602
 30
0.0
 40
10.240385
 50
180.0
 51
0.0
  0
LINE
  5
BA4
  8
DETAIL
  6
CONTINUOUS
 62
     5
 10
54.61535900000001
 20
-41.401986
 30
0.0
 11
54.61535900000001
 21
-75.536602
 31
0.0
  0
LINE
  5
BA5
  8
DETAIL
  6
CONTINUOUS
 62
     5
 10
34.13459
 20
-41.401986
 30
0.0
 11
34.13459
 21
-75.536602
 31
0.0
  0
LINE
  5
BA6
  8
DETAIL
  6
CONTINUOUS
 62
     5
 10
-20.480796
 20
-41.401986
 30
0.0
 11
-20.480796
 21
-75.536602
 31
0.0
  0
LINE
  5
BA7
  8
DETAIL
  6
CONTINUOUS
 62
     5
 10
-0.0000260000001049
 20
-41.401986
 30
0.0
 11
-0.0000260000001049
 21
-75.536602
 31
0.0
  0
ARC
  5
BA8
  8
DETAIL
  6
CONTINUOUS
 62
     5
 10
-10.24041099999999
 20
-75.536602
 30
0.0
 40
10.240385
 50
180.0
 51
0.0
  0
ARC
  5
BA9
  8
DETAIL
  6
CONTINUOUS
 62
     5
 10
-10.24041099999999
 20
-41.401986
 30
0.0
 40
10.240385
 50
0.0
 51
180.0
  0
LINE
  5
BAA
  8
DETAIL
  6
CONTINUOUS
 62
     5
 10
-0.0000260000001049
 20
-41.401986
 30
0.0
 11
-0.0000260000001049
 21
-75.536602
 31
0.0
  0
LINE
  5
BAB
  8
DETAIL
  6
CONTINUOUS
 62
     5
 10
-20.480796
 20
18.674938
 30
0.0
 11
-20.480796
 21
-15.459678
 31
0.0
  0
LINE
  5
BAC
  8
DETAIL
  6
CONTINUOUS
 62
     5
 10
-0.0000260000001049
 20
18.674938
 30
0.0
 11
-0.0000260000001049
 21
-15.459678
 31
0.0
  0
ARC
  5
BAD
  8
DETAIL
  6
CONTINUOUS
 62
     5
 10
-10.24041099999999
 20
-15.459678
 30
0.0
 40
10.240385
 50
180.0
 51
0.0
  0
ARC
  5
BAE
  8
DETAIL
  6
CONTINUOUS
 62
     5
 10
-10.24041099999999
 20
18.674938
 30
0.0
 40
10.240385
 50
0.0
 51
180.0
  0
LINE
  5
BAF
  8
DETAIL
  6
CONTINUOUS
 62
     5
 10
-0.0000260000001049
 20
18.674938
 30
0.0
 11
-0.0000260000001049
 21
-15.459678
 31
0.0
  0
LINE
  5
BB0
  8
DETAIL
  6
CONTINUOUS
 62
     5
 10
-0.0000260000001049
 20
78.75186099999996
 30
0.0
 11
-0.0000260000001049
 21
44.61724599999999
 31
0.0
  0
ARC
  5
BB1
  8
DETAIL
  6
CONTINUOUS
 62
     5
 10
-10.24041099999999
 20
78.75186099999996
 30
0.0
 40
10.240385
 50
0.0
 51
180.0
  0
ARC
  5
BB2
  8
DETAIL
  6
CONTINUOUS
 62
     5
 10
-10.24041099999999
 20
44.61724599999999
 30
0.0
 40
10.240385
 50
180.0
 51
0.0
  0
LINE
  5
BB3
  8
DETAIL
  6
CONTINUOUS
 62
     5
 10
-0.0000260000001049
 20
78.75186099999996
 30
0.0
 11
-0.0000260000001049
 21
44.61724599999999
 31
0.0
  0
LINE
  5
BB4
  8
DETAIL
  6
CONTINUOUS
 62
     5
 10
-20.480796
 20
78.75186099999996
 30
0.0
 11
-20.480796
 21
44.61724599999999
 31
0.0
  0
LINE
  5
BB5
  8
DETAIL
  6
CONTINUOUS
 62
     5
 10
-184.3554679999999
 20
78.75186099999996
 30
0.0
 11
-184.3554679999999
 21
44.61724599999999
 31
0.0
  0
LINE
  5
BB6
  8
DETAIL
  6
CONTINUOUS
 62
     5
 10
-163.874698
 20
78.75186099999996
 30
0.0
 11
-163.874698
 21
44.61724599999999
 31
0.0
  0
ARC
  5
BB7
  8
DETAIL
  6
CONTINUOUS
 62
     5
 10
-174.1150830000001
 20
44.61724599999999
 30
0.0
 40
10.240385
 50
180.0
 51
0.0
  0
ARC
  5
BB8
  8
DETAIL
  6
CONTINUOUS
 62
     5
 10
-174.1150830000001
 20
78.75186099999996
 30
0.0
 40
10.240385
 50
0.0
 51
180.0
  0
LINE
  5
BB9
  8
DETAIL
  6
CONTINUOUS
 62
     5
 10
-163.874698
 20
78.75186099999996
 30
0.0
 11
-163.874698
 21
44.61724599999999
 31
0.0
  0
LINE
  5
BBA
  8
DETAIL
  6
CONTINUOUS
 62
     5
 10
-163.874698
 20
18.674938
 30
0.0
 11
-163.874698
 21
-15.459678
 31
0.0
  0
ARC
  5
BBB
  8
DETAIL
  6
CONTINUOUS
 62
     5
 10
-174.1150830000001
 20
18.674938
 30
0.0
 40
10.240385
 50
0.0
 51
180.0
  0
ARC
  5
BBC
  8
DETAIL
  6
CONTINUOUS
 62
     5
 10
-174.1150830000001
 20
-15.459678
 30
0.0
 40
10.240385
 50
180.0
 51
0.0
  0
LINE
  5
BBD
  8
DETAIL
  6
CONTINUOUS
 62
     5
 10
-163.874698
 20
18.674938
 30
0.0
 11
-163.874698
 21
-15.459678
 31
0.0
  0
LINE
  5
BBE
  8
DETAIL
  6
CONTINUOUS
 62
     5
 10
-184.3554679999999
 20
18.674938
 30
0.0
 11
-184.3554679999999
 21
-15.459678
 31
0.0
  0
LINE
  5
BBF
  8
DETAIL
  6
CONTINUOUS
 62
     5
 10
-163.874698
 20
-41.401986
 30
0.0
 11
-163.874698
 21
-75.536602
 31
0.0
  0
ARC
  5
BC0
  8
DETAIL
  6
CONTINUOUS
 62
     5
 10
-174.1150830000001
 20
-41.401986
 30
0.0
 40
10.240385
 50
0.0
 51
180.0
  0
ARC
  5
BC1
  8
DETAIL
  6
CONTINUOUS
 62
     5
 10
-174.1150830000001
 20
-75.536602
 30
0.0
 40
10.240385
 50
180.0
 51
0.0
  0
LINE
  5
BC2
  8
DETAIL
  6
CONTINUOUS
 62
     5
 10
-163.874698
 20
-41.401986
 30
0.0
 11
-163.874698
 21
-75.536602
 31
0.0
  0
LINE
  5
BC3
  8
DETAIL
  6
CONTINUOUS
 62
     5
 10
-184.3554679999999
 20
-41.401986
 30
0.0
 11
-184.3554679999999
 21
-75.536602
 31
0.0
  0
LINE
  5
BC4
  8
DETAIL
  6
CONTINUOUS
 62
     5
 10
-129.7400820000001
 20
-41.401986
 30
0.0
 11
-129.7400820000001
 21
-75.536602
 31
0.0
  0
LINE
  5
BC5
  8
DETAIL
  6
CONTINUOUS
 62
     5
 10
-109.2593129999999
 20
-41.401986
 30
0.0
 11
-109.2593129999999
 21
-75.536602
 31
0.0
  0
ARC
  5
BC6
  8
DETAIL
  6
CONTINUOUS
 62
     5
 10
-119.4996969999999
 20
-75.536602
 30
0.0
 40
10.240385
 50
180.0
 51
0.0
  0
ARC
  5
BC7
  8
DETAIL
  6
CONTINUOUS
 62
     5
 10
-119.4996969999999
 20
-41.401986
 30
0.0
 40
10.240385
 50
0.0
 51
180.0
  0
LINE
  5
BC8
  8
DETAIL
  6
CONTINUOUS
 62
     5
 10
-109.2593129999999
 20
-41.401986
 30
0.0
 11
-109.2593129999999
 21
-75.536602
 31
0.0
  0
LINE
  5
BC9
  8
DETAIL
  6
CONTINUOUS
 62
     5
 10
-129.7400820000001
 20
18.674938
 30
0.0
 11
-129.7400820000001
 21
-15.459678
 31
0.0
  0
LINE
  5
BCA
  8
DETAIL
  6
CONTINUOUS
 62
     5
 10
-109.2593129999999
 20
18.674938
 30
0.0
 11
-109.2593129999999
 21
-15.459678
 31
0.0
  0
ARC
  5
BCB
  8
DETAIL
  6
CONTINUOUS
 62
     5
 10
-119.4996969999999
 20
-15.459678
 30
0.0
 40
10.240385
 50
180.0
 51
0.0
  0
ARC
  5
BCC
  8
DETAIL
  6
CONTINUOUS
 62
     5
 10
-119.4996969999999
 20
18.674938
 30
0.0
 40
10.240385
 50
0.0
 51
180.0
  0
LINE
  5
BCD
  8
DETAIL
  6
CONTINUOUS
 62
     5
 10
-109.2593129999999
 20
18.674938
 30
0.0
 11
-109.2593129999999
 21
-15.459678
 31
0.0
  0
LINE
  5
BCE
  8
DETAIL
  6
CONTINUOUS
 62
     5
 10
-109.2593129999999
 20
78.75186099999996
 30
0.0
 11
-109.2593129999999
 21
44.61724599999999
 31
0.0
  0
ARC
  5
BCF
  8
DETAIL
  6
CONTINUOUS
 62
     5
 10
-119.4996969999999
 20
78.75186099999996
 30
0.0
 40
10.240385
 50
0.0
 51
180.0
  0
ARC
  5
BD0
  8
DETAIL
  6
CONTINUOUS
 62
     5
 10
-119.4996969999999
 20
44.61724599999999
 30
0.0
 40
10.240385
 50
180.0
 51
0.0
  0
LINE
  5
BD1
  8
DETAIL
  6
CONTINUOUS
 62
     5
 10
-109.2593129999999
 20
78.75186099999996
 30
0.0
 11
-109.2593129999999
 21
44.61724599999999
 31
0.0
  0
LINE
  5
BD2
  8
DETAIL
  6
CONTINUOUS
 62
     5
 10
-129.7400820000001
 20
78.75186099999996
 30
0.0
 11
-129.7400820000001
 21
44.61724599999999
 31
0.0
  0
LINE
  5
BD3
  8
DETAIL
  6
CONTINUOUS
 62
     5
 10
-157.0477750000001
 20
78.75186099999996
 30
0.0
 11
-157.0477750000001
 21
44.61724599999999
 31
0.0
  0
LINE
  5
BD4
  8
DETAIL
  6
CONTINUOUS
 62
     5
 10
-136.5670049999999
 20
78.75186099999996
 30
0.0
 11
-136.5670049999999
 21
44.61724599999999
 31
0.0
  0
ARC
  5
BD5
  8
DETAIL
  6
CONTINUOUS
 62
     5
 10
-146.8073899999999
 20
44.61724599999999
 30
0.0
 40
10.240385
 50
180.0
 51
0.0
  0
ARC
  5
BD6
  8
DETAIL
  6
CONTINUOUS
 62
     5
 10
-146.8073899999999
 20
78.75186099999996
 30
0.0
 40
10.240385
 50
0.0
 51
180.0
  0
LINE
  5
BD7
  8
DETAIL
  6
CONTINUOUS
 62
     5
 10
-136.5670049999999
 20
78.75186099999996
 30
0.0
 11
-136.5670049999999
 21
44.61724599999999
 31
0.0
  0
LINE
  5
BD8
  8
DETAIL
  6
CONTINUOUS
 62
     5
 10
-136.5670049999999
 20
18.674938
 30
0.0
 11
-136.5670049999999
 21
-15.459678
 31
0.0
  0
ARC
  5
BD9
  8
DETAIL
  6
CONTINUOUS
 62
     5
 10
-146.8073899999999
 20
18.674938
 30
0.0
 40
10.240385
 50
0.0
 51
180.0
  0
ARC
  5
BDA
  8
DETAIL
  6
CONTINUOUS
 62
     5
 10
-146.8073899999999
 20
-15.459678
 30
0.0
 40
10.240385
 50
180.0
 51
0.0
  0
LINE
  5
BDB
  8
DETAIL
  6
CONTINUOUS
 62
     5
 10
-136.5670049999999
 20
18.674938
 30
0.0
 11
-136.5670049999999
 21
-15.459678
 31
0.0
  0
LINE
  5
BDC
  8
DETAIL
  6
CONTINUOUS
 62
     5
 10
-157.0477750000001
 20
18.674938
 30
0.0
 11
-157.0477750000001
 21
-15.459678
 31
0.0
  0
LINE
  5
BDD
  8
DETAIL
  6
CONTINUOUS
 62
     5
 10
-136.5670049999999
 20
-41.401986
 30
0.0
 11
-136.5670049999999
 21
-75.536602
 31
0.0
  0
ARC
  5
BDE
  8
DETAIL
  6
CONTINUOUS
 62
     5
 10
-146.8073899999999
 20
-41.401986
 30
0.0
 40
10.240385
 50
0.0
 51
180.0
  0
ARC
  5
BDF
  8
DETAIL
  6
CONTINUOUS
 62
     5
 10
-146.8073899999999
 20
-75.536602
 30
0.0
 40
10.240385
 50
180.0
 51
0.0
  0
LINE
  5
BE0
  8
DETAIL
  6
CONTINUOUS
 62
     5
 10
-136.5670049999999
 20
-41.401986
 30
0.0
 11
-136.5670049999999
 21
-75.536602
 31
0.0
  0
LINE
  5
BE1
  8
DETAIL
  6
CONTINUOUS
 62
     5
 10
-157.0477750000001
 20
-41.401986
 30
0.0
 11
-157.0477750000001
 21
-75.536602
 31
0.0
  0
LINE
  5
BE2
  8
DETAIL
  6
CONTINUOUS
 62
     5
 10
-238.9708530000001
 20
-41.401986
 30
0.0
 11
-238.9708530000001
 21
-75.536602
 31
0.0
  0
LINE
  5
BE3
  8
DETAIL
  6
CONTINUOUS
 62
     5
 10
-218.4900840000001
 20
-41.401986
 30
0.0
 11
-218.4900840000001
 21
-75.536602
 31
0.0
  0
ARC
  5
BE4
  8
DETAIL
  6
CONTINUOUS
 62
     5
 10
-228.730468
 20
-75.536602
 30
0.0
 40
10.240385
 50
180.0
 51
0.0
  0
ARC
  5
BE5
  8
DETAIL
  6
CONTINUOUS
 62
     5
 10
-228.730468
 20
-41.401986
 30
0.0
 40
10.240385
 50
0.0
 51
180.0
  0
LINE
  5
BE6
  8
DETAIL
  6
CONTINUOUS
 62
     5
 10
-218.4900840000001
 20
-41.401986
 30
0.0
 11
-218.4900840000001
 21
-75.536602
 31
0.0
  0
LINE
  5
BE7
  8
DETAIL
  6
CONTINUOUS
 62
     5
 10
-238.9708530000001
 20
18.674938
 30
0.0
 11
-238.9708530000001
 21
-15.459678
 31
0.0
  0
LINE
  5
BE8
  8
DETAIL
  6
CONTINUOUS
 62
     5
 10
-218.4900840000001
 20
18.674938
 30
0.0
 11
-218.4900840000001
 21
-15.459678
 31
0.0
  0
ARC
  5
BE9
  8
DETAIL
  6
CONTINUOUS
 62
     5
 10
-228.730468
 20
-15.459678
 30
0.0
 40
10.240385
 50
180.0
 51
0.0
  0
ARC
  5
BEA
  8
DETAIL
  6
CONTINUOUS
 62
     5
 10
-228.730468
 20
18.674938
 30
0.0
 40
10.240385
 50
0.0
 51
180.0
  0
LINE
  5
BEB
  8
DETAIL
  6
CONTINUOUS
 62
     5
 10
-218.4900840000001
 20
18.674938
 30
0.0
 11
-218.4900840000001
 21
-15.459678
 31
0.0
  0
LINE
  5
BEC
  8
DETAIL
  6
CONTINUOUS
 62
     5
 10
-218.4900840000001
 20
78.75186099999996
 30
0.0
 11
-218.4900840000001
 21
44.61724599999999
 31
0.0
  0
ARC
  5
BED
  8
DETAIL
  6
CONTINUOUS
 62
     5
 10
-228.730468
 20
78.75186099999996
 30
0.0
 40
10.240385
 50
0.0
 51
180.0
  0
ARC
  5
BEE
  8
DETAIL
  6
CONTINUOUS
 62
     5
 10
-228.730468
 20
44.61724599999999
 30
0.0
 40
10.240385
 50
180.0
 51
0.0
  0
LINE
  5
BEF
  8
DETAIL
  6
CONTINUOUS
 62
     5
 10
-218.4900840000001
 20
78.75186099999996
 30
0.0
 11
-218.4900840000001
 21
44.61724599999999
 31
0.0
  0
LINE
  5
BF0
  8
DETAIL
  6
CONTINUOUS
 62
     5
 10
-238.9708530000001
 20
78.75186099999996
 30
0.0
 11
-238.9708530000001
 21
44.61724599999999
 31
0.0
  0
LINE
  5
BF1
  8
DETAIL
  6
CONTINUOUS
 62
     5
 10
-211.6631600000001
 20
78.75186099999996
 30
0.0
 11
-211.6631600000001
 21
44.61724599999999
 31
0.0
  0
LINE
  5
BF2
  8
DETAIL
  6
CONTINUOUS
 62
     5
 10
-191.1823910000001
 20
78.75186099999996
 30
0.0
 11
-191.1823910000001
 21
44.61724599999999
 31
0.0
  0
ARC
  5
BF3
  8
DETAIL
  6
CONTINUOUS
 62
     5
 10
-201.422776
 20
44.61724599999999
 30
0.0
 40
10.240385
 50
180.0
 51
0.0
  0
ARC
  5
BF4
  8
DETAIL
  6
CONTINUOUS
 62
     5
 10
-201.422776
 20
78.75186099999996
 30
0.0
 40
10.240385
 50
0.0
 51
180.0
  0
LINE
  5
BF5
  8
DETAIL
  6
CONTINUOUS
 62
     5
 10
-191.1823910000001
 20
78.75186099999996
 30
0.0
 11
-191.1823910000001
 21
44.61724599999999
 31
0.0
  0
LINE
  5
BF6
  8
DETAIL
  6
CONTINUOUS
 62
     5
 10
-191.1823910000001
 20
18.674938
 30
0.0
 11
-191.1823910000001
 21
-15.459678
 31
0.0
  0
ARC
  5
BF7
  8
DETAIL
  6
CONTINUOUS
 62
     5
 10
-201.422776
 20
18.674938
 30
0.0
 40
10.240385
 50
0.0
 51
180.0
  0
ARC
  5
BF8
  8
DETAIL
  6
CONTINUOUS
 62
     5
 10
-201.422776
 20
-15.459678
 30
0.0
 40
10.240385
 50
180.0
 51
0.0
  0
LINE
  5
BF9
  8
DETAIL
  6
CONTINUOUS
 62
     5
 10
-191.1823910000001
 20
18.674938
 30
0.0
 11
-191.1823910000001
 21
-15.459678
 31
0.0
  0
LINE
  5
BFA
  8
DETAIL
  6
CONTINUOUS
 62
     5
 10
-211.6631600000001
 20
18.674938
 30
0.0
 11
-211.6631600000001
 21
-15.459678
 31
0.0
  0
LINE
  5
BFB
  8
DETAIL
  6
CONTINUOUS
 62
     5
 10
-191.1823910000001
 20
-41.401986
 30
0.0
 11
-191.1823910000001
 21
-75.536602
 31
0.0
  0
ARC
  5
BFC
  8
DETAIL
  6
CONTINUOUS
 62
     5
 10
-201.422776
 20
-41.401986
 30
0.0
 40
10.240385
 50
0.0
 51
180.0
  0
ARC
  5
BFD
  8
DETAIL
  6
CONTINUOUS
 62
     5
 10
-201.422776
 20
-75.536602
 30
0.0
 40
10.240385
 50
180.0
 51
0.0
  0
LINE
  5
BFE
  8
DETAIL
  6
CONTINUOUS
 62
     5
 10
-191.1823910000001
 20
-41.401986
 30
0.0
 11
-191.1823910000001
 21
-75.536602
 31
0.0
  0
LINE
  5
BFF
  8
DETAIL
  6
CONTINUOUS
 62
     5
 10
-211.6631600000001
 20
-41.401986
 30
0.0
 11
-211.6631600000001
 21
-75.536602
 31
0.0
  0
LINE
  5
C00
  8
DETAIL
  6
CONTINUOUS
 62
     5
 10
-266.2785459999999
 20
-41.401986
 30
0.0
 11
-266.2785459999999
 21
-75.536602
 31
0.0
  0
LINE
  5
C01
  8
DETAIL
  6
CONTINUOUS
 62
     5
 10
-245.7977759999999
 20
-41.401986
 30
0.0
 11
-245.7977759999999
 21
-75.536602
 31
0.0
  0
ARC
  5
C02
  8
DETAIL
  6
CONTINUOUS
 62
     5
 10
-256.038161
 20
-75.536602
 30
0.0
 40
10.240385
 50
180.0
 51
0.0
  0
ARC
  5
C03
  8
DETAIL
  6
CONTINUOUS
 62
     5
 10
-256.038161
 20
-41.401986
 30
0.0
 40
10.240385
 50
0.0
 51
180.0
  0
LINE
  5
C04
  8
DETAIL
  6
CONTINUOUS
 62
     5
 10
-245.7977759999999
 20
-41.401986
 30
0.0
 11
-245.7977759999999
 21
-75.536602
 31
0.0
  0
LINE
  5
C05
  8
DETAIL
  6
CONTINUOUS
 62
     5
 10
-266.2785459999999
 20
18.674938
 30
0.0
 11
-266.2785459999999
 21
-15.459678
 31
0.0
  0
LINE
  5
C06
  8
DETAIL
  6
CONTINUOUS
 62
     5
 10
-245.7977759999999
 20
18.674938
 30
0.0
 11
-245.7977759999999
 21
-15.459678
 31
0.0
  0
ARC
  5
C07
  8
DETAIL
  6
CONTINUOUS
 62
     5
 10
-256.038161
 20
-15.459678
 30
0.0
 40
10.240385
 50
180.0
 51
0.0
  0
ARC
  5
C08
  8
DETAIL
  6
CONTINUOUS
 62
     5
 10
-256.038161
 20
18.674938
 30
0.0
 40
10.240385
 50
0.0
 51
180.0
  0
LINE
  5
C09
  8
DETAIL
  6
CONTINUOUS
 62
     5
 10
-245.7977759999999
 20
18.674938
 30
0.0
 11
-245.7977759999999
 21
-15.459678
 31
0.0
  0
ARC
  5
C0A
  8
DETAIL
  6
CONTINUOUS
 62
     5
 10
-283.3458539999999
 20
-75.536602
 30
0.0
 40
10.240385
 50
180.0
 51
0.0
  0
ARC
  5
C0B
  8
DETAIL
  6
CONTINUOUS
 62
     5
 10
-283.3458539999999
 20
-41.401986
 30
0.0
 40
10.240385
 50
0.0
 51
180.0
  0
LINE
  5
C0C
  8
DETAIL
  6
CONTINUOUS
 62
     5
 10
-273.1054689999999
 20
-41.401986
 30
0.0
 11
-273.1054689999999
 21
-75.536602
 31
0.0
  0
LINE
  5
C0D
  8
DETAIL
  6
CONTINUOUS
 62
     5
 10
-273.1054689999999
 20
18.674938
 30
0.0
 11
-273.1054689999999
 21
-15.459678
 31
0.0
  0
ARC
  5
C0E
  8
DETAIL
  6
CONTINUOUS
 62
     5
 10
-283.3458539999999
 20
18.674938
 30
0.0
 40
10.240385
 50
0.0
 51
180.0
  0
ARC
  5
C0F
  8
DETAIL
  6
CONTINUOUS
 62
     5
 10
-283.3458539999999
 20
-15.459678
 30
0.0
 40
10.240385
 50
180.0
 51
0.0
  0
LINE
  5
C10
  8
DETAIL
  6
CONTINUOUS
 62
     5
 10
-245.7977759999999
 20
78.75186099999996
 30
0.0
 11
-245.7977759999999
 21
44.61724599999999
 31
0.0
  0
ARC
  5
C11
  8
DETAIL
  6
CONTINUOUS
 62
     5
 10
-256.038161
 20
78.75186099999996
 30
0.0
 40
10.240385
 50
0.0
 51
180.0
  0
ARC
  5
C12
  8
DETAIL
  6
CONTINUOUS
 62
     5
 10
-256.038161
 20
44.61724599999999
 30
0.0
 40
10.240385
 50
180.0
 51
0.0
  0
ARC
  5
C13
  8
DETAIL
  6
CONTINUOUS
 62
     5
 10
-283.3458539999999
 20
44.61724599999999
 30
0.0
 40
10.240385
 50
180.0
 51
0.0
  0
ARC
  5
C14
  8
DETAIL
  6
CONTINUOUS
 62
     5
 10
-283.3458539999999
 20
78.75186099999996
 30
0.0
 40
10.240385
 50
0.0
 51
180.0
  0
LINE
  5
C15
  8
DETAIL
  6
CONTINUOUS
 62
     5
 10
-245.7977759999999
 20
78.75186099999996
 30
0.0
 11
-245.7977759999999
 21
44.61724599999999
 31
0.0
  0
LINE
  5
C16
  8
DETAIL
  6
CONTINUOUS
 62
     5
 10
-266.2785459999999
 20
78.75186099999996
 30
0.0
 11
-266.2785459999999
 21
44.61724599999999
 31
0.0
  0
LINE
  5
C17
  8
DETAIL
  6
CONTINUOUS
 62
     5
 10
-273.1054689999999
 20
78.75186099999996
 30
0.0
 11
-273.1054689999999
 21
44.61724599999999
 31
0.0
  0
LINE
  5
C18
  8
DETAIL
  6
CONTINUOUS
 62
     5
 10
-273.1054689999999
 20
-116.4981409999999
 30
0.0
 11
-273.1054689999999
 21
-150.6327569999999
 31
0.0
  0
LINE
  5
C19
  8
DETAIL
  6
CONTINUOUS
 62
     5
 10
-266.2785459999999
 20
-116.4981409999999
 30
0.0
 11
-266.2785459999999
 21
-150.6327569999999
 31
0.0
  0
LINE
  5
C1A
  8
DETAIL
  6
CONTINUOUS
 62
     5
 10
-245.7977759999999
 20
-116.4981409999999
 30
0.0
 11
-245.7977759999999
 21
-150.6327569999999
 31
0.0
  0
ARC
  5
C1B
  8
DETAIL
  6
CONTINUOUS
 62
     5
 10
-283.3458539999999
 20
-116.4981409999999
 30
0.0
 40
10.240385
 50
0.0
 51
180.0
  0
ARC
  5
C1C
  8
DETAIL
  6
CONTINUOUS
 62
     5
 10
-283.3458539999999
 20
-150.6327569999999
 30
0.0
 40
10.240385
 50
180.0
 51
0.0
  0
ARC
  5
C1D
  8
DETAIL
  6
CONTINUOUS
 62
     5
 10
-256.038161
 20
-150.6327569999999
 30
0.0
 40
10.240385
 50
180.0
 51
0.0
  0
ARC
  5
C1E
  8
DETAIL
  6
CONTINUOUS
 62
     5
 10
-256.038161
 20
-116.4981409999999
 30
0.0
 40
10.240385
 50
0.0
 51
180.0
  0
LINE
  5
C1F
  8
DETAIL
  6
CONTINUOUS
 62
     5
 10
-245.7977759999999
 20
-116.4981409999999
 30
0.0
 11
-245.7977759999999
 21
-150.6327569999999
 31
0.0
  0
ARC
  5
C20
  8
DETAIL
  6
CONTINUOUS
 62
     5
 10
-283.3458539999999
 20
-210.7096809999998
 30
0.0
 40
10.240385
 50
180.0
 51
0.0
  0
ARC
  5
C21
  8
DETAIL
  6
CONTINUOUS
 62
     5
 10
-283.3458539999999
 20
-176.5750649999999
 30
0.0
 40
10.240385
 50
0.0
 51
180.0
  0
LINE
  5
C22
  8
DETAIL
  6
CONTINUOUS
 62
     5
 10
-273.1054689999999
 20
-176.5750649999999
 30
0.0
 11
-273.1054689999999
 21
-210.7096809999998
 31
0.0
  0
LINE
  5
C23
  8
DETAIL
  6
CONTINUOUS
 62
     5
 10
-273.1054689999999
 20
-236.6519889999998
 30
0.0
 11
-273.1054689999999
 21
-270.786605
 31
0.0
  0
ARC
  5
C24
  8
DETAIL
  6
CONTINUOUS
 62
     5
 10
-283.3458539999999
 20
-236.6519889999998
 30
0.0
 40
10.240385
 50
0.0
 51
180.0
  0
ARC
  5
C25
  8
DETAIL
  6
CONTINUOUS
 62
     5
 10
-283.3458539999999
 20
-270.786605
 30
0.0
 40
10.240385
 50
180.0
 51
0.0
  0
LINE
  5
C26
  8
DETAIL
  6
CONTINUOUS
 62
     5
 10
-245.7977759999999
 20
-176.5750649999999
 30
0.0
 11
-245.7977759999999
 21
-210.7096809999998
 31
0.0
  0
ARC
  5
C27
  8
DETAIL
  6
CONTINUOUS
 62
     5
 10
-256.038161
 20
-176.5750649999999
 30
0.0
 40
10.240385
 50
0.0
 51
180.0
  0
ARC
  5
C28
  8
DETAIL
  6
CONTINUOUS
 62
     5
 10
-256.038161
 20
-210.7096809999998
 30
0.0
 40
10.240385
 50
180.0
 51
0.0
  0
LINE
  5
C29
  8
DETAIL
  6
CONTINUOUS
 62
     5
 10
-245.7977759999999
 20
-176.5750649999999
 30
0.0
 11
-245.7977759999999
 21
-210.7096809999998
 31
0.0
  0
LINE
  5
C2A
  8
DETAIL
  6
CONTINUOUS
 62
     5
 10
-266.2785459999999
 20
-176.5750649999999
 30
0.0
 11
-266.2785459999999
 21
-210.7096809999998
 31
0.0
  0
LINE
  5
C2B
  8
DETAIL
  6
CONTINUOUS
 62
     5
 10
-245.7977759999999
 20
-236.6519889999998
 30
0.0
 11
-245.7977759999999
 21
-270.786605
 31
0.0
  0
ARC
  5
C2C
  8
DETAIL
  6
CONTINUOUS
 62
     5
 10
-256.038161
 20
-236.6519889999998
 30
0.0
 40
10.240385
 50
0.0
 51
180.0
  0
ARC
  5
C2D
  8
DETAIL
  6
CONTINUOUS
 62
     5
 10
-256.038161
 20
-270.786605
 30
0.0
 40
10.240385
 50
180.0
 51
0.0
  0
LINE
  5
C2E
  8
DETAIL
  6
CONTINUOUS
 62
     5
 10
-245.7977759999999
 20
-236.6519889999998
 30
0.0
 11
-245.7977759999999
 21
-270.786605
 31
0.0
  0
LINE
  5
C2F
  8
DETAIL
  6
CONTINUOUS
 62
     5
 10
-266.2785459999999
 20
-236.6519889999998
 30
0.0
 11
-266.2785459999999
 21
-270.786605
 31
0.0
  0
LINE
  5
C30
  8
DETAIL
  6
CONTINUOUS
 62
     5
 10
-211.6631600000001
 20
-236.6519889999998
 30
0.0
 11
-211.6631600000001
 21
-270.786605
 31
0.0
  0
LINE
  5
C31
  8
DETAIL
  6
CONTINUOUS
 62
     5
 10
-191.1823910000001
 20
-236.6519889999998
 30
0.0
 11
-191.1823910000001
 21
-270.786605
 31
0.0
  0
ARC
  5
C32
  8
DETAIL
  6
CONTINUOUS
 62
     5
 10
-201.422776
 20
-270.786605
 30
0.0
 40
10.240385
 50
180.0
 51
0.0
  0
ARC
  5
C33
  8
DETAIL
  6
CONTINUOUS
 62
     5
 10
-201.422776
 20
-236.6519889999998
 30
0.0
 40
10.240385
 50
0.0
 51
180.0
  0
LINE
  5
C34
  8
DETAIL
  6
CONTINUOUS
 62
     5
 10
-191.1823910000001
 20
-236.6519889999998
 30
0.0
 11
-191.1823910000001
 21
-270.786605
 31
0.0
  0
LINE
  5
C35
  8
DETAIL
  6
CONTINUOUS
 62
     5
 10
-211.6631600000001
 20
-176.5750649999999
 30
0.0
 11
-211.6631600000001
 21
-210.7096809999998
 31
0.0
  0
LINE
  5
C36
  8
DETAIL
  6
CONTINUOUS
 62
     5
 10
-191.1823910000001
 20
-176.5750649999999
 30
0.0
 11
-191.1823910000001
 21
-210.7096809999998
 31
0.0
  0
ARC
  5
C37
  8
DETAIL
  6
CONTINUOUS
 62
     5
 10
-201.422776
 20
-210.7096809999998
 30
0.0
 40
10.240385
 50
180.0
 51
0.0
  0
ARC
  5
C38
  8
DETAIL
  6
CONTINUOUS
 62
     5
 10
-201.422776
 20
-176.5750649999999
 30
0.0
 40
10.240385
 50
0.0
 51
180.0
  0
LINE
  5
C39
  8
DETAIL
  6
CONTINUOUS
 62
     5
 10
-191.1823910000001
 20
-176.5750649999999
 30
0.0
 11
-191.1823910000001
 21
-210.7096809999998
 31
0.0
  0
LINE
  5
C3A
  8
DETAIL
  6
CONTINUOUS
 62
     5
 10
-191.1823910000001
 20
-116.4981409999999
 30
0.0
 11
-191.1823910000001
 21
-150.6327569999999
 31
0.0
  0
ARC
  5
C3B
  8
DETAIL
  6
CONTINUOUS
 62
     5
 10
-201.422776
 20
-116.4981409999999
 30
0.0
 40
10.240385
 50
0.0
 51
180.0
  0
ARC
  5
C3C
  8
DETAIL
  6
CONTINUOUS
 62
     5
 10
-201.422776
 20
-150.6327569999999
 30
0.0
 40
10.240385
 50
180.0
 51
0.0
  0
LINE
  5
C3D
  8
DETAIL
  6
CONTINUOUS
 62
     5
 10
-191.1823910000001
 20
-116.4981409999999
 30
0.0
 11
-191.1823910000001
 21
-150.6327569999999
 31
0.0
  0
LINE
  5
C3E
  8
DETAIL
  6
CONTINUOUS
 62
     5
 10
-211.6631600000001
 20
-116.4981409999999
 30
0.0
 11
-211.6631600000001
 21
-150.6327569999999
 31
0.0
  0
LINE
  5
C3F
  8
DETAIL
  6
CONTINUOUS
 62
     5
 10
-238.9708530000001
 20
-116.4981409999999
 30
0.0
 11
-238.9708530000001
 21
-150.6327569999999
 31
0.0
  0
LINE
  5
C40
  8
DETAIL
  6
CONTINUOUS
 62
     5
 10
-218.4900840000001
 20
-116.4981409999999
 30
0.0
 11
-218.4900840000001
 21
-150.6327569999999
 31
0.0
  0
ARC
  5
C41
  8
DETAIL
  6
CONTINUOUS
 62
     5
 10
-228.730468
 20
-150.6327569999999
 30
0.0
 40
10.240385
 50
180.0
 51
0.0
  0
ARC
  5
C42
  8
DETAIL
  6
CONTINUOUS
 62
     5
 10
-228.730468
 20
-116.4981409999999
 30
0.0
 40
10.240385
 50
0.0
 51
180.0
  0
LINE
  5
C43
  8
DETAIL
  6
CONTINUOUS
 62
     5
 10
-218.4900840000001
 20
-116.4981409999999
 30
0.0
 11
-218.4900840000001
 21
-150.6327569999999
 31
0.0
  0
LINE
  5
C44
  8
DETAIL
  6
CONTINUOUS
 62
     5
 10
-218.4900840000001
 20
-176.5750649999999
 30
0.0
 11
-218.4900840000001
 21
-210.7096809999998
 31
0.0
  0
ARC
  5
C45
  8
DETAIL
  6
CONTINUOUS
 62
     5
 10
-228.730468
 20
-176.5750649999999
 30
0.0
 40
10.240385
 50
0.0
 51
180.0
  0
ARC
  5
C46
  8
DETAIL
  6
CONTINUOUS
 62
     5
 10
-228.730468
 20
-210.7096809999998
 30
0.0
 40
10.240385
 50
180.0
 51
0.0
  0
LINE
  5
C47
  8
DETAIL
  6
CONTINUOUS
 62
     5
 10
-218.4900840000001
 20
-176.5750649999999
 30
0.0
 11
-218.4900840000001
 21
-210.7096809999998
 31
0.0
  0
LINE
  5
C48
  8
DETAIL
  6
CONTINUOUS
 62
     5
 10
-238.9708530000001
 20
-176.5750649999999
 30
0.0
 11
-238.9708530000001
 21
-210.7096809999998
 31
0.0
  0
LINE
  5
C49
  8
DETAIL
  6
CONTINUOUS
 62
     5
 10
-218.4900840000001
 20
-236.6519889999998
 30
0.0
 11
-218.4900840000001
 21
-270.786605
 31
0.0
  0
ARC
  5
C4A
  8
DETAIL
  6
CONTINUOUS
 62
     5
 10
-228.730468
 20
-236.6519889999998
 30
0.0
 40
10.240385
 50
0.0
 51
180.0
  0
ARC
  5
C4B
  8
DETAIL
  6
CONTINUOUS
 62
     5
 10
-228.730468
 20
-270.786605
 30
0.0
 40
10.240385
 50
180.0
 51
0.0
  0
LINE
  5
C4C
  8
DETAIL
  6
CONTINUOUS
 62
     5
 10
-218.4900840000001
 20
-236.6519889999998
 30
0.0
 11
-218.4900840000001
 21
-270.786605
 31
0.0
  0
LINE
  5
C4D
  8
DETAIL
  6
CONTINUOUS
 62
     5
 10
-238.9708530000001
 20
-236.6519889999998
 30
0.0
 11
-238.9708530000001
 21
-270.786605
 31
0.0
  0
LINE
  5
C4E
  8
DETAIL
  6
CONTINUOUS
 62
     5
 10
-157.0477750000001
 20
-236.6519889999998
 30
0.0
 11
-157.0477750000001
 21
-270.786605
 31
0.0
  0
LINE
  5
C4F
  8
DETAIL
  6
CONTINUOUS
 62
     5
 10
-136.5670049999999
 20
-236.6519889999998
 30
0.0
 11
-136.5670049999999
 21
-270.786605
 31
0.0
  0
ARC
  5
C50
  8
DETAIL
  6
CONTINUOUS
 62
     5
 10
-146.8073899999999
 20
-270.786605
 30
0.0
 40
10.240385
 50
180.0
 51
0.0
  0
ARC
  5
C51
  8
DETAIL
  6
CONTINUOUS
 62
     5
 10
-146.8073899999999
 20
-236.6519889999998
 30
0.0
 40
10.240385
 50
0.0
 51
180.0
  0
LINE
  5
C52
  8
DETAIL
  6
CONTINUOUS
 62
     5
 10
-136.5670049999999
 20
-236.6519889999998
 30
0.0
 11
-136.5670049999999
 21
-270.786605
 31
0.0
  0
LINE
  5
C53
  8
DETAIL
  6
CONTINUOUS
 62
     5
 10
-157.0477750000001
 20
-176.5750649999999
 30
0.0
 11
-157.0477750000001
 21
-210.7096809999998
 31
0.0
  0
LINE
  5
C54
  8
DETAIL
  6
CONTINUOUS
 62
     5
 10
-136.5670049999999
 20
-176.5750649999999
 30
0.0
 11
-136.5670049999999
 21
-210.7096809999998
 31
0.0
  0
ARC
  5
C55
  8
DETAIL
  6
CONTINUOUS
 62
     5
 10
-146.8073899999999
 20
-210.7096809999998
 30
0.0
 40
10.240385
 50
180.0
 51
0.0
  0
ARC
  5
C56
  8
DETAIL
  6
CONTINUOUS
 62
     5
 10
-146.8073899999999
 20
-176.5750649999999
 30
0.0
 40
10.240385
 50
0.0
 51
180.0
  0
LINE
  5
C57
  8
DETAIL
  6
CONTINUOUS
 62
     5
 10
-136.5670049999999
 20
-176.5750649999999
 30
0.0
 11
-136.5670049999999
 21
-210.7096809999998
 31
0.0
  0
LINE
  5
C58
  8
DETAIL
  6
CONTINUOUS
 62
     5
 10
-136.5670049999999
 20
-116.4981409999999
 30
0.0
 11
-136.5670049999999
 21
-150.6327569999999
 31
0.0
  0
ARC
  5
C59
  8
DETAIL
  6
CONTINUOUS
 62
     5
 10
-146.8073899999999
 20
-116.4981409999999
 30
0.0
 40
10.240385
 50
0.0
 51
180.0
  0
ARC
  5
C5A
  8
DETAIL
  6
CONTINUOUS
 62
     5
 10
-146.8073899999999
 20
-150.6327569999999
 30
0.0
 40
10.240385
 50
180.0
 51
0.0
  0
LINE
  5
C5B
  8
DETAIL
  6
CONTINUOUS
 62
     5
 10
-136.5670049999999
 20
-116.4981409999999
 30
0.0
 11
-136.5670049999999
 21
-150.6327569999999
 31
0.0
  0
LINE
  5
C5C
  8
DETAIL
  6
CONTINUOUS
 62
     5
 10
-157.0477750000001
 20
-116.4981409999999
 30
0.0
 11
-157.0477750000001
 21
-150.6327569999999
 31
0.0
  0
LINE
  5
C5D
  8
DETAIL
  6
CONTINUOUS
 62
     5
 10
-129.7400820000001
 20
-116.4981409999999
 30
0.0
 11
-129.7400820000001
 21
-150.6327569999999
 31
0.0
  0
LINE
  5
C5E
  8
DETAIL
  6
CONTINUOUS
 62
     5
 10
-109.2593129999999
 20
-116.4981409999999
 30
0.0
 11
-109.2593129999999
 21
-150.6327569999999
 31
0.0
  0
ARC
  5
C5F
  8
DETAIL
  6
CONTINUOUS
 62
     5
 10
-119.4996969999999
 20
-150.6327569999999
 30
0.0
 40
10.240385
 50
180.0
 51
0.0
  0
ARC
  5
C60
  8
DETAIL
  6
CONTINUOUS
 62
     5
 10
-119.4996969999999
 20
-116.4981409999999
 30
0.0
 40
10.240385
 50
0.0
 51
180.0
  0
LINE
  5
C61
  8
DETAIL
  6
CONTINUOUS
 62
     5
 10
-109.2593129999999
 20
-116.4981409999999
 30
0.0
 11
-109.2593129999999
 21
-150.6327569999999
 31
0.0
  0
LINE
  5
C62
  8
DETAIL
  6
CONTINUOUS
 62
     5
 10
-109.2593129999999
 20
-176.5750649999999
 30
0.0
 11
-109.2593129999999
 21
-210.7096809999998
 31
0.0
  0
ARC
  5
C63
  8
DETAIL
  6
CONTINUOUS
 62
     5
 10
-119.4996969999999
 20
-176.5750649999999
 30
0.0
 40
10.240385
 50
0.0
 51
180.0
  0
ARC
  5
C64
  8
DETAIL
  6
CONTINUOUS
 62
     5
 10
-119.4996969999999
 20
-210.7096809999998
 30
0.0
 40
10.240385
 50
180.0
 51
0.0
  0
LINE
  5
C65
  8
DETAIL
  6
CONTINUOUS
 62
     5
 10
-109.2593129999999
 20
-176.5750649999999
 30
0.0
 11
-109.2593129999999
 21
-210.7096809999998
 31
0.0
  0
LINE
  5
C66
  8
DETAIL
  6
CONTINUOUS
 62
     5
 10
-129.7400820000001
 20
-176.5750649999999
 30
0.0
 11
-129.7400820000001
 21
-210.7096809999998
 31
0.0
  0
LINE
  5
C67
  8
DETAIL
  6
CONTINUOUS
 62
     5
 10
-109.2593129999999
 20
-236.6519889999998
 30
0.0
 11
-109.2593129999999
 21
-270.786605
 31
0.0
  0
ARC
  5
C68
  8
DETAIL
  6
CONTINUOUS
 62
     5
 10
-119.4996969999999
 20
-236.6519889999998
 30
0.0
 40
10.240385
 50
0.0
 51
180.0
  0
ARC
  5
C69
  8
DETAIL
  6
CONTINUOUS
 62
     5
 10
-119.4996969999999
 20
-270.786605
 30
0.0
 40
10.240385
 50
180.0
 51
0.0
  0
LINE
  5
C6A
  8
DETAIL
  6
CONTINUOUS
 62
     5
 10
-109.2593129999999
 20
-236.6519889999998
 30
0.0
 11
-109.2593129999999
 21
-270.786605
 31
0.0
  0
LINE
  5
C6B
  8
DETAIL
  6
CONTINUOUS
 62
     5
 10
-129.7400820000001
 20
-236.6519889999998
 30
0.0
 11
-129.7400820000001
 21
-270.786605
 31
0.0
  0
LINE
  5
C6C
  8
DETAIL
  6
CONTINUOUS
 62
     5
 10
-184.3554679999999
 20
-236.6519889999998
 30
0.0
 11
-184.3554679999999
 21
-270.786605
 31
0.0
  0
LINE
  5
C6D
  8
DETAIL
  6
CONTINUOUS
 62
     5
 10
-163.874698
 20
-236.6519889999998
 30
0.0
 11
-163.874698
 21
-270.786605
 31
0.0
  0
ARC
  5
C6E
  8
DETAIL
  6
CONTINUOUS
 62
     5
 10
-174.1150830000001
 20
-270.786605
 30
0.0
 40
10.240385
 50
180.0
 51
0.0
  0
ARC
  5
C6F
  8
DETAIL
  6
CONTINUOUS
 62
     5
 10
-174.1150830000001
 20
-236.6519889999998
 30
0.0
 40
10.240385
 50
0.0
 51
180.0
  0
LINE
  5
C70
  8
DETAIL
  6
CONTINUOUS
 62
     5
 10
-163.874698
 20
-236.6519889999998
 30
0.0
 11
-163.874698
 21
-270.786605
 31
0.0
  0
LINE
  5
C71
  8
DETAIL
  6
CONTINUOUS
 62
     5
 10
-184.3554679999999
 20
-176.5750649999999
 30
0.0
 11
-184.3554679999999
 21
-210.7096809999998
 31
0.0
  0
LINE
  5
C72
  8
DETAIL
  6
CONTINUOUS
 62
     5
 10
-163.874698
 20
-176.5750649999999
 30
0.0
 11
-163.874698
 21
-210.7096809999998
 31
0.0
  0
ARC
  5
C73
  8
DETAIL
  6
CONTINUOUS
 62
     5
 10
-174.1150830000001
 20
-210.7096809999998
 30
0.0
 40
10.240385
 50
180.0
 51
0.0
  0
ARC
  5
C74
  8
DETAIL
  6
CONTINUOUS
 62
     5
 10
-174.1150830000001
 20
-176.5750649999999
 30
0.0
 40
10.240385
 50
0.0
 51
180.0
  0
LINE
  5
C75
  8
DETAIL
  6
CONTINUOUS
 62
     5
 10
-163.874698
 20
-176.5750649999999
 30
0.0
 11
-163.874698
 21
-210.7096809999998
 31
0.0
  0
LINE
  5
C76
  8
DETAIL
  6
CONTINUOUS
 62
     5
 10
-163.874698
 20
-116.4981409999999
 30
0.0
 11
-163.874698
 21
-150.6327569999999
 31
0.0
  0
ARC
  5
C77
  8
DETAIL
  6
CONTINUOUS
 62
     5
 10
-174.1150830000001
 20
-116.4981409999999
 30
0.0
 40
10.240385
 50
0.0
 51
180.0
  0
ARC
  5
C78
  8
DETAIL
  6
CONTINUOUS
 62
     5
 10
-174.1150830000001
 20
-150.6327569999999
 30
0.0
 40
10.240385
 50
180.0
 51
0.0
  0
LINE
  5
C79
  8
DETAIL
  6
CONTINUOUS
 62
     5
 10
-163.874698
 20
-116.4981409999999
 30
0.0
 11
-163.874698
 21
-150.6327569999999
 31
0.0
  0
LINE
  5
C7A
  8
DETAIL
  6
CONTINUOUS
 62
     5
 10
-184.3554679999999
 20
-116.4981409999999
 30
0.0
 11
-184.3554679999999
 21
-150.6327569999999
 31
0.0
  0
LINE
  5
C7B
  8
DETAIL
  6
CONTINUOUS
 62
     5
 10
-20.480796
 20
-116.4981409999999
 30
0.0
 11
-20.480796
 21
-150.6327569999999
 31
0.0
  0
LINE
  5
C7C
  8
DETAIL
  6
CONTINUOUS
 62
     5
 10
-0.0000260000001049
 20
-116.4981409999999
 30
0.0
 11
-0.0000260000001049
 21
-150.6327569999999
 31
0.0
  0
ARC
  5
C7D
  8
DETAIL
  6
CONTINUOUS
 62
     5
 10
-10.24041099999999
 20
-150.6327569999999
 30
0.0
 40
10.240385
 50
180.0
 51
0.0
  0
ARC
  5
C7E
  8
DETAIL
  6
CONTINUOUS
 62
     5
 10
-10.24041099999999
 20
-116.4981409999999
 30
0.0
 40
10.240385
 50
0.0
 51
180.0
  0
LINE
  5
C7F
  8
DETAIL
  6
CONTINUOUS
 62
     5
 10
-0.0000260000001049
 20
-116.4981409999999
 30
0.0
 11
-0.0000260000001049
 21
-150.6327569999999
 31
0.0
  0
LINE
  5
C80
  8
DETAIL
  6
CONTINUOUS
 62
     5
 10
-0.0000260000001049
 20
-176.5750649999999
 30
0.0
 11
-0.0000260000001049
 21
-210.7096809999998
 31
0.0
  0
ARC
  5
C81
  8
DETAIL
  6
CONTINUOUS
 62
     5
 10
-10.24041099999999
 20
-176.5750649999999
 30
0.0
 40
10.240385
 50
0.0
 51
180.0
  0
ARC
  5
C82
  8
DETAIL
  6
CONTINUOUS
 62
     5
 10
-10.24041099999999
 20
-210.7096809999998
 30
0.0
 40
10.240385
 50
180.0
 51
0.0
  0
LINE
  5
C83
  8
DETAIL
  6
CONTINUOUS
 62
     5
 10
-0.0000260000001049
 20
-176.5750649999999
 30
0.0
 11
-0.0000260000001049
 21
-210.7096809999998
 31
0.0
  0
LINE
  5
C84
  8
DETAIL
  6
CONTINUOUS
 62
     5
 10
-20.480796
 20
-176.5750649999999
 30
0.0
 11
-20.480796
 21
-210.7096809999998
 31
0.0
  0
LINE
  5
C85
  8
DETAIL
  6
CONTINUOUS
 62
     5
 10
-0.0000260000001049
 20
-236.6519889999998
 30
0.0
 11
-0.0000260000001049
 21
-270.786605
 31
0.0
  0
ARC
  5
C86
  8
DETAIL
  6
CONTINUOUS
 62
     5
 10
-10.24041099999999
 20
-236.6519889999998
 30
0.0
 40
10.240385
 50
0.0
 51
180.0
  0
ARC
  5
C87
  8
DETAIL
  6
CONTINUOUS
 62
     5
 10
-10.24041099999999
 20
-270.786605
 30
0.0
 40
10.240385
 50
180.0
 51
0.0
  0
LINE
  5
C88
  8
DETAIL
  6
CONTINUOUS
 62
     5
 10
-0.0000260000001049
 20
-236.6519889999998
 30
0.0
 11
-0.0000260000001049
 21
-270.786605
 31
0.0
  0
LINE
  5
C89
  8
DETAIL
  6
CONTINUOUS
 62
     5
 10
-20.480796
 20
-236.6519889999998
 30
0.0
 11
-20.480796
 21
-270.786605
 31
0.0
  0
LINE
  5
C8A
  8
DETAIL
  6
CONTINUOUS
 62
     5
 10
34.13459
 20
-236.6519889999998
 30
0.0
 11
34.13459
 21
-270.786605
 31
0.0
  0
LINE
  5
C8B
  8
DETAIL
  6
CONTINUOUS
 62
     5
 10
54.61535900000001
 20
-236.6519889999998
 30
0.0
 11
54.61535900000001
 21
-270.786605
 31
0.0
  0
ARC
  5
C8C
  8
DETAIL
  6
CONTINUOUS
 62
     5
 10
44.37497500000001
 20
-270.786605
 30
0.0
 40
10.240385
 50
180.0
 51
0.0
  0
ARC
  5
C8D
  8
DETAIL
  6
CONTINUOUS
 62
     5
 10
44.37497500000001
 20
-236.6519889999998
 30
0.0
 40
10.240385
 50
0.0
 51
180.0
  0
LINE
  5
C8E
  8
DETAIL
  6
CONTINUOUS
 62
     5
 10
54.61535900000001
 20
-236.6519889999998
 30
0.0
 11
54.61535900000001
 21
-270.786605
 31
0.0
  0
LINE
  5
C8F
  8
DETAIL
  6
CONTINUOUS
 62
     5
 10
34.13459
 20
-176.5750649999999
 30
0.0
 11
34.13459
 21
-210.7096809999998
 31
0.0
  0
LINE
  5
C90
  8
DETAIL
  6
CONTINUOUS
 62
     5
 10
54.61535900000001
 20
-176.5750649999999
 30
0.0
 11
54.61535900000001
 21
-210.7096809999998
 31
0.0
  0
ARC
  5
C91
  8
DETAIL
  6
CONTINUOUS
 62
     5
 10
44.37497500000001
 20
-210.7096809999998
 30
0.0
 40
10.240385
 50
180.0
 51
0.0
  0
ARC
  5
C92
  8
DETAIL
  6
CONTINUOUS
 62
     5
 10
44.37497500000001
 20
-176.5750649999999
 30
0.0
 40
10.240385
 50
0.0
 51
180.0
  0
LINE
  5
C93
  8
DETAIL
  6
CONTINUOUS
 62
     5
 10
54.61535900000001
 20
-176.5750649999999
 30
0.0
 11
54.61535900000001
 21
-210.7096809999998
 31
0.0
  0
LINE
  5
C94
  8
DETAIL
  6
CONTINUOUS
 62
     5
 10
54.61535900000001
 20
-116.4981409999999
 30
0.0
 11
54.61535900000001
 21
-150.6327569999999
 31
0.0
  0
ARC
  5
C95
  8
DETAIL
  6
CONTINUOUS
 62
     5
 10
44.37497500000001
 20
-116.4981409999999
 30
0.0
 40
10.240385
 50
0.0
 51
180.0
  0
ARC
  5
C96
  8
DETAIL
  6
CONTINUOUS
 62
     5
 10
44.37497500000001
 20
-150.6327569999999
 30
0.0
 40
10.240385
 50
180.0
 51
0.0
  0
LINE
  5
C97
  8
DETAIL
  6
CONTINUOUS
 62
     5
 10
54.61535900000001
 20
-116.4981409999999
 30
0.0
 11
54.61535900000001
 21
-150.6327569999999
 31
0.0
  0
LINE
  5
C98
  8
DETAIL
  6
CONTINUOUS
 62
     5
 10
34.13459
 20
-116.4981409999999
 30
0.0
 11
34.13459
 21
-150.6327569999999
 31
0.0
  0
LINE
  5
C99
  8
DETAIL
  6
CONTINUOUS
 62
     5
 10
6.826897000000031
 20
-116.4981409999999
 30
0.0
 11
6.826897000000031
 21
-150.6327569999999
 31
0.0
  0
LINE
  5
C9A
  8
DETAIL
  6
CONTINUOUS
 62
     5
 10
27.30766699999992
 20
-116.4981409999999
 30
0.0
 11
27.30766699999992
 21
-150.6327569999999
 31
0.0
  0
ARC
  5
C9B
  8
DETAIL
  6
CONTINUOUS
 62
     5
 10
17.06728199999992
 20
-150.6327569999999
 30
0.0
 40
10.240385
 50
180.0
 51
0.0
  0
ARC
  5
C9C
  8
DETAIL
  6
CONTINUOUS
 62
     5
 10
17.06728199999992
 20
-116.4981409999999
 30
0.0
 40
10.240385
 50
0.0
 51
180.0
  0
LINE
  5
C9D
  8
DETAIL
  6
CONTINUOUS
 62
     5
 10
27.30766699999992
 20
-116.4981409999999
 30
0.0
 11
27.30766699999992
 21
-150.6327569999999
 31
0.0
  0
LINE
  5
C9E
  8
DETAIL
  6
CONTINUOUS
 62
     5
 10
27.30766699999992
 20
-176.5750649999999
 30
0.0
 11
27.30766699999992
 21
-210.7096809999998
 31
0.0
  0
ARC
  5
C9F
  8
DETAIL
  6
CONTINUOUS
 62
     5
 10
17.06728199999992
 20
-176.5750649999999
 30
0.0
 40
10.240385
 50
0.0
 51
180.0
  0
ARC
  5
CA0
  8
DETAIL
  6
CONTINUOUS
 62
     5
 10
17.06728199999992
 20
-210.7096809999998
 30
0.0
 40
10.240385
 50
180.0
 51
0.0
  0
LINE
  5
CA1
  8
DETAIL
  6
CONTINUOUS
 62
     5
 10
27.30766699999992
 20
-176.5750649999999
 30
0.0
 11
27.30766699999992
 21
-210.7096809999998
 31
0.0
  0
LINE
  5
CA2
  8
DETAIL
  6
CONTINUOUS
 62
     5
 10
6.826897000000031
 20
-176.5750649999999
 30
0.0
 11
6.826897000000031
 21
-210.7096809999998
 31
0.0
  0
LINE
  5
CA3
  8
DETAIL
  6
CONTINUOUS
 62
     5
 10
27.30766699999992
 20
-236.6519889999998
 30
0.0
 11
27.30766699999992
 21
-270.786605
 31
0.0
  0
ARC
  5
CA4
  8
DETAIL
  6
CONTINUOUS
 62
     5
 10
17.06728199999992
 20
-236.6519889999998
 30
0.0
 40
10.240385
 50
0.0
 51
180.0
  0
ARC
  5
CA5
  8
DETAIL
  6
CONTINUOUS
 62
     5
 10
17.06728199999992
 20
-270.786605
 30
0.0
 40
10.240385
 50
180.0
 51
0.0
  0
LINE
  5
CA6
  8
DETAIL
  6
CONTINUOUS
 62
     5
 10
27.30766699999992
 20
-236.6519889999998
 30
0.0
 11
27.30766699999992
 21
-270.786605
 31
0.0
  0
LINE
  5
CA7
  8
DETAIL
  6
CONTINUOUS
 62
     5
 10
6.826897000000031
 20
-236.6519889999998
 30
0.0
 11
6.826897000000031
 21
-270.786605
 31
0.0
  0
LINE
  5
CA8
  8
DETAIL
  6
CONTINUOUS
 62
     5
 10
-75.096181
 20
-236.6519889999998
 30
0.0
 11
-75.096181
 21
-270.786605
 31
0.0
  0
LINE
  5
CA9
  8
DETAIL
  6
CONTINUOUS
 62
     5
 10
-54.61541199999999
 20
-236.6519889999998
 30
0.0
 11
-54.61541199999999
 21
-270.786605
 31
0.0
  0
ARC
  5
CAA
  8
DETAIL
  6
CONTINUOUS
 62
     5
 10
-64.855796
 20
-270.786605
 30
0.0
 40
10.240385
 50
180.0
 51
0.0
  0
ARC
  5
CAB
  8
DETAIL
  6
CONTINUOUS
 62
     5
 10
-64.855796
 20
-236.6519889999998
 30
0.0
 40
10.240385
 50
0.0
 51
180.0
  0
LINE
  5
CAC
  8
DETAIL
  6
CONTINUOUS
 62
     5
 10
-54.61541199999999
 20
-236.6519889999998
 30
0.0
 11
-54.61541199999999
 21
-270.786605
 31
0.0
  0
LINE
  5
CAD
  8
DETAIL
  6
CONTINUOUS
 62
     5
 10
-75.096181
 20
-176.5750649999999
 30
0.0
 11
-75.096181
 21
-210.7096809999998
 31
0.0
  0
LINE
  5
CAE
  8
DETAIL
  6
CONTINUOUS
 62
     5
 10
-54.61541199999999
 20
-176.5750649999999
 30
0.0
 11
-54.61541199999999
 21
-210.7096809999998
 31
0.0
  0
ARC
  5
CAF
  8
DETAIL
  6
CONTINUOUS
 62
     5
 10
-64.855796
 20
-210.7096809999998
 30
0.0
 40
10.240385
 50
180.0
 51
0.0
  0
ARC
  5
CB0
  8
DETAIL
  6
CONTINUOUS
 62
     5
 10
-64.855796
 20
-176.5750649999999
 30
0.0
 40
10.240385
 50
0.0
 51
180.0
  0
LINE
  5
CB1
  8
DETAIL
  6
CONTINUOUS
 62
     5
 10
-54.61541199999999
 20
-176.5750649999999
 30
0.0
 11
-54.61541199999999
 21
-210.7096809999998
 31
0.0
  0
LINE
  5
CB2
  8
DETAIL
  6
CONTINUOUS
 62
     5
 10
-54.61541199999999
 20
-116.4981409999999
 30
0.0
 11
-54.61541199999999
 21
-150.6327569999999
 31
0.0
  0
ARC
  5
CB3
  8
DETAIL
  6
CONTINUOUS
 62
     5
 10
-64.855796
 20
-116.4981409999999
 30
0.0
 40
10.240385
 50
0.0
 51
180.0
  0
ARC
  5
CB4
  8
DETAIL
  6
CONTINUOUS
 62
     5
 10
-64.855796
 20
-150.6327569999999
 30
0.0
 40
10.240385
 50
180.0
 51
0.0
  0
LINE
  5
CB5
  8
DETAIL
  6
CONTINUOUS
 62
     5
 10
-54.61541199999999
 20
-116.4981409999999
 30
0.0
 11
-54.61541199999999
 21
-150.6327569999999
 31
0.0
  0
LINE
  5
CB6
  8
DETAIL
  6
CONTINUOUS
 62
     5
 10
-75.096181
 20
-116.4981409999999
 30
0.0
 11
-75.096181
 21
-150.6327569999999
 31
0.0
  0
LINE
  5
CB7
  8
DETAIL
  6
CONTINUOUS
 62
     5
 10
-47.78848799999997
 20
-116.4981409999999
 30
0.0
 11
-47.78848799999997
 21
-150.6327569999999
 31
0.0
  0
LINE
  5
CB8
  8
DETAIL
  6
CONTINUOUS
 62
     5
 10
-27.30771899999991
 20
-116.4981409999999
 30
0.0
 11
-27.30771899999991
 21
-150.6327569999999
 31
0.0
  0
ARC
  5
CB9
  8
DETAIL
  6
CONTINUOUS
 62
     5
 10
-37.54810399999997
 20
-150.6327569999999
 30
0.0
 40
10.240385
 50
180.0
 51
0.0
  0
ARC
  5
CBA
  8
DETAIL
  6
CONTINUOUS
 62
     5
 10
-37.54810399999997
 20
-116.4981409999999
 30
0.0
 40
10.240385
 50
0.0
 51
180.0
  0
LINE
  5
CBB
  8
DETAIL
  6
CONTINUOUS
 62
     5
 10
-27.30771899999991
 20
-116.4981409999999
 30
0.0
 11
-27.30771899999991
 21
-150.6327569999999
 31
0.0
  0
LINE
  5
CBC
  8
DETAIL
  6
CONTINUOUS
 62
     5
 10
-27.30771899999991
 20
-176.5750649999999
 30
0.0
 11
-27.30771899999991
 21
-210.7096809999998
 31
0.0
  0
ARC
  5
CBD
  8
DETAIL
  6
CONTINUOUS
 62
     5
 10
-37.54810399999997
 20
-176.5750649999999
 30
0.0
 40
10.240385
 50
0.0
 51
180.0
  0
ARC
  5
CBE
  8
DETAIL
  6
CONTINUOUS
 62
     5
 10
-37.54810399999997
 20
-210.7096809999998
 30
0.0
 40
10.240385
 50
180.0
 51
0.0
  0
LINE
  5
CBF
  8
DETAIL
  6
CONTINUOUS
 62
     5
 10
-27.30771899999991
 20
-176.5750649999999
 30
0.0
 11
-27.30771899999991
 21
-210.7096809999998
 31
0.0
  0
LINE
  5
CC0
  8
DETAIL
  6
CONTINUOUS
 62
     5
 10
-47.78848799999997
 20
-176.5750649999999
 30
0.0
 11
-47.78848799999997
 21
-210.7096809999998
 31
0.0
  0
LINE
  5
CC1
  8
DETAIL
  6
CONTINUOUS
 62
     5
 10
-27.30771899999991
 20
-236.6519889999998
 30
0.0
 11
-27.30771899999991
 21
-270.786605
 31
0.0
  0
ARC
  5
CC2
  8
DETAIL
  6
CONTINUOUS
 62
     5
 10
-37.54810399999997
 20
-236.6519889999998
 30
0.0
 40
10.240385
 50
0.0
 51
180.0
  0
ARC
  5
CC3
  8
DETAIL
  6
CONTINUOUS
 62
     5
 10
-37.54810399999997
 20
-270.786605
 30
0.0
 40
10.240385
 50
180.0
 51
0.0
  0
LINE
  5
CC4
  8
DETAIL
  6
CONTINUOUS
 62
     5
 10
-27.30771899999991
 20
-236.6519889999998
 30
0.0
 11
-27.30771899999991
 21
-270.786605
 31
0.0
  0
LINE
  5
CC5
  8
DETAIL
  6
CONTINUOUS
 62
     5
 10
-47.78848799999997
 20
-236.6519889999998
 30
0.0
 11
-47.78848799999997
 21
-270.786605
 31
0.0
  0
LINE
  5
CC6
  8
DETAIL
  6
CONTINUOUS
 62
     5
 10
-102.403874
 20
-236.6519889999998
 30
0.0
 11
-102.403874
 21
-270.786605
 31
0.0
  0
LINE
  5
CC7
  8
DETAIL
  6
CONTINUOUS
 62
     5
 10
-81.92310399999997
 20
-236.6519889999998
 30
0.0
 11
-81.92310399999997
 21
-270.786605
 31
0.0
  0
ARC
  5
CC8
  8
DETAIL
  6
CONTINUOUS
 62
     5
 10
-92.16348899999997
 20
-270.786605
 30
0.0
 40
10.240385
 50
180.0
 51
0.0
  0
ARC
  5
CC9
  8
DETAIL
  6
CONTINUOUS
 62
     5
 10
-92.16348899999997
 20
-236.6519889999998
 30
0.0
 40
10.240385
 50
0.0
 51
180.0
  0
LINE
  5
CCA
  8
DETAIL
  6
CONTINUOUS
 62
     5
 10
-81.92310399999997
 20
-236.6519889999998
 30
0.0
 11
-81.92310399999997
 21
-270.786605
 31
0.0
  0
LINE
  5
CCB
  8
DETAIL
  6
CONTINUOUS
 62
     5
 10
-102.403874
 20
-176.5750649999999
 30
0.0
 11
-102.403874
 21
-210.7096809999998
 31
0.0
  0
LINE
  5
CCC
  8
DETAIL
  6
CONTINUOUS
 62
     5
 10
-81.92310399999997
 20
-176.5750649999999
 30
0.0
 11
-81.92310399999997
 21
-210.7096809999998
 31
0.0
  0
ARC
  5
CCD
  8
DETAIL
  6
CONTINUOUS
 62
     5
 10
-92.16348899999997
 20
-210.7096809999998
 30
0.0
 40
10.240385
 50
180.0
 51
0.0
  0
ARC
  5
CCE
  8
DETAIL
  6
CONTINUOUS
 62
     5
 10
-92.16348899999997
 20
-176.5750649999999
 30
0.0
 40
10.240385
 50
0.0
 51
180.0
  0
LINE
  5
CCF
  8
DETAIL
  6
CONTINUOUS
 62
     5
 10
-81.92310399999997
 20
-176.5750649999999
 30
0.0
 11
-81.92310399999997
 21
-210.7096809999998
 31
0.0
  0
LINE
  5
CD0
  8
DETAIL
  6
CONTINUOUS
 62
     5
 10
-81.92310399999997
 20
-116.4981409999999
 30
0.0
 11
-81.92310399999997
 21
-150.6327569999999
 31
0.0
  0
ARC
  5
CD1
  8
DETAIL
  6
CONTINUOUS
 62
     5
 10
-92.16348899999997
 20
-116.4981409999999
 30
0.0
 40
10.240385
 50
0.0
 51
180.0
  0
ARC
  5
CD2
  8
DETAIL
  6
CONTINUOUS
 62
     5
 10
-92.16348899999997
 20
-150.6327569999999
 30
0.0
 40
10.240385
 50
180.0
 51
0.0
  0
LINE
  5
CD3
  8
DETAIL
  6
CONTINUOUS
 62
     5
 10
-81.92310399999997
 20
-116.4981409999999
 30
0.0
 11
-81.92310399999997
 21
-150.6327569999999
 31
0.0
  0
LINE
  5
CD4
  8
DETAIL
  6
CONTINUOUS
 62
     5
 10
-102.403874
 20
-116.4981409999999
 30
0.0
 11
-102.403874
 21
-150.6327569999999
 31
0.0
  0
LINE
  5
CD5
  8
DETAIL
  6
CONTINUOUS
 62
     5
 10
136.566953
 20
-116.4981409999999
 30
0.0
 11
136.566953
 21
-150.6327569999999
 31
0.0
  0
LINE
  5
CD6
  8
DETAIL
  6
CONTINUOUS
 62
     5
 10
157.0477229999999
 20
-116.4981409999999
 30
0.0
 11
157.0477229999999
 21
-150.6327569999999
 31
0.0
  0
ARC
  5
CD7
  8
DETAIL
  6
CONTINUOUS
 62
     5
 10
146.807338
 20
-150.6327569999999
 30
0.0
 40
10.240385
 50
180.0
 51
0.0
  0
ARC
  5
CD8
  8
DETAIL
  6
CONTINUOUS
 62
     5
 10
146.807338
 20
-116.4981409999999
 30
0.0
 40
10.240385
 50
0.0
 51
180.0
  0
LINE
  5
CD9
  8
DETAIL
  6
CONTINUOUS
 62
     5
 10
157.0477229999999
 20
-116.4981409999999
 30
0.0
 11
157.0477229999999
 21
-150.6327569999999
 31
0.0
  0
LINE
  5
CDA
  8
DETAIL
  6
CONTINUOUS
 62
     5
 10
157.0477229999999
 20
-176.5750649999999
 30
0.0
 11
157.0477229999999
 21
-210.7096809999998
 31
0.0
  0
ARC
  5
CDB
  8
DETAIL
  6
CONTINUOUS
 62
     5
 10
146.807338
 20
-176.5750649999999
 30
0.0
 40
10.240385
 50
0.0
 51
180.0
  0
ARC
  5
CDC
  8
DETAIL
  6
CONTINUOUS
 62
     5
 10
146.807338
 20
-210.7096809999998
 30
0.0
 40
10.240385
 50
180.0
 51
0.0
  0
LINE
  5
CDD
  8
DETAIL
  6
CONTINUOUS
 62
     5
 10
157.0477229999999
 20
-176.5750649999999
 30
0.0
 11
157.0477229999999
 21
-210.7096809999998
 31
0.0
  0
LINE
  5
CDE
  8
DETAIL
  6
CONTINUOUS
 62
     5
 10
136.566953
 20
-176.5750649999999
 30
0.0
 11
136.566953
 21
-210.7096809999998
 31
0.0
  0
LINE
  5
CDF
  8
DETAIL
  6
CONTINUOUS
 62
     5
 10
157.0477229999999
 20
-236.6519889999998
 30
0.0
 11
157.0477229999999
 21
-270.786605
 31
0.0
  0
ARC
  5
CE0
  8
DETAIL
  6
CONTINUOUS
 62
     5
 10
146.807338
 20
-236.6519889999998
 30
0.0
 40
10.240385
 50
0.0
 51
180.0
  0
ARC
  5
CE1
  8
DETAIL
  6
CONTINUOUS
 62
     5
 10
146.807338
 20
-270.786605
 30
0.0
 40
10.240385
 50
180.0
 51
0.0
  0
LINE
  5
CE2
  8
DETAIL
  6
CONTINUOUS
 62
     5
 10
157.0477229999999
 20
-236.6519889999998
 30
0.0
 11
157.0477229999999
 21
-270.786605
 31
0.0
  0
LINE
  5
CE3
  8
DETAIL
  6
CONTINUOUS
 62
     5
 10
136.566953
 20
-236.6519889999998
 30
0.0
 11
136.566953
 21
-270.786605
 31
0.0
  0
LINE
  5
CE4
  8
DETAIL
  6
CONTINUOUS
 62
     5
 10
191.182339
 20
-236.6519889999998
 30
0.0
 11
191.182339
 21
-270.786605
 31
0.0
  0
LINE
  5
CE5
  8
DETAIL
  6
CONTINUOUS
 62
     5
 10
211.663108
 20
-236.6519889999998
 30
0.0
 11
211.663108
 21
-270.786605
 31
0.0
  0
ARC
  5
CE6
  8
DETAIL
  6
CONTINUOUS
 62
     5
 10
201.422723
 20
-270.786605
 30
0.0
 40
10.240385
 50
180.0
 51
0.0
  0
ARC
  5
CE7
  8
DETAIL
  6
CONTINUOUS
 62
     5
 10
201.422723
 20
-236.6519889999998
 30
0.0
 40
10.240385
 50
0.0
 51
180.0
  0
LINE
  5
CE8
  8
DETAIL
  6
CONTINUOUS
 62
     5
 10
211.663108
 20
-236.6519889999998
 30
0.0
 11
211.663108
 21
-270.786605
 31
0.0
  0
LINE
  5
CE9
  8
DETAIL
  6
CONTINUOUS
 62
     5
 10
191.182339
 20
-176.5750649999999
 30
0.0
 11
191.182339
 21
-210.7096809999998
 31
0.0
  0
LINE
  5
CEA
  8
DETAIL
  6
CONTINUOUS
 62
     5
 10
211.663108
 20
-176.5750649999999
 30
0.0
 11
211.663108
 21
-210.7096809999998
 31
0.0
  0
ARC
  5
CEB
  8
DETAIL
  6
CONTINUOUS
 62
     5
 10
201.422723
 20
-210.7096809999998
 30
0.0
 40
10.240385
 50
180.0
 51
0.0
  0
ARC
  5
CEC
  8
DETAIL
  6
CONTINUOUS
 62
     5
 10
201.422723
 20
-176.5750649999999
 30
0.0
 40
10.240385
 50
0.0
 51
180.0
  0
LINE
  5
CED
  8
DETAIL
  6
CONTINUOUS
 62
     5
 10
211.663108
 20
-176.5750649999999
 30
0.0
 11
211.663108
 21
-210.7096809999998
 31
0.0
  0
LINE
  5
CEE
  8
DETAIL
  6
CONTINUOUS
 62
     5
 10
211.663108
 20
-116.4981409999999
 30
0.0
 11
211.663108
 21
-150.6327569999999
 31
0.0
  0
ARC
  5
CEF
  8
DETAIL
  6
CONTINUOUS
 62
     5
 10
201.422723
 20
-116.4981409999999
 30
0.0
 40
10.240385
 50
0.0
 51
180.0
  0
ARC
  5
CF0
  8
DETAIL
  6
CONTINUOUS
 62
     5
 10
201.422723
 20
-150.6327569999999
 30
0.0
 40
10.240385
 50
180.0
 51
0.0
  0
LINE
  5
CF1
  8
DETAIL
  6
CONTINUOUS
 62
     5
 10
211.663108
 20
-116.4981409999999
 30
0.0
 11
211.663108
 21
-150.6327569999999
 31
0.0
  0
LINE
  5
CF2
  8
DETAIL
  6
CONTINUOUS
 62
     5
 10
191.182339
 20
-116.4981409999999
 30
0.0
 11
191.182339
 21
-150.6327569999999
 31
0.0
  0
LINE
  5
CF3
  8
DETAIL
  6
CONTINUOUS
 62
     5
 10
163.8746460000001
 20
-116.4981409999999
 30
0.0
 11
163.8746460000001
 21
-150.6327569999999
 31
0.0
  0
LINE
  5
CF4
  8
DETAIL
  6
CONTINUOUS
 62
     5
 10
184.3554150000001
 20
-116.4981409999999
 30
0.0
 11
184.3554150000001
 21
-150.6327569999999
 31
0.0
  0
ARC
  5
CF5
  8
DETAIL
  6
CONTINUOUS
 62
     5
 10
174.1150310000002
 20
-150.6327569999999
 30
0.0
 40
10.240385
 50
180.0
 51
0.0
  0
ARC
  5
CF6
  8
DETAIL
  6
CONTINUOUS
 62
     5
 10
174.1150310000002
 20
-116.4981409999999
 30
0.0
 40
10.240385
 50
0.0
 51
180.0
  0
LINE
  5
CF7
  8
DETAIL
  6
CONTINUOUS
 62
     5
 10
184.3554150000001
 20
-116.4981409999999
 30
0.0
 11
184.3554150000001
 21
-150.6327569999999
 31
0.0
  0
LINE
  5
CF8
  8
DETAIL
  6
CONTINUOUS
 62
     5
 10
184.3554150000001
 20
-176.5750649999999
 30
0.0
 11
184.3554150000001
 21
-210.7096809999998
 31
0.0
  0
ARC
  5
CF9
  8
DETAIL
  6
CONTINUOUS
 62
     5
 10
174.1150310000002
 20
-176.5750649999999
 30
0.0
 40
10.240385
 50
0.0
 51
180.0
  0
ARC
  5
CFA
  8
DETAIL
  6
CONTINUOUS
 62
     5
 10
174.1150310000002
 20
-210.7096809999998
 30
0.0
 40
10.240385
 50
180.0
 51
0.0
  0
LINE
  5
CFB
  8
DETAIL
  6
CONTINUOUS
 62
     5
 10
184.3554150000001
 20
-176.5750649999999
 30
0.0
 11
184.3554150000001
 21
-210.7096809999998
 31
0.0
  0
LINE
  5
CFC
  8
DETAIL
  6
CONTINUOUS
 62
     5
 10
163.8746460000001
 20
-176.5750649999999
 30
0.0
 11
163.8746460000001
 21
-210.7096809999998
 31
0.0
  0
LINE
  5
CFD
  8
DETAIL
  6
CONTINUOUS
 62
     5
 10
184.3554150000001
 20
-236.6519889999998
 30
0.0
 11
184.3554150000001
 21
-270.786605
 31
0.0
  0
ARC
  5
CFE
  8
DETAIL
  6
CONTINUOUS
 62
     5
 10
174.1150310000002
 20
-236.6519889999998
 30
0.0
 40
10.240385
 50
0.0
 51
180.0
  0
ARC
  5
CFF
  8
DETAIL
  6
CONTINUOUS
 62
     5
 10
174.1150310000002
 20
-270.786605
 30
0.0
 40
10.240385
 50
180.0
 51
0.0
  0
LINE
  5
D00
  8
DETAIL
  6
CONTINUOUS
 62
     5
 10
184.3554150000001
 20
-236.6519889999998
 30
0.0
 11
184.3554150000001
 21
-270.786605
 31
0.0
  0
LINE
  5
D01
  8
DETAIL
  6
CONTINUOUS
 62
     5
 10
163.8746460000001
 20
-236.6519889999998
 30
0.0
 11
163.8746460000001
 21
-270.786605
 31
0.0
  0
LINE
  5
D02
  8
DETAIL
  6
CONTINUOUS
 62
     5
 10
245.797724
 20
-236.6519889999998
 30
0.0
 11
245.797724
 21
-270.786605
 31
0.0
  0
LINE
  5
D03
  8
DETAIL
  6
CONTINUOUS
 62
     5
 10
266.2784939999999
 20
-236.6519889999998
 30
0.0
 11
266.2784939999999
 21
-270.786605
 31
0.0
  0
ARC
  5
D04
  8
DETAIL
  6
CONTINUOUS
 62
     5
 10
256.038109
 20
-270.786605
 30
0.0
 40
10.240385
 50
180.0
 51
0.0
  0
ARC
  5
D05
  8
DETAIL
  6
CONTINUOUS
 62
     5
 10
256.038109
 20
-236.6519889999998
 30
0.0
 40
10.240385
 50
0.0
 51
180.0
  0
LINE
  5
D06
  8
DETAIL
  6
CONTINUOUS
 62
     5
 10
266.2784939999999
 20
-236.6519889999998
 30
0.0
 11
266.2784939999999
 21
-270.786605
 31
0.0
  0
LINE
  5
D07
  8
DETAIL
  6
CONTINUOUS
 62
     5
 10
245.797724
 20
-176.5750649999999
 30
0.0
 11
245.797724
 21
-210.7096809999998
 31
0.0
  0
LINE
  5
D08
  8
DETAIL
  6
CONTINUOUS
 62
     5
 10
266.2784939999999
 20
-176.5750649999999
 30
0.0
 11
266.2784939999999
 21
-210.7096809999998
 31
0.0
  0
ARC
  5
D09
  8
DETAIL
  6
CONTINUOUS
 62
     5
 10
256.038109
 20
-210.7096809999998
 30
0.0
 40
10.240385
 50
180.0
 51
0.0
  0
ARC
  5
D0A
  8
DETAIL
  6
CONTINUOUS
 62
     5
 10
256.038109
 20
-176.5750649999999
 30
0.0
 40
10.240385
 50
0.0
 51
180.0
  0
LINE
  5
D0B
  8
DETAIL
  6
CONTINUOUS
 62
     5
 10
266.2784939999999
 20
-176.5750649999999
 30
0.0
 11
266.2784939999999
 21
-210.7096809999998
 31
0.0
  0
LINE
  5
D0C
  8
DETAIL
  6
CONTINUOUS
 62
     5
 10
266.2784939999999
 20
-116.4981409999999
 30
0.0
 11
266.2784939999999
 21
-150.6327569999999
 31
0.0
  0
ARC
  5
D0D
  8
DETAIL
  6
CONTINUOUS
 62
     5
 10
256.038109
 20
-116.4981409999999
 30
0.0
 40
10.240385
 50
0.0
 51
180.0
  0
ARC
  5
D0E
  8
DETAIL
  6
CONTINUOUS
 62
     5
 10
256.038109
 20
-150.6327569999999
 30
0.0
 40
10.240385
 50
180.0
 51
0.0
  0
LINE
  5
D0F
  8
DETAIL
  6
CONTINUOUS
 62
     5
 10
266.2784939999999
 20
-116.4981409999999
 30
0.0
 11
266.2784939999999
 21
-150.6327569999999
 31
0.0
  0
LINE
  5
D10
  8
DETAIL
  6
CONTINUOUS
 62
     5
 10
245.797724
 20
-116.4981409999999
 30
0.0
 11
245.797724
 21
-150.6327569999999
 31
0.0
  0
LINE
  5
D11
  8
DETAIL
  6
CONTINUOUS
 62
     5
 10
273.105417
 20
-116.4981409999999
 30
0.0
 11
273.105417
 21
-150.6327569999999
 31
0.0
  0
LINE
  5
D12
  8
DETAIL
  6
CONTINUOUS
 62
     5
 10
293.5861860000001
 20
-116.4981409999999
 30
0.0
 11
293.5861860000001
 21
-150.6327569999999
 31
0.0
  0
ARC
  5
D13
  8
DETAIL
  6
CONTINUOUS
 62
     5
 10
283.345802
 20
-150.6327569999999
 30
0.0
 40
10.240385
 50
180.0
 51
0.0
  0
ARC
  5
D14
  8
DETAIL
  6
CONTINUOUS
 62
     5
 10
283.345802
 20
-116.4981409999999
 30
0.0
 40
10.240385
 50
0.0
 51
180.0
  0
LINE
  5
D15
  8
DETAIL
  6
CONTINUOUS
 62
     5
 10
293.5861860000001
 20
-116.4981409999999
 30
0.0
 11
293.5861860000001
 21
-150.6327569999999
 31
0.0
  0
LINE
  5
D16
  8
DETAIL
  6
CONTINUOUS
 62
     5
 10
293.5861860000001
 20
-176.5750649999999
 30
0.0
 11
293.5861860000001
 21
-210.7096809999998
 31
0.0
  0
ARC
  5
D17
  8
DETAIL
  6
CONTINUOUS
 62
     5
 10
283.345802
 20
-176.5750649999999
 30
0.0
 40
10.240385
 50
0.0
 51
180.0
  0
ARC
  5
D18
  8
DETAIL
  6
CONTINUOUS
 62
     5
 10
283.345802
 20
-210.7096809999998
 30
0.0
 40
10.240385
 50
180.0
 51
0.0
  0
LINE
  5
D19
  8
DETAIL
  6
CONTINUOUS
 62
     5
 10
293.5861860000001
 20
-176.5750649999999
 30
0.0
 11
293.5861860000001
 21
-210.7096809999998
 31
0.0
  0
LINE
  5
D1A
  8
DETAIL
  6
CONTINUOUS
 62
     5
 10
273.105417
 20
-176.5750649999999
 30
0.0
 11
273.105417
 21
-210.7096809999998
 31
0.0
  0
LINE
  5
D1B
  8
DETAIL
  6
CONTINUOUS
 62
     5
 10
293.5861860000001
 20
-236.6519889999998
 30
0.0
 11
293.5861860000001
 21
-270.786605
 31
0.0
  0
ARC
  5
D1C
  8
DETAIL
  6
CONTINUOUS
 62
     5
 10
283.345802
 20
-236.6519889999998
 30
0.0
 40
10.240385
 50
0.0
 51
180.0
  0
ARC
  5
D1D
  8
DETAIL
  6
CONTINUOUS
 62
     5
 10
283.345802
 20
-270.786605
 30
0.0
 40
10.240385
 50
180.0
 51
0.0
  0
LINE
  5
D1E
  8
DETAIL
  6
CONTINUOUS
 62
     5
 10
293.5861860000001
 20
-236.6519889999998
 30
0.0
 11
293.5861860000001
 21
-270.786605
 31
0.0
  0
LINE
  5
D1F
  8
DETAIL
  6
CONTINUOUS
 62
     5
 10
273.105417
 20
-236.6519889999998
 30
0.0
 11
273.105417
 21
-270.786605
 31
0.0
  0
LINE
  5
D20
  8
DETAIL
  6
CONTINUOUS
 62
     5
 10
218.4900310000002
 20
-236.6519889999998
 30
0.0
 11
218.4900310000002
 21
-270.786605
 31
0.0
  0
LINE
  5
D21
  8
DETAIL
  6
CONTINUOUS
 62
     5
 10
238.9708010000001
 20
-236.6519889999998
 30
0.0
 11
238.9708010000001
 21
-270.786605
 31
0.0
  0
ARC
  5
D22
  8
DETAIL
  6
CONTINUOUS
 62
     5
 10
228.7304159999998
 20
-270.786605
 30
0.0
 40
10.240385
 50
180.0
 51
0.0
  0
ARC
  5
D23
  8
DETAIL
  6
CONTINUOUS
 62
     5
 10
228.7304159999998
 20
-236.6519889999998
 30
0.0
 40
10.240385
 50
0.0
 51
180.0
  0
LINE
  5
D24
  8
DETAIL
  6
CONTINUOUS
 62
     5
 10
238.9708010000001
 20
-236.6519889999998
 30
0.0
 11
238.9708010000001
 21
-270.786605
 31
0.0
  0
LINE
  5
D25
  8
DETAIL
  6
CONTINUOUS
 62
     5
 10
218.4900310000002
 20
-176.5750649999999
 30
0.0
 11
218.4900310000002
 21
-210.7096809999998
 31
0.0
  0
LINE
  5
D26
  8
DETAIL
  6
CONTINUOUS
 62
     5
 10
238.9708010000001
 20
-176.5750649999999
 30
0.0
 11
238.9708010000001
 21
-210.7096809999998
 31
0.0
  0
ARC
  5
D27
  8
DETAIL
  6
CONTINUOUS
 62
     5
 10
228.7304159999998
 20
-210.7096809999998
 30
0.0
 40
10.240385
 50
180.0
 51
0.0
  0
ARC
  5
D28
  8
DETAIL
  6
CONTINUOUS
 62
     5
 10
228.7304159999998
 20
-176.5750649999999
 30
0.0
 40
10.240385
 50
0.0
 51
180.0
  0
LINE
  5
D29
  8
DETAIL
  6
CONTINUOUS
 62
     5
 10
238.9708010000001
 20
-176.5750649999999
 30
0.0
 11
238.9708010000001
 21
-210.7096809999998
 31
0.0
  0
LINE
  5
D2A
  8
DETAIL
  6
CONTINUOUS
 62
     5
 10
238.9708010000001
 20
-116.4981409999999
 30
0.0
 11
238.9708010000001
 21
-150.6327569999999
 31
0.0
  0
ARC
  5
D2B
  8
DETAIL
  6
CONTINUOUS
 62
     5
 10
228.7304159999998
 20
-116.4981409999999
 30
0.0
 40
10.240385
 50
0.0
 51
180.0
  0
ARC
  5
D2C
  8
DETAIL
  6
CONTINUOUS
 62
     5
 10
228.7304159999998
 20
-150.6327569999999
 30
0.0
 40
10.240385
 50
180.0
 51
0.0
  0
LINE
  5
D2D
  8
DETAIL
  6
CONTINUOUS
 62
     5
 10
238.9708010000001
 20
-116.4981409999999
 30
0.0
 11
238.9708010000001
 21
-150.6327569999999
 31
0.0
  0
LINE
  5
D2E
  8
DETAIL
  6
CONTINUOUS
 62
     5
 10
218.4900310000002
 20
-116.4981409999999
 30
0.0
 11
218.4900310000002
 21
-150.6327569999999
 31
0.0
  0
LINE
  5
D2F
  8
DETAIL
  6
CONTINUOUS
 62
     5
 10
54.61535900000001
 20
-116.4981409999999
 30
0.0
 11
54.61535900000001
 21
-150.6327569999999
 31
0.0
  0
LINE
  5
D30
  8
DETAIL
  6
CONTINUOUS
 62
     5
 10
75.09612900000002
 20
-116.4981409999999
 30
0.0
 11
75.09612900000002
 21
-150.6327569999999
 31
0.0
  0
ARC
  5
D31
  8
DETAIL
  6
CONTINUOUS
 62
     5
 10
64.85574400000002
 20
-150.6327569999999
 30
0.0
 40
10.240385
 50
180.0
 51
0.0
  0
ARC
  5
D32
  8
DETAIL
  6
CONTINUOUS
 62
     5
 10
64.85574400000002
 20
-116.4981409999999
 30
0.0
 40
10.240385
 50
0.0
 51
180.0
  0
LINE
  5
D33
  8
DETAIL
  6
CONTINUOUS
 62
     5
 10
75.09612900000002
 20
-116.4981409999999
 30
0.0
 11
75.09612900000002
 21
-150.6327569999999
 31
0.0
  0
LINE
  5
D34
  8
DETAIL
  6
CONTINUOUS
 62
     5
 10
75.09612900000002
 20
-176.5750649999999
 30
0.0
 11
75.09612900000002
 21
-210.7096809999998
 31
0.0
  0
ARC
  5
D35
  8
DETAIL
  6
CONTINUOUS
 62
     5
 10
64.85574400000002
 20
-176.5750649999999
 30
0.0
 40
10.240385
 50
0.0
 51
180.0
  0
ARC
  5
D36
  8
DETAIL
  6
CONTINUOUS
 62
     5
 10
64.85574400000002
 20
-210.7096809999998
 30
0.0
 40
10.240385
 50
180.0
 51
0.0
  0
LINE
  5
D37
  8
DETAIL
  6
CONTINUOUS
 62
     5
 10
75.09612900000002
 20
-176.5750649999999
 30
0.0
 11
75.09612900000002
 21
-210.7096809999998
 31
0.0
  0
LINE
  5
D38
  8
DETAIL
  6
CONTINUOUS
 62
     5
 10
54.61535900000001
 20
-176.5750649999999
 30
0.0
 11
54.61535900000001
 21
-210.7096809999998
 31
0.0
  0
LINE
  5
D39
  8
DETAIL
  6
CONTINUOUS
 62
     5
 10
75.09612900000002
 20
-236.6519889999998
 30
0.0
 11
75.09612900000002
 21
-270.786605
 31
0.0
  0
ARC
  5
D3A
  8
DETAIL
  6
CONTINUOUS
 62
     5
 10
64.85574400000002
 20
-236.6519889999998
 30
0.0
 40
10.240385
 50
0.0
 51
180.0
  0
ARC
  5
D3B
  8
DETAIL
  6
CONTINUOUS
 62
     5
 10
64.85574400000002
 20
-270.786605
 30
0.0
 40
10.240385
 50
180.0
 51
0.0
  0
LINE
  5
D3C
  8
DETAIL
  6
CONTINUOUS
 62
     5
 10
75.09612900000002
 20
-236.6519889999998
 30
0.0
 11
75.09612900000002
 21
-270.786605
 31
0.0
  0
LINE
  5
D3D
  8
DETAIL
  6
CONTINUOUS
 62
     5
 10
54.61535900000001
 20
-236.6519889999998
 30
0.0
 11
54.61535900000001
 21
-270.786605
 31
0.0
  0
LINE
  5
D3E
  8
DETAIL
  6
CONTINUOUS
 62
     5
 10
109.230745
 20
-236.6519889999998
 30
0.0
 11
109.230745
 21
-270.786605
 31
0.0
  0
LINE
  5
D3F
  8
DETAIL
  6
CONTINUOUS
 62
     5
 10
129.7115139999999
 20
-236.6519889999998
 30
0.0
 11
129.7115139999999
 21
-270.786605
 31
0.0
  0
ARC
  5
D40
  8
DETAIL
  6
CONTINUOUS
 62
     5
 10
119.4711299999999
 20
-270.786605
 30
0.0
 40
10.240385
 50
180.0
 51
0.0
  0
ARC
  5
D41
  8
DETAIL
  6
CONTINUOUS
 62
     5
 10
119.4711299999999
 20
-236.6519889999998
 30
0.0
 40
10.240385
 50
0.0
 51
180.0
  0
LINE
  5
D42
  8
DETAIL
  6
CONTINUOUS
 62
     5
 10
129.7115139999999
 20
-236.6519889999998
 30
0.0
 11
129.7115139999999
 21
-270.786605
 31
0.0
  0
LINE
  5
D43
  8
DETAIL
  6
CONTINUOUS
 62
     5
 10
109.230745
 20
-176.5750649999999
 30
0.0
 11
109.230745
 21
-210.7096809999998
 31
0.0
  0
LINE
  5
D44
  8
DETAIL
  6
CONTINUOUS
 62
     5
 10
129.7115139999999
 20
-176.5750649999999
 30
0.0
 11
129.7115139999999
 21
-210.7096809999998
 31
0.0
  0
ARC
  5
D45
  8
DETAIL
  6
CONTINUOUS
 62
     5
 10
119.4711299999999
 20
-210.7096809999998
 30
0.0
 40
10.240385
 50
180.0
 51
0.0
  0
ARC
  5
D46
  8
DETAIL
  6
CONTINUOUS
 62
     5
 10
119.4711299999999
 20
-176.5750649999999
 30
0.0
 40
10.240385
 50
0.0
 51
180.0
  0
LINE
  5
D47
  8
DETAIL
  6
CONTINUOUS
 62
     5
 10
129.7115139999999
 20
-176.5750649999999
 30
0.0
 11
129.7115139999999
 21
-210.7096809999998
 31
0.0
  0
LINE
  5
D48
  8
DETAIL
  6
CONTINUOUS
 62
     5
 10
129.7115139999999
 20
-116.4981409999999
 30
0.0
 11
129.7115139999999
 21
-150.6327569999999
 31
0.0
  0
ARC
  5
D49
  8
DETAIL
  6
CONTINUOUS
 62
     5
 10
119.4711299999999
 20
-116.4981409999999
 30
0.0
 40
10.240385
 50
0.0
 51
180.0
  0
ARC
  5
D4A
  8
DETAIL
  6
CONTINUOUS
 62
     5
 10
119.4711299999999
 20
-150.6327569999999
 30
0.0
 40
10.240385
 50
180.0
 51
0.0
  0
LINE
  5
D4B
  8
DETAIL
  6
CONTINUOUS
 62
     5
 10
129.7115139999999
 20
-116.4981409999999
 30
0.0
 11
129.7115139999999
 21
-150.6327569999999
 31
0.0
  0
LINE
  5
D4C
  8
DETAIL
  6
CONTINUOUS
 62
     5
 10
109.230745
 20
-116.4981409999999
 30
0.0
 11
109.230745
 21
-150.6327569999999
 31
0.0
  0
LINE
  5
D4D
  8
DETAIL
  6
CONTINUOUS
 62
     5
 10
81.92305199999993
 20
-116.4981409999999
 30
0.0
 11
81.92305199999993
 21
-150.6327569999999
 31
0.0
  0
LINE
  5
D4E
  8
DETAIL
  6
CONTINUOUS
 62
     5
 10
102.4038219999999
 20
-116.4981409999999
 30
0.0
 11
102.4038219999999
 21
-150.6327569999999
 31
0.0
  0
ARC
  5
D4F
  8
DETAIL
  6
CONTINUOUS
 62
     5
 10
92.16343699999993
 20
-150.6327569999999
 30
0.0
 40
10.240385
 50
180.0
 51
0.0
  0
ARC
  5
D50
  8
DETAIL
  6
CONTINUOUS
 62
     5
 10
92.16343699999993
 20
-116.4981409999999
 30
0.0
 40
10.240385
 50
0.0
 51
180.0
  0
LINE
  5
D51
  8
DETAIL
  6
CONTINUOUS
 62
     5
 10
102.4038219999999
 20
-116.4981409999999
 30
0.0
 11
102.4038219999999
 21
-150.6327569999999
 31
0.0
  0
LINE
  5
D52
  8
DETAIL
  6
CONTINUOUS
 62
     5
 10
102.4038219999999
 20
-176.5750649999999
 30
0.0
 11
102.4038219999999
 21
-210.7096809999998
 31
0.0
  0
ARC
  5
D53
  8
DETAIL
  6
CONTINUOUS
 62
     5
 10
92.16343699999993
 20
-176.5750649999999
 30
0.0
 40
10.240385
 50
0.0
 51
180.0
  0
ARC
  5
D54
  8
DETAIL
  6
CONTINUOUS
 62
     5
 10
92.16343699999993
 20
-210.7096809999998
 30
0.0
 40
10.240385
 50
180.0
 51
0.0
  0
LINE
  5
D55
  8
DETAIL
  6
CONTINUOUS
 62
     5
 10
102.4038219999999
 20
-176.5750649999999
 30
0.0
 11
102.4038219999999
 21
-210.7096809999998
 31
0.0
  0
LINE
  5
D56
  8
DETAIL
  6
CONTINUOUS
 62
     5
 10
81.92305199999993
 20
-176.5750649999999
 30
0.0
 11
81.92305199999993
 21
-210.7096809999998
 31
0.0
  0
LINE
  5
D57
  8
DETAIL
  6
CONTINUOUS
 62
     5
 10
102.4038219999999
 20
-236.6519889999998
 30
0.0
 11
102.4038219999999
 21
-270.786605
 31
0.0
  0
ARC
  5
D58
  8
DETAIL
  6
CONTINUOUS
 62
     5
 10
92.16343699999993
 20
-236.6519889999998
 30
0.0
 40
10.240385
 50
0.0
 51
180.0
  0
ARC
  5
D59
  8
DETAIL
  6
CONTINUOUS
 62
     5
 10
92.16343699999993
 20
-270.786605
 30
0.0
 40
10.240385
 50
180.0
 51
0.0
  0
LINE
  5
D5A
  8
DETAIL
  6
CONTINUOUS
 62
     5
 10
102.4038219999999
 20
-236.6519889999998
 30
0.0
 11
102.4038219999999
 21
-270.786605
 31
0.0
  0
LINE
  5
D5B
  8
DETAIL
  6
CONTINUOUS
 62
     5
 10
81.92305199999993
 20
-236.6519889999998
 30
0.0
 11
81.92305199999993
 21
-270.786605
 31
0.0
  0
LINE
  5
D5C
  8
DETAIL
  6
CONTINUOUS
 62
     5
 10
-293.5862389999999
 20
-116.4981409999999
 30
0.0
 11
-293.5862389999999
 21
-150.6327569999999
 31
0.0
  0
LINE
  5
D5D
  8
DETAIL
  6
CONTINUOUS
 62
     5
 10
-293.5862389999999
 20
-176.5750649999999
 30
0.0
 11
-293.5862389999999
 21
-210.7096809999998
 31
0.0
  0
LINE
  5
D5E
  8
DETAIL
  6
CONTINUOUS
 62
     5
 10
-293.5862389999999
 20
-236.6519889999998
 30
0.0
 11
-293.5862389999999
 21
-270.786605
 31
0.0
  0
LINE
  5
D5F
  8
DETAIL
  6
CONTINUOUS
 62
     5
 10
-299.9999999999999
 20
301.9922489999998
 30
0.0
 11
-299.9999999999999
 21
-300.1423749999998
 31
0.0
  0
LINE
  5
D60
  8
DETAIL
  6
CONTINUOUS
 62
     5
 10
300.0000000000001
 20
301.9922489999998
 30
0.0
 11
300.0000000000001
 21
-300.1423749999998
 31
0.0
  0
LINE
  5
D61
  8
SIZE
  6
BYBLOCK
 62
    30
 10
345.0000000000002
 20
353.9999999999999
 30
0.0
 11
686.5260847226715
 21
353.9999999999999
 31
0.0
  0
LINE
  5
D62
  8
SIZE
  6
BYBLOCK
 62
    30
 10
345.0000000000002
 20
-353.9999999999999
 30
0.0
 11
688.9557802234154
 21
-353.9999999999999
 31
0.0
  0
LINE
  5
D63
  8
SIZE
  6
BYBLOCK
 62
    30
 10
652.5103276342154
 20
351.9999999999999
 30
0.0
 11
652.5103276342154
 21
-351.9999999999999
 31
0.0
  0
TEXT
  5
D64
  8
SIZE
  6
BYBLOCK
 62
    30
 10
620.5103276342162
 20
-74.05714300000001
 30
0.0
 40
64.0
  1
708
 50
90.0
 41
0.9
  0
LINE
  5
D65
  8
SIZE
  6
BYBLOCK
 62
    30
 10
-354.9999999999999
 20
344.9999999999999
 30
0.0
 11
-354.9999999999999
 21
638.4192736640089
 31
0.0
  0
LINE
  5
D66
  8
SIZE
  6
BYBLOCK
 62
    30
 10
355.0000000000002
 20
344.9999999999999
 30
0.0
 11
355.0000000000002
 21
633.5619165847374
 31
0.0
  0
LINE
  5
D67
  8
SIZE
  6
BYBLOCK
 62
    30
 10
-352.9999999999999
 20
592.2743713292629
 30
0.0
 11
353.0000000000002
 21
592.2743713292629
 31
0.0
  0
TEXT
  5
D68
  8
SIZE
  6
BYBLOCK
 62
    30
 10
-68.57142899999997
 20
624.2743713292629
 30
0.0
 40
64.0
  1
710
 41
0.9
  0
CIRCLE
  5
D69
  8
SIZE
  6
CONTINUOUS
 62
    30
 10
355.0000000000002
 20
592.2743713292629
 30
0.0
 40
6.0
  0
CIRCLE
  5
D6A
  8
SIZE
  6
CONTINUOUS
 62
    30
 10
-354.9999999999999
 20
592.2743713292629
 30
0.0
 40
6.0
  0
CIRCLE
  5
D6B
  8
SIZE
  6
CONTINUOUS
 62
    30
 10
652.5103276342154
 20
-353.9999999999999
 30
0.0
 40
6.0
  0
CIRCLE
  5
D6C
  8
SIZE
  6
CONTINUOUS
 62
    30
 10
652.5103276342154
 20
353.9999999999999
 30
0.0
 40
6.0
  0
TEXT
  5
D6D
  8
ETC
  6
CONTINUOUS
 62
    61
 10
568.2553245925783
 20
808.0808807875309
 30
0.0
 40
64.0
  1
EGG-60MSTB2_2
 41
0.9
  0
TEXT
  5
D6E
  8
ETC
  6
CONTINUOUS
 62
    61
 10
664.5352299413695
 20
626.2758776052741
 30
0.0
 40
50.0
  1
EGG-60MSTB2
 41
0.9
  0
TEXT
  5
D6F
  8
ETC
  6
CONTINUOUS
 62
    61
 10
560.1818465925786
 20
704.797053995707
 30
0.0
 40
64.0
  1
産業扇
 41
0.9
  0
ENDSEC
  0
EOF
