  0
SECTION
  2
HEADER
  9
$ACADVER
  1
AC1009
  9
$DWGCODEPAGE
  3
ansi_932
  9
$INSBASE
 10
0.0
 20
0.0
 30
0.0
  9
$EXTMIN
 10
-632.069841917419
 20
-235.1003524541897
 30
0.0
  9
$EXTMAX
 10
1278.885941644677
 20
950.791364695485
 30
0.0
  9
$LIMMIN
 10
-2970.0
 20
-2100.0
  9
$LIMMAX
 10
2970.0
 20
2100.0
  9
$ORTHOMODE
 70
     1
  9
$REGENMODE
 70
     0
  9
$FILLMODE
 70
     1
  9
$QTEXTMODE
 70
     0
  9
$MIRRTEXT
 70
     0
  9
$DRAGMODE
 70
     2
  9
$LTSCALE
 40
20.0
  9
$OSMODE
 70
    37
  9
$ATTMODE
 70
     1
  9
$TEXTSIZE
 40
64.0
  9
$TRACEWID
 40
0.05
  9
$TEXTSTYLE
  7
STANDARD
  9
$CLAYER
  8
OUTLINE
  9
$CELTYPE
  6
CONTINUOUS
  9
$CECOLOR
 62
     3
  9
$DIMSCALE
 40
1.0
  9
$DIMASZ
 40
2.0
  9
$DIMEXO
 40
20.0
  9
$DIMDLI
 40
200.0
  9
$DIMRND
 40
0.0
  9
$DIMDLE
 40
0.0
  9
$DIMEXE
 40
30.0
  9
$DIMTP
 40
0.0
  9
$DIMTM
 40
0.0
  9
$DIMTXT
 40
64.0
  9
$DIMCEN
 40
0.09
  9
$DIMTSZ
 40
0.0
  9
$DIMTOL
 70
     0
  9
$DIMLIM
 70
     0
  9
$DIMTIH
 70
     0
  9
$DIMTOH
 70
     0
  9
$DIMSE1
 70
     0
  9
$DIMSE2
 70
     0
  9
$DIMTAD
 70
     1
  9
$DIMZIN
 70
     8
  9
$DIMBLK
  1

  9
$DIMASO
 70
     1
  9
$DIMSHO
 70
     0
  9
$DIMPOST
  1

  9
$DIMAPOST
  1

  9
$DIMALT
 70
     0
  9
$DIMALTD
 70
     2
  9
$DIMALTF
 40
25.4
  9
$DIMLFAC
 40
1.0
  9
$DIMTOFL
 70
     1
  9
$DIMTVP
 40
0.0
  9
$DIMTIX
 70
     1
  9
$DIMSOXD
 70
     0
  9
$DIMSAH
 70
     0
  9
$DIMBLK1
  1

  9
$DIMBLK2
  1

  9
$DIMSTYLE
  2
STANDARD
  9
$DIMCLRD
 70
     0
  9
$DIMCLRE
 70
     0
  9
$DIMCLRT
 70
     0
  9
$DIMTFAC
 40
1.0
  9
$DIMGAP
 40
0.09
  9
$LUNITS
 70
     2
  9
$LUPREC
 70
     4
  9
$SKETCHINC
 40
0.1
  9
$FILLETRAD
 40
15.0
  9
$AUNITS
 70
     1
  9
$AUPREC
 70
     3
  9
$MENU
  1
ACAD
  9
$ELEVATION
 40
0.0
  9
$PELEVATION
 40
0.0
  9
$THICKNESS
 40
0.0
  9
$LIMCHECK
 70
     0
  9
$CHAMFERA
 40
0.0
  9
$CHAMFERB
 40
0.0
  9
$SKPOLY
 70
     0
  9
$TDCREATE
 40
2450968.634097211
  9
$TDUPDATE
 40
2457485.556170313
  9
$TDINDWG
 40
0.0145095255
  9
$TDUSRTIMER
 40
0.0145093519
  9
$USRTIMER
 70
     1
  9
$ANGBASE
 50
0.0
  9
$ANGDIR
 70
     0
  9
$PDMODE
 70
     3
  9
$PDSIZE
 40
-2.0
  9
$PLINEWID
 40
0.0
  9
$COORDS
 70
     1
  9
$SPLFRAME
 70
     0
  9
$SPLINETYPE
 70
     6
  9
$SPLINESEGS
 70
     8
  9
$ATTDIA
 70
     0
  9
$ATTREQ
 70
     1
  9
$HANDLING
 70
     1
  9
$HANDSEED
  5
31C
  9
$SURFTAB1
 70
     6
  9
$SURFTAB2
 70
     6
  9
$SURFTYPE
 70
     6
  9
$SURFU
 70
     6
  9
$SURFV
 70
     6
  9
$UCSNAME
  2

  9
$UCSORG
 10
0.0
 20
0.0
 30
0.0
  9
$UCSXDIR
 10
1.0
 20
0.0
 30
0.0
  9
$UCSYDIR
 10
0.0
 20
1.0
 30
0.0
  9
$PUCSNAME
  2

  9
$PUCSORG
 10
0.0
 20
0.0
 30
0.0
  9
$PUCSXDIR
 10
1.0
 20
0.0
 30
0.0
  9
$PUCSYDIR
 10
0.0
 20
1.0
 30
0.0
  9
$USERI1
 70
     0
  9
$USERI2
 70
     0
  9
$USERI3
 70
     0
  9
$USERI4
 70
     0
  9
$USERI5
 70
     0
  9
$USERR1
 40
20.0
  9
$USERR2
 40
0.0
  9
$USERR3
 40
0.0
  9
$USERR4
 40
0.0
  9
$USERR5
 40
0.0
  9
$WORLDVIEW
 70
     1
  9
$SHADEDGE
 70
     3
  9
$SHADEDIF
 70
    70
  9
$TILEMODE
 70
     1
  9
$MAXACTVP
 70
    64
  9
$PLIMCHECK
 70
     0
  9
$PEXTMIN
 10
1.000000000000000E+20
 20
1.000000000000000E+20
 30
1.000000000000000E+20
  9
$PEXTMAX
 10
-1.000000000000000E+20
 20
-1.000000000000000E+20
 30
-1.000000000000000E+20
  9
$PLIMMIN
 10
0.0
 20
0.0
  9
$PLIMMAX
 10
12.0
 20
9.0
  9
$UNITMODE
 70
     0
  9
$VISRETAIN
 70
     1
  9
$PLINEGEN
 70
     0
  9
$PSLTSCALE
 70
     1
  0
ENDSEC
  0
SECTION
  2
TABLES
  0
TABLE
  2
VPORT
 70
     1
  0
VPORT
  2
*ACTIVE
 70
     0
 10
0.0
 20
0.0
 11
1.0
 21
1.0
 12
292.5047032143306
 22
352.8836858012374
 13
0.0
 23
0.0
 14
50.0
 24
50.0
 15
100.0
 25
100.0
 16
0.0
 26
0.0
 36
1.0
 17
0.0
 27
0.0
 37
0.0
 40
1823.699509160113
 41
1.493654822335025
 42
50.0
 43
0.0
 44
0.0
 50
0.0
 51
0.0
 71
     0
 72
  1000
 73
     1
 74
     0
 75
     0
 76
     0
 77
     0
 78
     1
  0
ENDTAB
  0
TABLE
  2
LTYPE
 70
     7
  0
LTYPE
  2
CONTINUOUS
 70
     0
  3
実線
 72
    65
 73
     0
 40
0.0
  0
LTYPE
  2
DASHDOT
 70
     0
  3
____ _ ____ _ ____ _ ____ _ ____ _ ____ _ ____
 72
    65
 73
     4
 40
5.5
 49
4.0
 49
-0.6
 49
0.3
 49
-0.6
  0
LTYPE
  2
DASHED
 70
     0
  3
_ _ _ _ _ _ _ _ _ _ _ _ _ _ _ _ _ _ _ _ _ _ _
 72
    65
 73
     2
 40
1.999999999999999
 49
1.199999999999999
 49
-0.8
  0
LTYPE
  2
DOT
 70
     0
  3
...............................................
 72
    65
 73
     2
 40
0.8
 49
0.5
 49
-0.3
  0
LTYPE
  2
DASHDOT1
 70
     0
  3
____ _ ____ _ ____ _ ____ _ ____ _ ____ _ ____
 72
    65
 73
     4
 40
2.0
 49
1.5
 49
-0.2
 49
0.1
 49
-0.2
  0
LTYPE
  2
DIVIDE
 70
     0
  3
_____ _ _ _____ _ _ _____ _ _ _____ _ _ ____
 72
    65
 73
     6
 40
6.4
 49
4.0
 49
-0.6
 49
0.3
 49
-0.6
 49
0.3
 49
-0.6
  0
LTYPE
  2
DIVIDE1
 70
     0
  3
_____ _ _ _____ _ _ _____ _ _ _____ _ _ ____
 72
    65
 73
     6
 40
3.2
 49
2.0
 49
-0.3
 49
0.15
 49
-0.3
 49
0.15
 49
-0.3
  0
ENDTAB
  0
TABLE
  2
LAYER
 70
    12
  0
LAYER
  2
0
 70
     0
 62
     7
  6
CONTINUOUS
  0
LAYER
  2
OUTLINE
 70
     0
 62
     3
  6
CONTINUOUS
  0
LAYER
  2
DETAIL
 70
     0
 62
     5
  6
CONTINUOUS
  0
LAYER
  2
BASIS
 70
     0
 62
     6
  6
DASHDOT
  0
LAYER
  2
SIZE
 70
     0
 62
    30
  6
CONTINUOUS
  0
LAYER
  2
NOTE
 70
     0
 62
     4
  6
CONTINUOUS
  0
LAYER
  2
DEFPOINTS
 70
     0
 62
     7
  6
CONTINUOUS
  0
LAYER
  2
ETC
 70
     0
 62
    61
  6
CONTINUOUS
  0
LAYER
  2
ARRANGE
 70
     0
 62
     1
  6
CONTINUOUS
  0
LAYER
  2
FIX
 70
     0
 62
    11
  6
CONTINUOUS
  0
LAYER
  2
SERVICESPACE
 70
     0
 62
     2
  6
DASHDOT
  0
LAYER
  2
SYMBOLLINE
 70
     0
 62
    15
  6
CONTINUOUS
  0
ENDTAB
  0
TABLE
  2
STYLE
 70
     1
  0
STYLE
  2
STANDARD
 70
     0
 40
0.0
 41
0.9
 50
0.0
 71
     0
 42
64.0
  3
SIMPLEX
  4
BIGFONT
  0
ENDTAB
  0
TABLE
  2
VIEW
 70
     1
  0
VIEW
  2
ALL
 70
     0
 40
4282.619807999997
 10
0.0
 20
41.30990399999999
 41
5940.0
 11
0.0
 21
0.0
 31
1.0
 12
0.0
 22
0.0
 32
0.0
 42
50.0
 43
0.0
 44
0.0
 50
0.0
 71
     0
  0
ENDTAB
  0
TABLE
  2
UCS
 70
     0
  0
ENDTAB
  0
TABLE
  2
APPID
 70
     1
  0
APPID
  2
ACAD
 70
     0
  0
ENDTAB
  0
TABLE
  2
DIMSTYLE
 70
     1
  0
DIMSTYLE
  2
STANDARD
 70
     0
  3

  4

  5

  6

  7

 40
1.0
 41
0.18
 42
0.0625
 43
0.38
 44
0.18
 45
0.0
 46
0.0
 47
0.0
 48
0.0
140
0.18
141
0.09
142
0.0
143
25.4
144
1.0
145
0.0
146
1.0
147
0.09
 71
     0
 72
     0
 73
     1
 74
     1
 75
     0
 76
     0
 77
     0
 78
     0
170
     0
171
     2
172
     0
173
     0
174
     0
175
     0
176
     0
177
     0
178
     0
  0
ENDTAB
  0
ENDSEC
  0
SECTION
  2
BLOCKS
  0
BLOCK
  8
0
  2
$MODEL_SPACE
 70
     0
 10
0.0
 20
0.0
 30
0.0
  3
$MODEL_SPACE
  1

  0
ENDBLK
  5
1E5
  8
0
  0
BLOCK
 67
     1
  8
0
  2
$PAPER_SPACE
 70
     0
 10
0.0
 20
0.0
 30
0.0
  3
$PAPER_SPACE
  1

  0
ENDBLK
  5
1E1
 67
     1
  8
0
  0
ENDSEC
  0
SECTION
  2
ENTITIES
  0
LINE
  5
203
  8
NOTE
  6
CONTINUOUS
 62
     4
 10
306.9999999999999
 20
0.0
 30
0.0
 11
392.1751189999999
 21
130.3026854999999
 31
0.0
  0
LINE
  5
204
  8
NOTE
  6
CONTINUOUS
 62
     4
 10
392.1751189999999
 20
130.3026854999999
 30
0.0
 11
501.201743
 21
130.3026854999999
 31
0.0
  0
LINE
  5
205
  8
BASIS
  6
DASHDOT
 62
     6
 10
0.0
 20
254.1974207193784
 30
0.0
 11
0.0
 21
-306.7539459999998
 31
0.0
  0
LINE
  5
206
  8
DETAIL
  6
CONTINUOUS
 62
     5
 10
-306.9999999999998
 20
173.9999999999999
 30
0.0
 11
-306.9999999999998
 21
0.0
 31
0.0
  0
LINE
  5
207
  8
DETAIL
  6
CONTINUOUS
 62
     5
 10
306.9999999999999
 20
173.9999999999999
 30
0.0
 11
306.9999999999999
 21
0.0
 31
0.0
  0
LINE
  5
208
  8
DETAIL
  6
CONTINUOUS
 62
     5
 10
354.9999999999999
 20
0.0
 30
0.0
 11
354.9999999999999
 21
-213.9999999999999
 31
0.0
  0
LINE
  5
209
  8
DETAIL
  6
CONTINUOUS
 62
     5
 10
-354.9999999999998
 20
0.0
 30
0.0
 11
-354.9999999999998
 21
-213.9999999999999
 31
0.0
  0
LINE
  5
20A
  8
NOTE
  6
CONTINUOUS
 62
     4
 10
325.0000000000001
 20
0.0
 30
0.0
 11
448.873138
 21
-102.6040129999999
 31
0.0
  0
LINE
  5
20B
  8
NOTE
  6
CONTINUOUS
 62
     4
 10
448.873138
 20
-102.6040129999999
 30
0.0
 11
741.8410579999997
 21
-102.6040129999999
 31
0.0
  0
LINE
  5
20C
  8
DETAIL
  6
CONTINUOUS
 62
     5
 10
-309.9999999999998
 20
0.0
 30
0.0
 11
-265.5000049999999
 21
0.0
 31
0.0
  0
LINE
  5
20D
  8
DETAIL
  6
CONTINUOUS
 62
     5
 10
265.5000049999999
 20
0.0
 30
0.0
 11
309.9999999999999
 21
0.0
 31
0.0
  0
LINE
  5
20E
  8
DETAIL
  6
CONTINUOUS
 62
     5
 10
-354.9999999999998
 20
0.0
 30
0.0
 11
354.9999999999999
 21
0.0
 31
0.0
  0
TEXT
  5
20F
  8
NOTE
  6
CONTINUOUS
 62
     4
 10
403.2055645714286
 20
145.0694104999998
 30
0.0
 40
64.0
  1
EL
 41
0.9
  0
TEXT
  5
210
  8
NOTE
  6
CONTINUOUS
 62
     4
 10
451.4058169999998
 20
-76.33802699999998
 30
0.0
 40
64.0
  1
4-φ14
 41
0.9
  0
LINE
  5
211
  8
DETAIL
  6
CONTINUOUS
 62
     5
 10
-291.9999999999998
 20
188.9999999999998
 30
0.0
 11
292.0
 21
188.9999999999998
 31
0.0
  0
LINE
  5
212
  8
DETAIL
  6
CONTINUOUS
 62
     5
 10
-324.9999999999998
 20
-243.9999999999999
 30
0.0
 11
325.0000000000001
 21
-243.9999999999999
 31
0.0
  0
ARC
  5
213
  8
DETAIL
  6
CONTINUOUS
 62
     5
 10
-324.9999999999998
 20
-213.9999999999999
 30
0.0
 40
30.0
 50
180.0
 51
270.0
  0
ARC
  5
214
  8
DETAIL
  6
CONTINUOUS
 62
     5
 10
325.0000000000001
 20
-213.9999999999999
 30
0.0
 40
30.0
 50
270.0
 51
0.0
  0
LINE
  5
215
  8
SIZE
  6
BYBLOCK
 62
    30
 10
-344.9999999999998
 20
-243.9999999999999
 30
0.0
 11
-696.919972
 21
-243.9999999999999
 31
0.0
  0
LINE
  5
216
  8
SIZE
  6
BYBLOCK
 62
    30
 10
-374.9999999999998
 20
0.0
 30
0.0
 11
-696.919972
 21
0.0
 31
0.0
  0
LINE
  5
217
  8
SIZE
  6
BYBLOCK
 62
    30
 10
-666.9199719999997
 20
-241.9999999999999
 30
0.0
 11
-666.9199719999997
 21
-2.0
 31
0.0
  0
TEXT
  5
218
  8
SIZE
  6
BYBLOCK
 62
    30
 10
-698.9199719999999
 20
-197.4285709999999
 30
0.0
 40
64.0
  1
244
 50
90.0
 41
0.9
  0
LINE
  5
219
  8
SIZE
  6
BYBLOCK
 62
    30
 10
-364.9999999999997
 20
0.0
 30
0.0
 11
-696.919972
 21
0.0
 31
0.0
  0
LINE
  5
21A
  8
SIZE
  6
BYBLOCK
 62
    30
 10
-317.7372256936495
 20
188.9999999999998
 30
0.0
 11
-696.919972
 21
188.9999999999998
 31
0.0
  0
LINE
  5
21B
  8
SIZE
  6
BYBLOCK
 62
    30
 10
-666.9199719999997
 20
2.0
 30
0.0
 11
-666.9199719999997
 21
186.9999999999998
 31
0.0
  0
TEXT
  5
21C
  8
SIZE
  6
BYBLOCK
 62
    30
 10
-698.9199719999999
 20
27.30000000000001
 30
0.0
 40
64.0
  1
189
 50
90.0
 41
0.9
  0
LINE
  5
21D
  8
SIZE
  6
BYBLOCK
 62
    30
 10
-354.9999999999998
 20
20.0
 30
0.0
 11
-354.9999999999998
 21
752.5382986662527
 31
0.0
  0
LINE
  5
21E
  8
SIZE
  6
BYBLOCK
 62
    30
 10
354.9999999999999
 20
20.0
 30
0.0
 11
354.9999999999999
 21
752.5382986662527
 31
0.0
  0
LINE
  5
21F
  8
SIZE
  6
BYBLOCK
 62
    30
 10
-352.9999999999998
 20
720.8886744441752
 30
0.0
 11
352.9999999999999
 21
720.8886744441752
 31
0.0
  0
TEXT
  5
220
  8
SIZE
  6
BYBLOCK
 62
    30
 10
-68.57142899999998
 20
752.8886744441749
 30
0.0
 40
64.0
  1
710
 41
0.9
  0
LINE
  5
221
  8
SIZE
  6
BYBLOCK
 62
    30
 10
-324.9999999999998
 20
39.99999999999994
 30
0.0
 11
-324.9999999999998
 21
586.8628152467553
 31
0.0
  0
LINE
  5
222
  8
SIZE
  6
BYBLOCK
 62
    30
 10
325.0000000000001
 20
39.99999999999994
 30
0.0
 11
325.0000000000001
 21
588.8832493268227
 31
0.0
  0
LINE
  5
223
  8
SIZE
  6
BYBLOCK
 62
    30
 10
-322.9999999999998
 20
556.059292444175
 30
0.0
 11
322.9999999999999
 21
556.059292444175
 31
0.0
  0
TEXT
  5
224
  8
SIZE
  6
BYBLOCK
 62
    30
 10
-74.057143
 20
588.0592924441751
 30
0.0
 40
64.0
  1
650
 41
0.9
  0
LINE
  5
225
  8
SIZE
  6
BYBLOCK
 62
    30
 10
-306.9999999999998
 20
208.9999999999999
 30
0.0
 11
-306.9999999999998
 21
437.3507955761149
 31
0.0
  0
LINE
  5
226
  8
SIZE
  6
BYBLOCK
 62
    30
 10
-304.9999999999998
 20
403.0034384441751
 30
0.0
 11
304.9999999999999
 21
403.0034384441751
 31
0.0
  0
TEXT
  5
227
  8
SIZE
  6
BYBLOCK
 62
    30
 10
-102.5828569999999
 20
435.0034384441751
 30
0.0
 40
64.0
  1
□614
 41
0.9
  0
CIRCLE
  5
228
  8
SIZE
  6
CONTINUOUS
 62
    30
 10
306.9999999999999
 20
403.0034384441751
 30
0.0
 40
6.0
  0
CIRCLE
  5
229
  8
SIZE
  6
CONTINUOUS
 62
    30
 10
-306.9999999999998
 20
403.0034384441751
 30
0.0
 40
6.0
  0
CIRCLE
  5
22A
  8
SIZE
  6
CONTINUOUS
 62
    30
 10
325.0000000000001
 20
556.059292444175
 30
0.0
 40
6.0
  0
CIRCLE
  5
22B
  8
SIZE
  6
CONTINUOUS
 62
    30
 10
-324.9999999999998
 20
556.059292444175
 30
0.0
 40
6.0
  0
CIRCLE
  5
22C
  8
SIZE
  6
CONTINUOUS
 62
    30
 10
354.9999999999999
 20
720.8886744441752
 30
0.0
 40
6.0
  0
CIRCLE
  5
22D
  8
SIZE
  6
CONTINUOUS
 62
    30
 10
-354.9999999999998
 20
720.8886744441752
 30
0.0
 40
6.0
  0
CIRCLE
  5
22E
  8
SIZE
  6
CONTINUOUS
 62
    30
 10
-666.9199719999997
 20
188.9999999999998
 30
0.0
 40
6.0
  0
CIRCLE
  5
22F
  8
SIZE
  6
CONTINUOUS
 62
    30
 10
-666.9199719999997
 20
0.0
 30
0.0
 40
6.0
  0
CIRCLE
  5
230
  8
SIZE
  6
CONTINUOUS
 62
    30
 10
-666.9199719999997
 20
0.0
 30
0.0
 40
6.0
  0
CIRCLE
  5
231
  8
SIZE
  6
CONTINUOUS
 62
    30
 10
-666.9199719999997
 20
-243.9999999999999
 30
0.0
 40
6.0
  0
LINE
  5
232
  8
NOTE
  6
CONTINUOUS
 62
     4
 10
325.0000000000001
 20
-20.00000000000001
 30
0.0
 11
325.0000000000001
 21
20.0
 31
0.0
  0
LINE
  5
233
  8
NOTE
  6
CONTINUOUS
 62
     4
 10
304.9999999999999
 20
0.0
 30
0.0
 11
345.0000000000001
 21
0.0
 31
0.0
  0
LINE
  5
234
  8
NOTE
  6
CONTINUOUS
 62
     4
 10
306.9999999999999
 20
-20.00000000000001
 30
0.0
 11
306.9999999999999
 21
20.0
 31
0.0
  0
LINE
  5
235
  8
NOTE
  6
CONTINUOUS
 62
     4
 10
287.0000000000001
 20
0.0
 30
0.0
 11
326.9999999999999
 21
0.0
 31
0.0
  0
LINE
  5
236
  8
NOTE
  6
CONTINUOUS
 62
     4
 10
-324.9999999999998
 20
-20.00000000000001
 30
0.0
 11
-324.9999999999998
 21
20.0
 31
0.0
  0
LINE
  5
237
  8
NOTE
  6
CONTINUOUS
 62
     4
 10
-344.9999999999998
 20
0.0
 30
0.0
 11
-304.9999999999998
 21
0.0
 31
0.0
  0
TEXT
  5
238
  8
ETC
  6
CONTINUOUS
 62
    61
 10
470.5500972763814
 20
815.1377711496743
 30
0.0
 40
64.0
  1
EGG-60MSTB2_6
 41
0.9
  0
TEXT
  5
239
  8
ETC
  6
CONTINUOUS
 62
    61
 10
566.8300026251723
 20
633.3327679674175
 30
0.0
 40
50.0
  1
EGG-60MSTB2
 41
0.9
  0
TEXT
  5
23A
  8
ETC
  6
CONTINUOUS
 62
    61
 10
462.4766192763814
 20
711.8539443578501
 30
0.0
 40
64.0
  1
産業扇
 41
0.9
  0
LINE
  5
23B
  8
SIZE
  6
BYBLOCK
 62
    30
 10
-315.7159485514829
 20
231.9999999999999
 30
0.0
 11
-696.919972
 21
231.9999999999999
 31
0.0
  0
LINE
  5
23C
  8
SIZE
  6
BYBLOCK
 62
    30
 10
306.9999999999999
 20
208.9999999999999
 30
0.0
 11
306.9999999999999
 21
437.3507955761149
 31
0.0
  0
LINE
  5
23D
  8
DETAIL
  6
CONTINUOUS
 62
     5
 10
-291.9999999999998
 20
231.9999999999999
 30
0.0
 11
292.0
 21
231.9999999999999
 31
0.0
  0
LINE
  5
23E
  8
DETAIL
  6
CONTINUOUS
 62
     5
 10
292.0
 20
231.9999999999999
 30
0.0
 11
292.0
 21
188.9999999999998
 31
0.0
  0
LINE
  5
23F
  8
DETAIL
  6
CONTINUOUS
 62
     5
 10
-291.9999999999998
 20
231.9999999999999
 30
0.0
 11
-291.9999999999998
 21
188.9999999999998
 31
0.0
  0
CIRCLE
  5
240
  8
FIX
  6
CONTINUOUS
 62
    11
 10
-324.9999999999998
 20
0.0
 30
0.0
 40
5.0
  0
CIRCLE
  5
241
  8
FIX
  6
CONTINUOUS
 62
    11
 10
326.9999999999999
 20
0.0
 30
0.0
 40
5.0
  0
LINE
  5
242
  8
SIZE
  6
CONTINUOUS
 62
    30
 10
-666.9199719999997
 20
188.9999999999998
 30
0.0
 11
-666.9199719999997
 21
370.6765153923025
 31
0.0
  0
TEXT
  5
243
  8
SIZE
  6
BYBLOCK
 62
    30
 10
-696.8986948578334
 20
265.7110569518305
 30
0.0
 40
64.0
  1
43
 50
90.0
 41
0.9
  0
CIRCLE
  5
244
  8
SIZE
  6
CONTINUOUS
 62
    30
 10
-666.9199719999997
 20
231.9999999999999
 30
0.0
 40
6.0
  0
ARC
  5
245
  8
DETAIL
  6
CONTINUOUS
 62
     5
 10
-291.9999999999998
 20
173.9999999999999
 30
0.0
 40
15.0
 50
90.0
 51
180.0
  0
ARC
  5
246
  8
DETAIL
  6
CONTINUOUS
 62
     5
 10
292.0
 20
173.9999999999999
 30
0.0
 40
15.0
 50
0.0
 51
90.0
  0
POINT
  5
247
  8
ARRANGE
  6
CONTINUOUS
 62
     1
 10
0.0
 20
0.0
 30
0.0
  0
CIRCLE
  5
248
  8
ARRANGE
  6
CONTINUOUS
 62
     1
 10
0.0
 20
0.0
 30
0.0
 40
54.48275999999999
  0
LINE
  5
249
  8
OUTLINE
  6
CONTINUOUS
 62
     3
 10
-324.9999999999998
 20
-243.9999999999999
 30
0.0
 11
325.0000000000001
 21
-243.9999999999999
 31
0.0
  0
LINE
  5
24A
  8
OUTLINE
  6
CONTINUOUS
 62
     3
 10
-291.9999999999998
 20
188.9999999999998
 30
0.0
 11
292.0
 21
188.9999999999998
 31
0.0
  0
LINE
  5
24B
  8
OUTLINE
  6
CONTINUOUS
 62
     3
 10
-354.9999999999998
 20
0.0
 30
0.0
 11
-354.9999999999998
 21
-213.9999999999999
 31
0.0
  0
ARC
  5
24C
  8
OUTLINE
  6
CONTINUOUS
 62
     3
 10
-324.9999999999998
 20
-213.9999999999999
 30
0.0
 40
30.0
 50
180.0
 51
270.0
  0
LINE
  5
24D
  8
OUTLINE
  6
CONTINUOUS
 62
     3
 10
-306.9999999999998
 20
173.9999999999999
 30
0.0
 11
-306.9999999999998
 21
0.0
 31
0.0
  0
ARC
  5
24E
  8
OUTLINE
  6
CONTINUOUS
 62
     3
 10
-291.9999999999998
 20
173.9999999999999
 30
0.0
 40
15.0
 50
90.0
 51
180.0
  0
LINE
  5
24F
  8
OUTLINE
  6
CONTINUOUS
 62
     3
 10
354.9999999999999
 20
0.0
 30
0.0
 11
354.9999999999999
 21
-213.9999999999999
 31
0.0
  0
ARC
  5
250
  8
OUTLINE
  6
CONTINUOUS
 62
     3
 10
325.0000000000001
 20
-213.9999999999999
 30
0.0
 40
30.0
 50
270.0
 51
0.0
  0
LINE
  5
251
  8
OUTLINE
  6
CONTINUOUS
 62
     3
 10
306.9999999999999
 20
173.9999999999999
 30
0.0
 11
306.9999999999999
 21
0.0
 31
0.0
  0
ARC
  5
252
  8
OUTLINE
  6
CONTINUOUS
 62
     3
 10
292.0
 20
173.9999999999999
 30
0.0
 40
15.0
 50
0.0
 51
90.0
  0
LINE
  5
253
  8
NOTE
  6
CONTINUOUS
 62
     4
 10
336.8057699999999
 20
26.67613300000002
 30
0.0
 11
306.9999999999999
 21
0.0
 31
0.0
  0
LINE
  5
254
  8
NOTE
  6
CONTINUOUS
 62
     4
 10
306.9999999999999
 20
0.0
 30
0.0
 11
319.4744880000001
 21
38.00509399999994
 31
0.0
  0
LINE
  5
255
  8
NOTE
  6
CONTINUOUS
 62
     4
 10
361.3470719999998
 20
-16.70001200000002
 30
0.0
 11
325.0000000000001
 21
0.0
 31
0.0
  0
LINE
  5
256
  8
NOTE
  6
CONTINUOUS
 62
     4
 10
325.0000000000001
 20
0.0
 30
0.0
 11
348.127482
 21
-32.63616999999999
 31
0.0
  0
LINE
  5
257
  8
OUTLINE
  6
CONTINUOUS
 62
     3
 10
-354.9999999999998
 20
0.0
 30
0.0
 11
354.9999999999999
 21
0.0
 31
0.0
  0
ENDSEC
  0
EOF
