  0
SECTION
  2
HEADER
  9
$ACADVER
  1
AC1009
  9
$DWGCODEPAGE
  3
ansi_932
  9
$INSBASE
 10
0.0
 20
0.0
 30
0.0
  9
$EXTMIN
 10
105.8969535215023
 20
-419.5735391536914
 30
0.0
  9
$EXTMAX
 10
1745.259153387171
 20
889.5853694061111
 30
50.0
  9
$LIMMIN
 10
-2970.0
 20
-2100.0
  9
$LIMMAX
 10
2970.0
 20
2100.0
  9
$ORTHOMODE
 70
     1
  9
$REGENMODE
 70
     0
  9
$FILLMODE
 70
     1
  9
$QTEXTMODE
 70
     0
  9
$MIRRTEXT
 70
     0
  9
$DRAGMODE
 70
     2
  9
$LTSCALE
 40
20.0
  9
$OSMODE
 70
    37
  9
$ATTMODE
 70
     1
  9
$TEXTSIZE
 40
64.0
  9
$TRACEWID
 40
0.05
  9
$TEXTSTYLE
  7
STANDARD
  9
$CLAYER
  8
OUTLINE
  9
$CELTYPE
  6
CONTINUOUS
  9
$CECOLOR
 62
     3
  9
$DIMSCALE
 40
1.0
  9
$DIMASZ
 40
2.0
  9
$DIMEXO
 40
20.0
  9
$DIMDLI
 40
200.0
  9
$DIMRND
 40
0.0
  9
$DIMDLE
 40
0.0
  9
$DIMEXE
 40
30.0
  9
$DIMTP
 40
0.0
  9
$DIMTM
 40
0.0
  9
$DIMTXT
 40
64.0
  9
$DIMCEN
 40
0.09
  9
$DIMTSZ
 40
0.0
  9
$DIMTOL
 70
     0
  9
$DIMLIM
 70
     0
  9
$DIMTIH
 70
     0
  9
$DIMTOH
 70
     0
  9
$DIMSE1
 70
     0
  9
$DIMSE2
 70
     0
  9
$DIMTAD
 70
     1
  9
$DIMZIN
 70
     8
  9
$DIMBLK
  1

  9
$DIMASO
 70
     1
  9
$DIMSHO
 70
     0
  9
$DIMPOST
  1

  9
$DIMAPOST
  1

  9
$DIMALT
 70
     0
  9
$DIMALTD
 70
     2
  9
$DIMALTF
 40
25.4
  9
$DIMLFAC
 40
1.0
  9
$DIMTOFL
 70
     1
  9
$DIMTVP
 40
0.0
  9
$DIMTIX
 70
     1
  9
$DIMSOXD
 70
     0
  9
$DIMSAH
 70
     0
  9
$DIMBLK1
  1

  9
$DIMBLK2
  1

  9
$DIMSTYLE
  2
STANDARD
  9
$DIMCLRD
 70
     0
  9
$DIMCLRE
 70
     0
  9
$DIMCLRT
 70
     0
  9
$DIMTFAC
 40
1.0
  9
$DIMGAP
 40
0.09
  9
$LUNITS
 70
     2
  9
$LUPREC
 70
     4
  9
$SKETCHINC
 40
0.1
  9
$FILLETRAD
 40
15.0
  9
$AUNITS
 70
     1
  9
$AUPREC
 70
     3
  9
$MENU
  1
ACAD
  9
$ELEVATION
 40
0.0
  9
$PELEVATION
 40
0.0
  9
$THICKNESS
 40
0.0
  9
$LIMCHECK
 70
     0
  9
$CHAMFERA
 40
0.0
  9
$CHAMFERB
 40
0.0
  9
$SKPOLY
 70
     0
  9
$TDCREATE
 40
2450968.596921285
  9
$TDUPDATE
 40
2457485.556167963
  9
$TDINDWG
 40
0.0507577431
  9
$TDUSRTIMER
 40
0.0507575579
  9
$USRTIMER
 70
     1
  9
$ANGBASE
 50
0.0
  9
$ANGDIR
 70
     0
  9
$PDMODE
 70
     3
  9
$PDSIZE
 40
-2.0
  9
$PLINEWID
 40
0.0
  9
$COORDS
 70
     1
  9
$SPLFRAME
 70
     0
  9
$SPLINETYPE
 70
     6
  9
$SPLINESEGS
 70
     8
  9
$ATTDIA
 70
     0
  9
$ATTREQ
 70
     1
  9
$HANDLING
 70
     1
  9
$HANDSEED
  5
707
  9
$SURFTAB1
 70
     6
  9
$SURFTAB2
 70
     6
  9
$SURFTYPE
 70
     6
  9
$SURFU
 70
     6
  9
$SURFV
 70
     6
  9
$UCSNAME
  2

  9
$UCSORG
 10
0.0
 20
0.0
 30
0.0
  9
$UCSXDIR
 10
1.0
 20
0.0
 30
0.0
  9
$UCSYDIR
 10
0.0
 20
1.0
 30
0.0
  9
$PUCSNAME
  2

  9
$PUCSORG
 10
0.0
 20
0.0
 30
0.0
  9
$PUCSXDIR
 10
1.0
 20
0.0
 30
0.0
  9
$PUCSYDIR
 10
0.0
 20
1.0
 30
0.0
  9
$USERI1
 70
     0
  9
$USERI2
 70
     0
  9
$USERI3
 70
     0
  9
$USERI4
 70
     0
  9
$USERI5
 70
     0
  9
$USERR1
 40
20.0
  9
$USERR2
 40
0.0
  9
$USERR3
 40
0.0
  9
$USERR4
 40
0.0
  9
$USERR5
 40
0.0
  9
$WORLDVIEW
 70
     1
  9
$SHADEDGE
 70
     3
  9
$SHADEDIF
 70
    70
  9
$TILEMODE
 70
     1
  9
$MAXACTVP
 70
    64
  9
$PLIMCHECK
 70
     0
  9
$PEXTMIN
 10
1.000000000000000E+20
 20
1.000000000000000E+20
 30
1.000000000000000E+20
  9
$PEXTMAX
 10
-1.000000000000000E+20
 20
-1.000000000000000E+20
 30
-1.000000000000000E+20
  9
$PLIMMIN
 10
0.0
 20
0.0
  9
$PLIMMAX
 10
12.0
 20
9.0
  9
$UNITMODE
 70
     0
  9
$VISRETAIN
 70
     1
  9
$PLINEGEN
 70
     0
  9
$PSLTSCALE
 70
     1
  0
ENDSEC
  0
SECTION
  2
TABLES
  0
TABLE
  2
VPORT
 70
     1
  0
VPORT
  2
*ACTIVE
 70
     0
 10
0.0
 20
0.0
 11
1.0
 21
1.0
 12
905.6426488581591
 22
233.6985461819931
 13
0.0
 23
0.0
 14
50.0
 24
50.0
 15
100.0
 25
100.0
 16
0.0
 26
0.0
 36
1.0
 17
0.0
 27
0.0
 37
0.0
 40
1820.906108667237
 41
1.493654822335025
 42
50.0
 43
0.0
 44
0.0
 50
0.0
 51
0.0
 71
     0
 72
  1000
 73
     1
 74
     0
 75
     0
 76
     0
 77
     0
 78
     1
  0
ENDTAB
  0
TABLE
  2
LTYPE
 70
     7
  0
LTYPE
  2
CONTINUOUS
 70
     0
  3
実線
 72
    65
 73
     0
 40
0.0
  0
LTYPE
  2
DASHDOT
 70
     0
  3
____ _ ____ _ ____ _ ____ _ ____ _ ____ _ ____
 72
    65
 73
     4
 40
5.5
 49
4.0
 49
-0.6
 49
0.3
 49
-0.6
  0
LTYPE
  2
DASHED
 70
     0
  3
_ _ _ _ _ _ _ _ _ _ _ _ _ _ _ _ _ _ _ _ _ _ _
 72
    65
 73
     2
 40
1.999999999999999
 49
1.199999999999999
 49
-0.8
  0
LTYPE
  2
DOT
 70
     0
  3
...............................................
 72
    65
 73
     2
 40
0.8
 49
0.5
 49
-0.3
  0
LTYPE
  2
DASHDOT1
 70
     0
  3
____ _ ____ _ ____ _ ____ _ ____ _ ____ _ ____
 72
    65
 73
     4
 40
2.0
 49
1.5
 49
-0.2
 49
0.1
 49
-0.2
  0
LTYPE
  2
DIVIDE
 70
     0
  3
_____ _ _ _____ _ _ _____ _ _ _____ _ _ ____
 72
    65
 73
     6
 40
6.4
 49
4.0
 49
-0.6
 49
0.3
 49
-0.6
 49
0.3
 49
-0.6
  0
LTYPE
  2
DIVIDE1
 70
     0
  3
_____ _ _ _____ _ _ _____ _ _ _____ _ _ ____
 72
    65
 73
     6
 40
3.2
 49
2.0
 49
-0.3
 49
0.15
 49
-0.3
 49
0.15
 49
-0.3
  0
ENDTAB
  0
TABLE
  2
LAYER
 70
    12
  0
LAYER
  2
0
 70
     0
 62
     7
  6
CONTINUOUS
  0
LAYER
  2
OUTLINE
 70
     0
 62
     3
  6
CONTINUOUS
  0
LAYER
  2
DETAIL
 70
     0
 62
     5
  6
CONTINUOUS
  0
LAYER
  2
BASIS
 70
     0
 62
     6
  6
DASHDOT
  0
LAYER
  2
SIZE
 70
     0
 62
    30
  6
CONTINUOUS
  0
LAYER
  2
NOTE
 70
     0
 62
     4
  6
CONTINUOUS
  0
LAYER
  2
DEFPOINTS
 70
     0
 62
     7
  6
CONTINUOUS
  0
LAYER
  2
ETC
 70
     0
 62
    61
  6
CONTINUOUS
  0
LAYER
  2
ARRANGE
 70
     0
 62
     1
  6
CONTINUOUS
  0
LAYER
  2
FIX
 70
     0
 62
    11
  6
CONTINUOUS
  0
LAYER
  2
SERVICESPACE
 70
     0
 62
     2
  6
DASHDOT
  0
LAYER
  2
SYMBOLLINE
 70
     0
 62
    15
  6
CONTINUOUS
  0
ENDTAB
  0
TABLE
  2
STYLE
 70
     1
  0
STYLE
  2
STANDARD
 70
     0
 40
0.0
 41
0.9
 50
0.0
 71
     0
 42
64.0
  3
SIMPLEX
  4
BIGFONT
  0
ENDTAB
  0
TABLE
  2
VIEW
 70
     1
  0
VIEW
  2
ALL
 70
     0
 40
4282.619807999997
 10
0.0
 20
41.30990399999999
 41
5940.0
 11
0.0
 21
0.0
 31
1.0
 12
0.0
 22
0.0
 32
0.0
 42
50.0
 43
0.0
 44
0.0
 50
0.0
 71
     0
  0
ENDTAB
  0
TABLE
  2
UCS
 70
     0
  0
ENDTAB
  0
TABLE
  2
APPID
 70
     1
  0
APPID
  2
ACAD
 70
     0
  0
ENDTAB
  0
TABLE
  2
DIMSTYLE
 70
     1
  0
DIMSTYLE
  2
STANDARD
 70
     0
  3

  4

  5

  6

  7

 40
1.0
 41
0.18
 42
0.0625
 43
0.38
 44
0.18
 45
0.0
 46
0.0
 47
0.0
 48
0.0
140
0.18
141
0.09
142
0.0
143
25.4
144
1.0
145
0.0
146
1.0
147
0.09
 71
     0
 72
     0
 73
     1
 74
     1
 75
     0
 76
     0
 77
     0
 78
     0
170
     0
171
     2
172
     0
173
     0
174
     0
175
     0
176
     0
177
     0
178
     0
  0
ENDTAB
  0
ENDSEC
  0
SECTION
  2
BLOCKS
  0
BLOCK
  8
0
  2
$MODEL_SPACE
 70
     0
 10
0.0
 20
0.0
 30
0.0
  3
$MODEL_SPACE
  1

  0
ENDBLK
  5
48C
  8
0
  0
BLOCK
 67
     1
  8
0
  2
$PAPER_SPACE
 70
     0
 10
0.0
 20
0.0
 30
0.0
  3
$PAPER_SPACE
  1

  0
ENDBLK
  5
488
 67
     1
  8
0
  0
BLOCK
  8
0
  2
DOT1
 70
     0
 10
0.0
 20
0.0
 30
0.0
  3
DOT1
  1

  0
CIRCLE
  5
4AC
  8
SIZE
  6
CONTINUOUS
 62
     7
 10
0.0
 20
0.0
 30
0.0
 40
3.0
  0
ENDBLK
  5
4AD
  8
0
  0
BLOCK
  8
0
  2
_ORIGIN
 70
     0
 10
0.0
 20
0.0
 30
0.0
  3
_ORIGIN
  1

  0
CIRCLE
  5
4B0
  8
0
  6
CONTINUOUS
 62
     7
 10
0.0
 20
0.0
 30
0.0
 40
0.5
  0
LINE
  5
4B1
  8
0
  6
CONTINUOUS
 62
     7
 10
0.0
 20
0.0
 30
0.0
 11
-1.0
 21
0.0
 31
0.0
  0
ENDBLK
  5
4B2
  8
0
  0
ENDSEC
  0
SECTION
  2
ENTITIES
  0
LINE
  5
4B3
  8
NOTE
  6
CONTINUOUS
 62
     4
 10
0.0
 20
324.9999999999998
 30
0.0
 11
260.6053710000001
 21
495.3502379999999
 31
0.0
  0
LINE
  5
4B4
  8
NOTE
  6
CONTINUOUS
 62
     4
 10
-135.299834
 20
-470.3465849999998
 30
0.0
 11
-244.3264579999999
 21
-470.3465849999998
 31
0.0
  0
LINE
  5
4B5
  8
DETAIL
  6
CONTINUOUS
 62
     5
 10
174.0000000000001
 20
306.9999999999998
 30
0.0
 11
0.0
 21
306.9999999999998
 31
0.0
  0
LINE
  5
4B6
  8
DETAIL
  6
CONTINUOUS
 62
     5
 10
174.0000000000001
 20
-307.0
 30
0.0
 11
0.0
 21
-307.0
 31
0.0
  0
LINE
  5
4B7
  8
DETAIL
  6
CONTINUOUS
 62
     5
 10
0.0
 20
-354.0
 30
0.0
 11
-213.9999999999999
 21
-354.0
 31
0.0
  0
LINE
  5
4B8
  8
DETAIL
  6
CONTINUOUS
 62
     5
 10
0.0
 20
353.9999999999999
 30
0.0
 11
-213.9999999999999
 21
353.9999999999999
 31
0.0
  0
LINE
  5
4B9
  8
NOTE
  6
CONTINUOUS
 62
     4
 10
0.0
 20
-307.0
 30
0.0
 11
-135.299834
 21
-470.3465849999998
 31
0.0
  0
LINE
  5
4BA
  8
NOTE
  6
CONTINUOUS
 62
     4
 10
260.6053710000001
 20
495.3502379999999
 30
0.0
 11
553.5732899999999
 21
495.3502379999999
 31
0.0
  0
LINE
  5
4BB
  8
DETAIL
  6
CONTINUOUS
 62
     5
 10
0.0
 20
310.0
 30
0.0
 11
0.0
 21
265.5000049999998
 31
0.0
  0
LINE
  5
4BC
  8
DETAIL
  6
CONTINUOUS
 62
     5
 10
0.0
 20
-265.5000049999999
 30
0.0
 11
0.0
 21
-310.0
 31
0.0
  0
LINE
  5
4BD
  8
DETAIL
  6
CONTINUOUS
 62
     5
 10
0.0
 20
353.9999999999999
 30
0.0
 11
0.0
 21
-354.0
 31
0.0
  0
TEXT
  5
4BE
  8
NOTE
  6
CONTINUOUS
 62
     4
 10
-231.3588509999999
 20
-455.579859
 30
0.0
 40
64.0
  1
EL
 41
0.9
  0
TEXT
  5
4BF
  8
NOTE
  6
CONTINUOUS
 62
     4
 10
263.1380490000001
 20
521.6162249999999
 30
0.0
 40
64.0
  1
4-φ14
 41
0.9
  0
LINE
  5
4C0
  8
DETAIL
  6
CONTINUOUS
 62
     5
 10
188.9999999999999
 20
291.9999999999999
 30
0.0
 11
188.9999999999999
 21
-291.9999999999999
 31
0.0
  0
LINE
  5
4C1
  8
DETAIL
  6
CONTINUOUS
 62
     5
 10
-243.9999999999999
 20
323.9999999999998
 30
0.0
 11
-243.9999999999999
 21
-324.0
 31
0.0
  0
LINE
  5
4C2
  8
BASIS
  6
DASHDOT
 62
     6
 10
261.1902470000001
 20
0.0
 30
0.0
 11
-311.131292
 21
0.0
 31
0.0
  0
LINE
  5
4C3
  8
DETAIL
  6
CONTINUOUS
 62
     5
 10
-243.9999999999999
 20
-301.1908239999999
 30
0.0
 11
0.0
 21
-301.1908239999999
 31
0.0
  0
LINE
  5
4C4
  8
DETAIL
  6
CONTINUOUS
 62
     5
 10
-243.9999999999999
 20
301.1908239999999
 30
0.0
 11
0.0
 21
301.1908239999999
 31
0.0
  0
LINE
  5
4C5
  8
DETAIL
  6
CONTINUOUS
 62
     5
 10
-243.9999999999999
 20
100.3969409999999
 30
0.0
 11
-137.6325599999999
 21
100.3969409999999
 31
0.0
  0
LINE
  5
4C6
  8
DETAIL
  6
CONTINUOUS
 62
     5
 10
-243.9999999999999
 20
94.93316199999984
 30
0.0
 11
-137.6325599999999
 21
94.93316199999984
 31
0.0
  0
LINE
  5
4C7
  8
DETAIL
  6
CONTINUOUS
 62
     5
 10
-243.9999999999999
 20
-94.93316199999995
 30
0.0
 11
-137.6325599999999
 21
-94.93316199999995
 31
0.0
  0
LINE
  5
4C8
  8
DETAIL
  6
CONTINUOUS
 62
     5
 10
-243.9999999999999
 20
-100.396941
 30
0.0
 11
-137.6325599999999
 21
-100.396941
 31
0.0
  0
LINE
  5
4C9
  8
DETAIL
  6
CONTINUOUS
 62
     5
 10
-243.9999999999999
 20
295.7270449999998
 30
0.0
 11
-137.6325599999999
 21
295.7270449999998
 31
0.0
  0
LINE
  5
4CA
  8
DETAIL
  6
CONTINUOUS
 62
     5
 10
-243.9999999999999
 20
290.2632659999999
 30
0.0
 11
-137.6325599999999
 21
290.2632659999999
 31
0.0
  0
LINE
  5
4CB
  8
DETAIL
  6
CONTINUOUS
 62
     5
 10
-243.9999999999999
 20
-295.7270449999999
 30
0.0
 11
-137.6325599999999
 21
-295.7270449999999
 31
0.0
  0
LINE
  5
4CC
  8
DETAIL
  6
CONTINUOUS
 62
     5
 10
-243.9999999999999
 20
-290.263266
 30
0.0
 11
-137.6325599999999
 21
-290.263266
 31
0.0
  0
LINE
  5
4CD
  8
DETAIL
  6
CONTINUOUS
 62
     5
 10
-205.9012920000001
 20
273.1889559999998
 30
0.0
 11
-205.9012920000001
 21
239.0403369999999
 31
0.0
  0
LINE
  5
4CE
  8
DETAIL
  6
CONTINUOUS
 62
     5
 10
-185.4121199999999
 20
273.1889559999998
 30
0.0
 11
-185.4121199999999
 21
239.0403369999999
 31
0.0
  0
ARC
  5
4CF
  8
DETAIL
  6
CONTINUOUS
 62
     5
 10
-195.6567059999999
 20
239.0403369999999
 30
0.0
 40
10.24458599999997
 50
180.0
 51
0.0
  0
ARC
  5
4D0
  8
DETAIL
  6
CONTINUOUS
 62
     5
 10
-195.6567059999999
 20
273.1889559999998
 30
0.0
 40
10.24458599999997
 50
0.0
 51
180.0
  0
LINE
  5
4D1
  8
DETAIL
  6
CONTINUOUS
 62
     5
 10
-185.4121199999999
 20
273.1889559999998
 30
0.0
 11
-185.4121199999999
 21
239.0403369999999
 31
0.0
  0
LINE
  5
4D2
  8
DETAIL
  6
CONTINUOUS
 62
     5
 10
-185.4121199999999
 20
213.0873859999998
 30
0.0
 11
-185.4121199999999
 21
178.938766
 31
0.0
  0
ARC
  5
4D3
  8
DETAIL
  6
CONTINUOUS
 62
     5
 10
-195.6567059999999
 20
213.0873859999998
 30
0.0
 40
10.24458599999997
 50
0.0
 51
180.0
  0
ARC
  5
4D4
  8
DETAIL
  6
CONTINUOUS
 62
     5
 10
-195.6567059999999
 20
178.938766
 30
0.0
 40
10.24458599999997
 50
180.0
 51
0.0
  0
LINE
  5
4D5
  8
DETAIL
  6
CONTINUOUS
 62
     5
 10
-185.4121199999999
 20
213.0873859999998
 30
0.0
 11
-185.4121199999999
 21
178.938766
 31
0.0
  0
LINE
  5
4D6
  8
DETAIL
  6
CONTINUOUS
 62
     5
 10
-205.9012920000001
 20
213.0873859999998
 30
0.0
 11
-205.9012920000001
 21
178.938766
 31
0.0
  0
LINE
  5
4D7
  8
DETAIL
  6
CONTINUOUS
 62
     5
 10
-185.4121199999999
 20
152.9858159999999
 30
0.0
 11
-185.4121199999999
 21
118.8371959999999
 31
0.0
  0
ARC
  5
4D8
  8
DETAIL
  6
CONTINUOUS
 62
     5
 10
-195.6567059999999
 20
152.9858159999999
 30
0.0
 40
10.24458599999997
 50
0.0
 51
180.0
  0
ARC
  5
4D9
  8
DETAIL
  6
CONTINUOUS
 62
     5
 10
-195.6567059999999
 20
118.8371959999999
 30
0.0
 40
10.24458599999997
 50
180.0
 51
0.0
  0
LINE
  5
4DA
  8
DETAIL
  6
CONTINUOUS
 62
     5
 10
-185.4121199999999
 20
152.9858159999999
 30
0.0
 11
-185.4121199999999
 21
118.8371959999999
 31
0.0
  0
LINE
  5
4DB
  8
DETAIL
  6
CONTINUOUS
 62
     5
 10
-205.9012920000001
 20
152.9858159999999
 30
0.0
 11
-205.9012920000001
 21
118.8371959999999
 31
0.0
  0
LINE
  5
4DC
  8
DETAIL
  6
CONTINUOUS
 62
     5
 10
-151.2635010000001
 20
152.9858159999999
 30
0.0
 11
-151.2635010000001
 21
118.8371959999999
 31
0.0
  0
LINE
  5
4DD
  8
DETAIL
  6
CONTINUOUS
 62
     5
 10
-130.7743290000001
 20
152.9858159999999
 30
0.0
 11
-130.7743290000001
 21
118.8371959999999
 31
0.0
  0
ARC
  5
4DE
  8
DETAIL
  6
CONTINUOUS
 62
     5
 10
-141.0189149999999
 20
118.8371959999999
 30
0.0
 40
10.24458599999997
 50
180.0
 51
0.0
  0
ARC
  5
4DF
  8
DETAIL
  6
CONTINUOUS
 62
     5
 10
-141.0189149999999
 20
152.9858159999999
 30
0.0
 40
10.24458599999997
 50
0.0
 51
180.0
  0
LINE
  5
4E0
  8
DETAIL
  6
CONTINUOUS
 62
     5
 10
-130.7743290000001
 20
152.9858159999999
 30
0.0
 11
-130.7743290000001
 21
118.8371959999999
 31
0.0
  0
LINE
  5
4E1
  8
DETAIL
  6
CONTINUOUS
 62
     5
 10
-151.2635010000001
 20
213.0873859999998
 30
0.0
 11
-151.2635010000001
 21
178.938766
 31
0.0
  0
LINE
  5
4E2
  8
DETAIL
  6
CONTINUOUS
 62
     5
 10
-130.7743290000001
 20
213.0873859999998
 30
0.0
 11
-130.7743290000001
 21
178.938766
 31
0.0
  0
ARC
  5
4E3
  8
DETAIL
  6
CONTINUOUS
 62
     5
 10
-141.0189149999999
 20
178.938766
 30
0.0
 40
10.24458599999997
 50
180.0
 51
0.0
  0
ARC
  5
4E4
  8
DETAIL
  6
CONTINUOUS
 62
     5
 10
-141.0189149999999
 20
213.0873859999998
 30
0.0
 40
10.24458599999997
 50
0.0
 51
180.0
  0
LINE
  5
4E5
  8
DETAIL
  6
CONTINUOUS
 62
     5
 10
-130.7743290000001
 20
213.0873859999998
 30
0.0
 11
-130.7743290000001
 21
178.938766
 31
0.0
  0
LINE
  5
4E6
  8
DETAIL
  6
CONTINUOUS
 62
     5
 10
-130.7743290000001
 20
273.1889559999998
 30
0.0
 11
-130.7743290000001
 21
239.0403369999999
 31
0.0
  0
ARC
  5
4E7
  8
DETAIL
  6
CONTINUOUS
 62
     5
 10
-141.0189149999999
 20
273.1889559999998
 30
0.0
 40
10.24458599999997
 50
0.0
 51
180.0
  0
ARC
  5
4E8
  8
DETAIL
  6
CONTINUOUS
 62
     5
 10
-141.0189149999999
 20
239.0403369999999
 30
0.0
 40
10.24458599999997
 50
180.0
 51
0.0
  0
LINE
  5
4E9
  8
DETAIL
  6
CONTINUOUS
 62
     5
 10
-130.7743290000001
 20
273.1889559999998
 30
0.0
 11
-130.7743290000001
 21
239.0403369999999
 31
0.0
  0
LINE
  5
4EA
  8
DETAIL
  6
CONTINUOUS
 62
     5
 10
-151.2635010000001
 20
273.1889559999998
 30
0.0
 11
-151.2635010000001
 21
239.0403369999999
 31
0.0
  0
LINE
  5
4EB
  8
DETAIL
  6
CONTINUOUS
 62
     5
 10
-178.5823959999999
 20
273.1889559999998
 30
0.0
 11
-178.5823959999999
 21
239.0403369999999
 31
0.0
  0
LINE
  5
4EC
  8
DETAIL
  6
CONTINUOUS
 62
     5
 10
-158.0932249999999
 20
273.1889559999998
 30
0.0
 11
-158.0932249999999
 21
239.0403369999999
 31
0.0
  0
ARC
  5
4ED
  8
DETAIL
  6
CONTINUOUS
 62
     5
 10
-168.3378109999999
 20
239.0403369999999
 30
0.0
 40
10.24458599999997
 50
180.0
 51
0.0
  0
ARC
  5
4EE
  8
DETAIL
  6
CONTINUOUS
 62
     5
 10
-168.3378109999999
 20
273.1889559999998
 30
0.0
 40
10.24458599999997
 50
0.0
 51
180.0
  0
LINE
  5
4EF
  8
DETAIL
  6
CONTINUOUS
 62
     5
 10
-158.0932249999999
 20
273.1889559999998
 30
0.0
 11
-158.0932249999999
 21
239.0403369999999
 31
0.0
  0
LINE
  5
4F0
  8
DETAIL
  6
CONTINUOUS
 62
     5
 10
-158.0932249999999
 20
213.0873859999998
 30
0.0
 11
-158.0932249999999
 21
178.938766
 31
0.0
  0
ARC
  5
4F1
  8
DETAIL
  6
CONTINUOUS
 62
     5
 10
-168.3378109999999
 20
213.0873859999998
 30
0.0
 40
10.24458599999997
 50
0.0
 51
180.0
  0
ARC
  5
4F2
  8
DETAIL
  6
CONTINUOUS
 62
     5
 10
-168.3378109999999
 20
178.938766
 30
0.0
 40
10.24458599999997
 50
180.0
 51
0.0
  0
LINE
  5
4F3
  8
DETAIL
  6
CONTINUOUS
 62
     5
 10
-158.0932249999999
 20
213.0873859999998
 30
0.0
 11
-158.0932249999999
 21
178.938766
 31
0.0
  0
LINE
  5
4F4
  8
DETAIL
  6
CONTINUOUS
 62
     5
 10
-178.5823959999999
 20
213.0873859999998
 30
0.0
 11
-178.5823959999999
 21
178.938766
 31
0.0
  0
LINE
  5
4F5
  8
DETAIL
  6
CONTINUOUS
 62
     5
 10
-158.0932249999999
 20
152.9858159999999
 30
0.0
 11
-158.0932249999999
 21
118.8371959999999
 31
0.0
  0
ARC
  5
4F6
  8
DETAIL
  6
CONTINUOUS
 62
     5
 10
-168.3378109999999
 20
152.9858159999999
 30
0.0
 40
10.24458599999997
 50
0.0
 51
180.0
  0
ARC
  5
4F7
  8
DETAIL
  6
CONTINUOUS
 62
     5
 10
-168.3378109999999
 20
118.8371959999999
 30
0.0
 40
10.24458599999997
 50
180.0
 51
0.0
  0
LINE
  5
4F8
  8
DETAIL
  6
CONTINUOUS
 62
     5
 10
-158.0932249999999
 20
152.9858159999999
 30
0.0
 11
-158.0932249999999
 21
118.8371959999999
 31
0.0
  0
LINE
  5
4F9
  8
DETAIL
  6
CONTINUOUS
 62
     5
 10
-178.5823959999999
 20
152.9858159999999
 30
0.0
 11
-178.5823959999999
 21
118.8371959999999
 31
0.0
  0
LINE
  5
4FA
  8
DETAIL
  6
CONTINUOUS
 62
     5
 10
-96.62571000000008
 20
152.9858159999999
 30
0.0
 11
-96.62571000000008
 21
118.8371959999999
 31
0.0
  0
LINE
  5
4FB
  8
DETAIL
  6
CONTINUOUS
 62
     5
 10
-76.13653799999997
 20
152.9858159999999
 30
0.0
 11
-76.13653799999997
 21
118.8371959999999
 31
0.0
  0
ARC
  5
4FC
  8
DETAIL
  6
CONTINUOUS
 62
     5
 10
-86.381124
 20
118.8371959999999
 30
0.0
 40
10.24458599999997
 50
180.0
 51
0.0
  0
ARC
  5
4FD
  8
DETAIL
  6
CONTINUOUS
 62
     5
 10
-86.381124
 20
152.9858159999999
 30
0.0
 40
10.24458599999997
 50
0.0
 51
180.0
  0
LINE
  5
4FE
  8
DETAIL
  6
CONTINUOUS
 62
     5
 10
-76.13653799999997
 20
152.9858159999999
 30
0.0
 11
-76.13653799999997
 21
118.8371959999999
 31
0.0
  0
LINE
  5
4FF
  8
DETAIL
  6
CONTINUOUS
 62
     5
 10
-96.62571000000008
 20
213.0873859999998
 30
0.0
 11
-96.62571000000008
 21
178.938766
 31
0.0
  0
LINE
  5
500
  8
DETAIL
  6
CONTINUOUS
 62
     5
 10
-76.13653799999997
 20
213.0873859999998
 30
0.0
 11
-76.13653799999997
 21
178.938766
 31
0.0
  0
ARC
  5
501
  8
DETAIL
  6
CONTINUOUS
 62
     5
 10
-86.381124
 20
178.938766
 30
0.0
 40
10.24458599999997
 50
180.0
 51
0.0
  0
ARC
  5
502
  8
DETAIL
  6
CONTINUOUS
 62
     5
 10
-86.381124
 20
213.0873859999998
 30
0.0
 40
10.24458599999997
 50
0.0
 51
180.0
  0
LINE
  5
503
  8
DETAIL
  6
CONTINUOUS
 62
     5
 10
-76.13653799999997
 20
213.0873859999998
 30
0.0
 11
-76.13653799999997
 21
178.938766
 31
0.0
  0
LINE
  5
504
  8
DETAIL
  6
CONTINUOUS
 62
     5
 10
-76.13653799999997
 20
273.1889559999998
 30
0.0
 11
-76.13653799999997
 21
239.0403369999999
 31
0.0
  0
ARC
  5
505
  8
DETAIL
  6
CONTINUOUS
 62
     5
 10
-86.381124
 20
273.1889559999998
 30
0.0
 40
10.24458599999997
 50
0.0
 51
180.0
  0
ARC
  5
506
  8
DETAIL
  6
CONTINUOUS
 62
     5
 10
-86.381124
 20
239.0403369999999
 30
0.0
 40
10.24458599999997
 50
180.0
 51
0.0
  0
LINE
  5
507
  8
DETAIL
  6
CONTINUOUS
 62
     5
 10
-76.13653799999997
 20
273.1889559999998
 30
0.0
 11
-76.13653799999997
 21
239.0403369999999
 31
0.0
  0
LINE
  5
508
  8
DETAIL
  6
CONTINUOUS
 62
     5
 10
-96.62571000000008
 20
273.1889559999998
 30
0.0
 11
-96.62571000000008
 21
239.0403369999999
 31
0.0
  0
LINE
  5
509
  8
DETAIL
  6
CONTINUOUS
 62
     5
 10
-123.9446050000001
 20
152.9858159999999
 30
0.0
 11
-123.9446050000001
 21
118.8371959999999
 31
0.0
  0
LINE
  5
50A
  8
DETAIL
  6
CONTINUOUS
 62
     5
 10
-103.455433
 20
152.9858159999999
 30
0.0
 11
-103.455433
 21
118.8371959999999
 31
0.0
  0
ARC
  5
50B
  8
DETAIL
  6
CONTINUOUS
 62
     5
 10
-113.700019
 20
118.8371959999999
 30
0.0
 40
10.24458599999997
 50
180.0
 51
0.0
  0
ARC
  5
50C
  8
DETAIL
  6
CONTINUOUS
 62
     5
 10
-113.700019
 20
152.9858159999999
 30
0.0
 40
10.24458599999997
 50
0.0
 51
180.0
  0
LINE
  5
50D
  8
DETAIL
  6
CONTINUOUS
 62
     5
 10
-103.455433
 20
152.9858159999999
 30
0.0
 11
-103.455433
 21
118.8371959999999
 31
0.0
  0
LINE
  5
50E
  8
DETAIL
  6
CONTINUOUS
 62
     5
 10
-123.9446050000001
 20
213.0873859999998
 30
0.0
 11
-123.9446050000001
 21
178.938766
 31
0.0
  0
LINE
  5
50F
  8
DETAIL
  6
CONTINUOUS
 62
     5
 10
-103.455433
 20
213.0873859999998
 30
0.0
 11
-103.455433
 21
178.938766
 31
0.0
  0
ARC
  5
510
  8
DETAIL
  6
CONTINUOUS
 62
     5
 10
-113.700019
 20
178.938766
 30
0.0
 40
10.24458599999997
 50
180.0
 51
0.0
  0
ARC
  5
511
  8
DETAIL
  6
CONTINUOUS
 62
     5
 10
-113.700019
 20
213.0873859999998
 30
0.0
 40
10.24458599999997
 50
0.0
 51
180.0
  0
LINE
  5
512
  8
DETAIL
  6
CONTINUOUS
 62
     5
 10
-103.455433
 20
213.0873859999998
 30
0.0
 11
-103.455433
 21
178.938766
 31
0.0
  0
LINE
  5
513
  8
DETAIL
  6
CONTINUOUS
 62
     5
 10
-103.455433
 20
273.1889559999998
 30
0.0
 11
-103.455433
 21
239.0403369999999
 31
0.0
  0
ARC
  5
514
  8
DETAIL
  6
CONTINUOUS
 62
     5
 10
-113.700019
 20
273.1889559999998
 30
0.0
 40
10.24458599999997
 50
0.0
 51
180.0
  0
ARC
  5
515
  8
DETAIL
  6
CONTINUOUS
 62
     5
 10
-113.700019
 20
239.0403369999999
 30
0.0
 40
10.24458599999997
 50
180.0
 51
0.0
  0
LINE
  5
516
  8
DETAIL
  6
CONTINUOUS
 62
     5
 10
-103.455433
 20
273.1889559999998
 30
0.0
 11
-103.455433
 21
239.0403369999999
 31
0.0
  0
LINE
  5
517
  8
DETAIL
  6
CONTINUOUS
 62
     5
 10
-123.9446050000001
 20
273.1889559999998
 30
0.0
 11
-123.9446050000001
 21
239.0403369999999
 31
0.0
  0
LINE
  5
518
  8
DETAIL
  6
CONTINUOUS
 62
     5
 10
-233.2487149999999
 20
152.9858159999999
 30
0.0
 11
-233.2487149999999
 21
118.8371959999999
 31
0.0
  0
LINE
  5
519
  8
DETAIL
  6
CONTINUOUS
 62
     5
 10
-212.7595429999999
 20
152.9858159999999
 30
0.0
 11
-212.7595429999999
 21
118.8371959999999
 31
0.0
  0
ARC
  5
51A
  8
DETAIL
  6
CONTINUOUS
 62
     5
 10
-223.0041290000001
 20
118.8371959999999
 30
0.0
 40
10.24458599999997
 50
180.0
 51
0.0
  0
ARC
  5
51B
  8
DETAIL
  6
CONTINUOUS
 62
     5
 10
-223.0041290000001
 20
152.9858159999999
 30
0.0
 40
10.24458599999997
 50
0.0
 51
180.0
  0
LINE
  5
51C
  8
DETAIL
  6
CONTINUOUS
 62
     5
 10
-212.7595429999999
 20
152.9858159999999
 30
0.0
 11
-212.7595429999999
 21
118.8371959999999
 31
0.0
  0
LINE
  5
51D
  8
DETAIL
  6
CONTINUOUS
 62
     5
 10
-233.2487149999999
 20
213.0873859999998
 30
0.0
 11
-233.2487149999999
 21
178.938766
 31
0.0
  0
LINE
  5
51E
  8
DETAIL
  6
CONTINUOUS
 62
     5
 10
-212.7595429999999
 20
213.0873859999998
 30
0.0
 11
-212.7595429999999
 21
178.938766
 31
0.0
  0
ARC
  5
51F
  8
DETAIL
  6
CONTINUOUS
 62
     5
 10
-223.0041290000001
 20
178.938766
 30
0.0
 40
10.24458599999997
 50
180.0
 51
0.0
  0
ARC
  5
520
  8
DETAIL
  6
CONTINUOUS
 62
     5
 10
-223.0041290000001
 20
213.0873859999998
 30
0.0
 40
10.24458599999997
 50
0.0
 51
180.0
  0
LINE
  5
521
  8
DETAIL
  6
CONTINUOUS
 62
     5
 10
-212.7595429999999
 20
213.0873859999998
 30
0.0
 11
-212.7595429999999
 21
178.938766
 31
0.0
  0
LINE
  5
522
  8
DETAIL
  6
CONTINUOUS
 62
     5
 10
-212.7595429999999
 20
273.1889559999998
 30
0.0
 11
-212.7595429999999
 21
239.0403369999999
 31
0.0
  0
ARC
  5
523
  8
DETAIL
  6
CONTINUOUS
 62
     5
 10
-223.0041290000001
 20
273.1889559999998
 30
0.0
 40
10.24458599999997
 50
0.0
 51
180.0
  0
ARC
  5
524
  8
DETAIL
  6
CONTINUOUS
 62
     5
 10
-223.0041290000001
 20
239.0403369999999
 30
0.0
 40
10.24458599999997
 50
180.0
 51
0.0
  0
LINE
  5
525
  8
DETAIL
  6
CONTINUOUS
 62
     5
 10
-212.7595429999999
 20
273.1889559999998
 30
0.0
 11
-212.7595429999999
 21
239.0403369999999
 31
0.0
  0
LINE
  5
526
  8
DETAIL
  6
CONTINUOUS
 62
     5
 10
-233.2487149999999
 20
273.1889559999998
 30
0.0
 11
-233.2487149999999
 21
239.0403369999999
 31
0.0
  0
LINE
  5
527
  8
DETAIL
  6
CONTINUOUS
 62
     5
 10
-233.2487149999999
 20
77.85885299999984
 30
0.0
 11
-233.2487149999999
 21
43.71023300000002
 31
0.0
  0
LINE
  5
528
  8
DETAIL
  6
CONTINUOUS
 62
     5
 10
-212.7595429999999
 20
77.85885299999984
 30
0.0
 11
-212.7595429999999
 21
43.71023300000002
 31
0.0
  0
ARC
  5
529
  8
DETAIL
  6
CONTINUOUS
 62
     5
 10
-223.0041290000001
 20
43.71023300000002
 30
0.0
 40
10.24458599999997
 50
180.0
 51
0.0
  0
ARC
  5
52A
  8
DETAIL
  6
CONTINUOUS
 62
     5
 10
-223.0041290000001
 20
77.85885299999984
 30
0.0
 40
10.24458599999997
 50
0.0
 51
180.0
  0
LINE
  5
52B
  8
DETAIL
  6
CONTINUOUS
 62
     5
 10
-212.7595429999999
 20
77.85885299999984
 30
0.0
 11
-212.7595429999999
 21
43.71023300000002
 31
0.0
  0
LINE
  5
52C
  8
DETAIL
  6
CONTINUOUS
 62
     5
 10
-212.7595429999999
 20
17.75728200000002
 30
0.0
 11
-212.7595429999999
 21
-16.39133699999999
 31
0.0
  0
ARC
  5
52D
  8
DETAIL
  6
CONTINUOUS
 62
     5
 10
-223.0041290000001
 20
17.75728200000002
 30
0.0
 40
10.24458599999997
 50
0.0
 51
180.0
  0
ARC
  5
52E
  8
DETAIL
  6
CONTINUOUS
 62
     5
 10
-223.0041290000001
 20
-16.39133699999999
 30
0.0
 40
10.24458599999997
 50
180.0
 51
0.0
  0
LINE
  5
52F
  8
DETAIL
  6
CONTINUOUS
 62
     5
 10
-212.7595429999999
 20
17.75728200000002
 30
0.0
 11
-212.7595429999999
 21
-16.39133699999999
 31
0.0
  0
LINE
  5
530
  8
DETAIL
  6
CONTINUOUS
 62
     5
 10
-233.2487149999999
 20
17.75728200000002
 30
0.0
 11
-233.2487149999999
 21
-16.39133699999999
 31
0.0
  0
LINE
  5
531
  8
DETAIL
  6
CONTINUOUS
 62
     5
 10
-212.7595429999999
 20
-42.34428799999997
 30
0.0
 11
-212.7595429999999
 21
-76.49290799999997
 31
0.0
  0
ARC
  5
532
  8
DETAIL
  6
CONTINUOUS
 62
     5
 10
-223.0041290000001
 20
-42.34428799999997
 30
0.0
 40
10.24458599999997
 50
0.0
 51
180.0
  0
ARC
  5
533
  8
DETAIL
  6
CONTINUOUS
 62
     5
 10
-223.0041290000001
 20
-76.49290799999997
 30
0.0
 40
10.24458599999997
 50
180.0
 51
0.0
  0
LINE
  5
534
  8
DETAIL
  6
CONTINUOUS
 62
     5
 10
-212.7595429999999
 20
-42.34428799999997
 30
0.0
 11
-212.7595429999999
 21
-76.49290799999997
 31
0.0
  0
LINE
  5
535
  8
DETAIL
  6
CONTINUOUS
 62
     5
 10
-233.2487149999999
 20
-42.34428799999997
 30
0.0
 11
-233.2487149999999
 21
-76.49290799999997
 31
0.0
  0
LINE
  5
536
  8
DETAIL
  6
CONTINUOUS
 62
     5
 10
-123.9446050000001
 20
77.85885299999984
 30
0.0
 11
-123.9446050000001
 21
43.71023300000002
 31
0.0
  0
LINE
  5
537
  8
DETAIL
  6
CONTINUOUS
 62
     5
 10
-103.455433
 20
77.85885299999984
 30
0.0
 11
-103.455433
 21
43.71023300000002
 31
0.0
  0
ARC
  5
538
  8
DETAIL
  6
CONTINUOUS
 62
     5
 10
-113.700019
 20
43.71023300000002
 30
0.0
 40
10.24458599999997
 50
180.0
 51
0.0
  0
ARC
  5
539
  8
DETAIL
  6
CONTINUOUS
 62
     5
 10
-113.700019
 20
77.85885299999984
 30
0.0
 40
10.24458599999997
 50
0.0
 51
180.0
  0
LINE
  5
53A
  8
DETAIL
  6
CONTINUOUS
 62
     5
 10
-103.455433
 20
77.85885299999984
 30
0.0
 11
-103.455433
 21
43.71023300000002
 31
0.0
  0
LINE
  5
53B
  8
DETAIL
  6
CONTINUOUS
 62
     5
 10
-103.455433
 20
17.75728200000002
 30
0.0
 11
-103.455433
 21
-16.39133699999999
 31
0.0
  0
ARC
  5
53C
  8
DETAIL
  6
CONTINUOUS
 62
     5
 10
-113.700019
 20
17.75728200000002
 30
0.0
 40
10.24458599999997
 50
0.0
 51
180.0
  0
ARC
  5
53D
  8
DETAIL
  6
CONTINUOUS
 62
     5
 10
-113.700019
 20
-16.39133699999999
 30
0.0
 40
10.24458599999997
 50
180.0
 51
0.0
  0
LINE
  5
53E
  8
DETAIL
  6
CONTINUOUS
 62
     5
 10
-103.455433
 20
17.75728200000002
 30
0.0
 11
-103.455433
 21
-16.39133699999999
 31
0.0
  0
LINE
  5
53F
  8
DETAIL
  6
CONTINUOUS
 62
     5
 10
-123.9446050000001
 20
17.75728200000002
 30
0.0
 11
-123.9446050000001
 21
-16.39133699999999
 31
0.0
  0
LINE
  5
540
  8
DETAIL
  6
CONTINUOUS
 62
     5
 10
-103.455433
 20
-42.34428799999997
 30
0.0
 11
-103.455433
 21
-76.49290799999997
 31
0.0
  0
ARC
  5
541
  8
DETAIL
  6
CONTINUOUS
 62
     5
 10
-113.700019
 20
-42.34428799999997
 30
0.0
 40
10.24458599999997
 50
0.0
 51
180.0
  0
ARC
  5
542
  8
DETAIL
  6
CONTINUOUS
 62
     5
 10
-113.700019
 20
-76.49290799999997
 30
0.0
 40
10.24458599999997
 50
180.0
 51
0.0
  0
LINE
  5
543
  8
DETAIL
  6
CONTINUOUS
 62
     5
 10
-103.455433
 20
-42.34428799999997
 30
0.0
 11
-103.455433
 21
-76.49290799999997
 31
0.0
  0
LINE
  5
544
  8
DETAIL
  6
CONTINUOUS
 62
     5
 10
-123.9446050000001
 20
-42.34428799999997
 30
0.0
 11
-123.9446050000001
 21
-76.49290799999997
 31
0.0
  0
LINE
  5
545
  8
DETAIL
  6
CONTINUOUS
 62
     5
 10
-96.62571000000008
 20
77.85885299999984
 30
0.0
 11
-96.62571000000008
 21
43.71023300000002
 31
0.0
  0
LINE
  5
546
  8
DETAIL
  6
CONTINUOUS
 62
     5
 10
-76.13653799999997
 20
77.85885299999984
 30
0.0
 11
-76.13653799999997
 21
43.71023300000002
 31
0.0
  0
ARC
  5
547
  8
DETAIL
  6
CONTINUOUS
 62
     5
 10
-86.381124
 20
43.71023300000002
 30
0.0
 40
10.24458599999997
 50
180.0
 51
0.0
  0
ARC
  5
548
  8
DETAIL
  6
CONTINUOUS
 62
     5
 10
-86.381124
 20
77.85885299999984
 30
0.0
 40
10.24458599999997
 50
0.0
 51
180.0
  0
LINE
  5
549
  8
DETAIL
  6
CONTINUOUS
 62
     5
 10
-76.13653799999997
 20
77.85885299999984
 30
0.0
 11
-76.13653799999997
 21
43.71023300000002
 31
0.0
  0
LINE
  5
54A
  8
DETAIL
  6
CONTINUOUS
 62
     5
 10
-76.13653799999997
 20
17.75728200000002
 30
0.0
 11
-76.13653799999997
 21
-16.39133699999999
 31
0.0
  0
ARC
  5
54B
  8
DETAIL
  6
CONTINUOUS
 62
     5
 10
-86.381124
 20
17.75728200000002
 30
0.0
 40
10.24458599999997
 50
0.0
 51
180.0
  0
ARC
  5
54C
  8
DETAIL
  6
CONTINUOUS
 62
     5
 10
-86.381124
 20
-16.39133699999999
 30
0.0
 40
10.24458599999997
 50
180.0
 51
0.0
  0
LINE
  5
54D
  8
DETAIL
  6
CONTINUOUS
 62
     5
 10
-76.13653799999997
 20
17.75728200000002
 30
0.0
 11
-76.13653799999997
 21
-16.39133699999999
 31
0.0
  0
LINE
  5
54E
  8
DETAIL
  6
CONTINUOUS
 62
     5
 10
-96.62571000000008
 20
17.75728200000002
 30
0.0
 11
-96.62571000000008
 21
-16.39133699999999
 31
0.0
  0
LINE
  5
54F
  8
DETAIL
  6
CONTINUOUS
 62
     5
 10
-76.13653799999997
 20
-42.34428799999997
 30
0.0
 11
-76.13653799999997
 21
-76.49290799999997
 31
0.0
  0
ARC
  5
550
  8
DETAIL
  6
CONTINUOUS
 62
     5
 10
-86.381124
 20
-42.34428799999997
 30
0.0
 40
10.24458599999997
 50
0.0
 51
180.0
  0
ARC
  5
551
  8
DETAIL
  6
CONTINUOUS
 62
     5
 10
-86.381124
 20
-76.49290799999997
 30
0.0
 40
10.24458599999997
 50
180.0
 51
0.0
  0
LINE
  5
552
  8
DETAIL
  6
CONTINUOUS
 62
     5
 10
-76.13653799999997
 20
-42.34428799999997
 30
0.0
 11
-76.13653799999997
 21
-76.49290799999997
 31
0.0
  0
LINE
  5
553
  8
DETAIL
  6
CONTINUOUS
 62
     5
 10
-96.62571000000008
 20
-42.34428799999997
 30
0.0
 11
-96.62571000000008
 21
-76.49290799999997
 31
0.0
  0
LINE
  5
554
  8
DETAIL
  6
CONTINUOUS
 62
     5
 10
-178.5823959999999
 20
-42.34428799999997
 30
0.0
 11
-178.5823959999999
 21
-76.49290799999997
 31
0.0
  0
LINE
  5
555
  8
DETAIL
  6
CONTINUOUS
 62
     5
 10
-158.0932249999999
 20
-42.34428799999997
 30
0.0
 11
-158.0932249999999
 21
-76.49290799999997
 31
0.0
  0
ARC
  5
556
  8
DETAIL
  6
CONTINUOUS
 62
     5
 10
-168.3378109999999
 20
-76.49290799999997
 30
0.0
 40
10.24458599999997
 50
180.0
 51
0.0
  0
ARC
  5
557
  8
DETAIL
  6
CONTINUOUS
 62
     5
 10
-168.3378109999999
 20
-42.34428799999997
 30
0.0
 40
10.24458599999997
 50
0.0
 51
180.0
  0
LINE
  5
558
  8
DETAIL
  6
CONTINUOUS
 62
     5
 10
-158.0932249999999
 20
-42.34428799999997
 30
0.0
 11
-158.0932249999999
 21
-76.49290799999997
 31
0.0
  0
LINE
  5
559
  8
DETAIL
  6
CONTINUOUS
 62
     5
 10
-178.5823959999999
 20
17.75728200000002
 30
0.0
 11
-178.5823959999999
 21
-16.39133699999999
 31
0.0
  0
LINE
  5
55A
  8
DETAIL
  6
CONTINUOUS
 62
     5
 10
-158.0932249999999
 20
17.75728200000002
 30
0.0
 11
-158.0932249999999
 21
-16.39133699999999
 31
0.0
  0
ARC
  5
55B
  8
DETAIL
  6
CONTINUOUS
 62
     5
 10
-168.3378109999999
 20
-16.39133699999999
 30
0.0
 40
10.24458599999997
 50
180.0
 51
0.0
  0
ARC
  5
55C
  8
DETAIL
  6
CONTINUOUS
 62
     5
 10
-168.3378109999999
 20
17.75728200000002
 30
0.0
 40
10.24458599999997
 50
0.0
 51
180.0
  0
LINE
  5
55D
  8
DETAIL
  6
CONTINUOUS
 62
     5
 10
-158.0932249999999
 20
17.75728200000002
 30
0.0
 11
-158.0932249999999
 21
-16.39133699999999
 31
0.0
  0
LINE
  5
55E
  8
DETAIL
  6
CONTINUOUS
 62
     5
 10
-158.0932249999999
 20
77.85885299999984
 30
0.0
 11
-158.0932249999999
 21
43.71023300000002
 31
0.0
  0
ARC
  5
55F
  8
DETAIL
  6
CONTINUOUS
 62
     5
 10
-168.3378109999999
 20
77.85885299999984
 30
0.0
 40
10.24458599999997
 50
0.0
 51
180.0
  0
ARC
  5
560
  8
DETAIL
  6
CONTINUOUS
 62
     5
 10
-168.3378109999999
 20
43.71023300000002
 30
0.0
 40
10.24458599999997
 50
180.0
 51
0.0
  0
LINE
  5
561
  8
DETAIL
  6
CONTINUOUS
 62
     5
 10
-158.0932249999999
 20
77.85885299999984
 30
0.0
 11
-158.0932249999999
 21
43.71023300000002
 31
0.0
  0
LINE
  5
562
  8
DETAIL
  6
CONTINUOUS
 62
     5
 10
-178.5823959999999
 20
77.85885299999984
 30
0.0
 11
-178.5823959999999
 21
43.71023300000002
 31
0.0
  0
LINE
  5
563
  8
DETAIL
  6
CONTINUOUS
 62
     5
 10
-151.2635010000001
 20
77.85885299999984
 30
0.0
 11
-151.2635010000001
 21
43.71023300000002
 31
0.0
  0
LINE
  5
564
  8
DETAIL
  6
CONTINUOUS
 62
     5
 10
-130.7743290000001
 20
77.85885299999984
 30
0.0
 11
-130.7743290000001
 21
43.71023300000002
 31
0.0
  0
ARC
  5
565
  8
DETAIL
  6
CONTINUOUS
 62
     5
 10
-141.0189149999999
 20
43.71023300000002
 30
0.0
 40
10.24458599999997
 50
180.0
 51
0.0
  0
ARC
  5
566
  8
DETAIL
  6
CONTINUOUS
 62
     5
 10
-141.0189149999999
 20
77.85885299999984
 30
0.0
 40
10.24458599999997
 50
0.0
 51
180.0
  0
LINE
  5
567
  8
DETAIL
  6
CONTINUOUS
 62
     5
 10
-130.7743290000001
 20
77.85885299999984
 30
0.0
 11
-130.7743290000001
 21
43.71023300000002
 31
0.0
  0
LINE
  5
568
  8
DETAIL
  6
CONTINUOUS
 62
     5
 10
-130.7743290000001
 20
17.75728200000002
 30
0.0
 11
-130.7743290000001
 21
-16.39133699999999
 31
0.0
  0
ARC
  5
569
  8
DETAIL
  6
CONTINUOUS
 62
     5
 10
-141.0189149999999
 20
17.75728200000002
 30
0.0
 40
10.24458599999997
 50
0.0
 51
180.0
  0
ARC
  5
56A
  8
DETAIL
  6
CONTINUOUS
 62
     5
 10
-141.0189149999999
 20
-16.39133699999999
 30
0.0
 40
10.24458599999997
 50
180.0
 51
0.0
  0
LINE
  5
56B
  8
DETAIL
  6
CONTINUOUS
 62
     5
 10
-130.7743290000001
 20
17.75728200000002
 30
0.0
 11
-130.7743290000001
 21
-16.39133699999999
 31
0.0
  0
LINE
  5
56C
  8
DETAIL
  6
CONTINUOUS
 62
     5
 10
-151.2635010000001
 20
17.75728200000002
 30
0.0
 11
-151.2635010000001
 21
-16.39133699999999
 31
0.0
  0
LINE
  5
56D
  8
DETAIL
  6
CONTINUOUS
 62
     5
 10
-130.7743290000001
 20
-42.34428799999997
 30
0.0
 11
-130.7743290000001
 21
-76.49290799999997
 31
0.0
  0
ARC
  5
56E
  8
DETAIL
  6
CONTINUOUS
 62
     5
 10
-141.0189149999999
 20
-42.34428799999997
 30
0.0
 40
10.24458599999997
 50
0.0
 51
180.0
  0
ARC
  5
56F
  8
DETAIL
  6
CONTINUOUS
 62
     5
 10
-141.0189149999999
 20
-76.49290799999997
 30
0.0
 40
10.24458599999997
 50
180.0
 51
0.0
  0
LINE
  5
570
  8
DETAIL
  6
CONTINUOUS
 62
     5
 10
-130.7743290000001
 20
-42.34428799999997
 30
0.0
 11
-130.7743290000001
 21
-76.49290799999997
 31
0.0
  0
LINE
  5
571
  8
DETAIL
  6
CONTINUOUS
 62
     5
 10
-151.2635010000001
 20
-42.34428799999997
 30
0.0
 11
-151.2635010000001
 21
-76.49290799999997
 31
0.0
  0
LINE
  5
572
  8
DETAIL
  6
CONTINUOUS
 62
     5
 10
-205.9012920000001
 20
-42.34428799999997
 30
0.0
 11
-205.9012920000001
 21
-76.49290799999997
 31
0.0
  0
LINE
  5
573
  8
DETAIL
  6
CONTINUOUS
 62
     5
 10
-185.4121199999999
 20
-42.34428799999997
 30
0.0
 11
-185.4121199999999
 21
-76.49290799999997
 31
0.0
  0
ARC
  5
574
  8
DETAIL
  6
CONTINUOUS
 62
     5
 10
-195.6567059999999
 20
-76.49290799999997
 30
0.0
 40
10.24458599999997
 50
180.0
 51
0.0
  0
ARC
  5
575
  8
DETAIL
  6
CONTINUOUS
 62
     5
 10
-195.6567059999999
 20
-42.34428799999997
 30
0.0
 40
10.24458599999997
 50
0.0
 51
180.0
  0
LINE
  5
576
  8
DETAIL
  6
CONTINUOUS
 62
     5
 10
-185.4121199999999
 20
-42.34428799999997
 30
0.0
 11
-185.4121199999999
 21
-76.49290799999997
 31
0.0
  0
LINE
  5
577
  8
DETAIL
  6
CONTINUOUS
 62
     5
 10
-205.9012920000001
 20
17.75728200000002
 30
0.0
 11
-205.9012920000001
 21
-16.39133699999999
 31
0.0
  0
LINE
  5
578
  8
DETAIL
  6
CONTINUOUS
 62
     5
 10
-185.4121199999999
 20
17.75728200000002
 30
0.0
 11
-185.4121199999999
 21
-16.39133699999999
 31
0.0
  0
ARC
  5
579
  8
DETAIL
  6
CONTINUOUS
 62
     5
 10
-195.6567059999999
 20
-16.39133699999999
 30
0.0
 40
10.24458599999997
 50
180.0
 51
0.0
  0
ARC
  5
57A
  8
DETAIL
  6
CONTINUOUS
 62
     5
 10
-195.6567059999999
 20
17.75728200000002
 30
0.0
 40
10.24458599999997
 50
0.0
 51
180.0
  0
LINE
  5
57B
  8
DETAIL
  6
CONTINUOUS
 62
     5
 10
-185.4121199999999
 20
17.75728200000002
 30
0.0
 11
-185.4121199999999
 21
-16.39133699999999
 31
0.0
  0
LINE
  5
57C
  8
DETAIL
  6
CONTINUOUS
 62
     5
 10
-185.4121199999999
 20
77.85885299999984
 30
0.0
 11
-185.4121199999999
 21
43.71023300000002
 31
0.0
  0
ARC
  5
57D
  8
DETAIL
  6
CONTINUOUS
 62
     5
 10
-195.6567059999999
 20
77.85885299999984
 30
0.0
 40
10.24458599999997
 50
0.0
 51
180.0
  0
ARC
  5
57E
  8
DETAIL
  6
CONTINUOUS
 62
     5
 10
-195.6567059999999
 20
43.71023300000002
 30
0.0
 40
10.24458599999997
 50
180.0
 51
0.0
  0
LINE
  5
57F
  8
DETAIL
  6
CONTINUOUS
 62
     5
 10
-185.4121199999999
 20
77.85885299999984
 30
0.0
 11
-185.4121199999999
 21
43.71023300000002
 31
0.0
  0
LINE
  5
580
  8
DETAIL
  6
CONTINUOUS
 62
     5
 10
-205.9012920000001
 20
77.85885299999984
 30
0.0
 11
-205.9012920000001
 21
43.71023300000002
 31
0.0
  0
LINE
  5
581
  8
DETAIL
  6
CONTINUOUS
 62
     5
 10
-205.9012920000001
 20
-117.4712509999999
 30
0.0
 11
-205.9012920000001
 21
-151.6198709999998
 31
0.0
  0
LINE
  5
582
  8
DETAIL
  6
CONTINUOUS
 62
     5
 10
-185.4121199999999
 20
-117.4712509999999
 30
0.0
 11
-185.4121199999999
 21
-151.6198709999998
 31
0.0
  0
ARC
  5
583
  8
DETAIL
  6
CONTINUOUS
 62
     5
 10
-195.6567059999999
 20
-151.6198709999998
 30
0.0
 40
10.24458599999997
 50
180.0
 51
0.0
  0
ARC
  5
584
  8
DETAIL
  6
CONTINUOUS
 62
     5
 10
-195.6567059999999
 20
-117.4712509999999
 30
0.0
 40
10.24458599999997
 50
0.0
 51
180.0
  0
LINE
  5
585
  8
DETAIL
  6
CONTINUOUS
 62
     5
 10
-185.4121199999999
 20
-117.4712509999999
 30
0.0
 11
-185.4121199999999
 21
-151.6198709999998
 31
0.0
  0
LINE
  5
586
  8
DETAIL
  6
CONTINUOUS
 62
     5
 10
-185.4121199999999
 20
-177.5728219999997
 30
0.0
 11
-185.4121199999999
 21
-211.7214409999999
 31
0.0
  0
ARC
  5
587
  8
DETAIL
  6
CONTINUOUS
 62
     5
 10
-195.6567059999999
 20
-177.5728219999997
 30
0.0
 40
10.24458599999997
 50
0.0
 51
180.0
  0
ARC
  5
588
  8
DETAIL
  6
CONTINUOUS
 62
     5
 10
-195.6567059999999
 20
-211.7214409999999
 30
0.0
 40
10.24458599999997
 50
180.0
 51
0.0
  0
LINE
  5
589
  8
DETAIL
  6
CONTINUOUS
 62
     5
 10
-185.4121199999999
 20
-177.5728219999997
 30
0.0
 11
-185.4121199999999
 21
-211.7214409999999
 31
0.0
  0
LINE
  5
58A
  8
DETAIL
  6
CONTINUOUS
 62
     5
 10
-205.9012920000001
 20
-177.5728219999997
 30
0.0
 11
-205.9012920000001
 21
-211.7214409999999
 31
0.0
  0
LINE
  5
58B
  8
DETAIL
  6
CONTINUOUS
 62
     5
 10
-185.4121199999999
 20
-237.674392
 30
0.0
 11
-185.4121199999999
 21
-271.8230119999999
 31
0.0
  0
ARC
  5
58C
  8
DETAIL
  6
CONTINUOUS
 62
     5
 10
-195.6567059999999
 20
-237.674392
 30
0.0
 40
10.24458599999997
 50
0.0
 51
180.0
  0
ARC
  5
58D
  8
DETAIL
  6
CONTINUOUS
 62
     5
 10
-195.6567059999999
 20
-271.8230119999999
 30
0.0
 40
10.24458599999997
 50
180.0
 51
0.0
  0
LINE
  5
58E
  8
DETAIL
  6
CONTINUOUS
 62
     5
 10
-185.4121199999999
 20
-237.674392
 30
0.0
 11
-185.4121199999999
 21
-271.8230119999999
 31
0.0
  0
LINE
  5
58F
  8
DETAIL
  6
CONTINUOUS
 62
     5
 10
-205.9012920000001
 20
-237.674392
 30
0.0
 11
-205.9012920000001
 21
-271.8230119999999
 31
0.0
  0
LINE
  5
590
  8
DETAIL
  6
CONTINUOUS
 62
     5
 10
-151.2635010000001
 20
-237.674392
 30
0.0
 11
-151.2635010000001
 21
-271.8230119999999
 31
0.0
  0
LINE
  5
591
  8
DETAIL
  6
CONTINUOUS
 62
     5
 10
-130.7743290000001
 20
-237.674392
 30
0.0
 11
-130.7743290000001
 21
-271.8230119999999
 31
0.0
  0
ARC
  5
592
  8
DETAIL
  6
CONTINUOUS
 62
     5
 10
-141.0189149999999
 20
-271.8230119999999
 30
0.0
 40
10.24458599999997
 50
180.0
 51
0.0
  0
ARC
  5
593
  8
DETAIL
  6
CONTINUOUS
 62
     5
 10
-141.0189149999999
 20
-237.674392
 30
0.0
 40
10.24458599999997
 50
0.0
 51
180.0
  0
LINE
  5
594
  8
DETAIL
  6
CONTINUOUS
 62
     5
 10
-130.7743290000001
 20
-237.674392
 30
0.0
 11
-130.7743290000001
 21
-271.8230119999999
 31
0.0
  0
LINE
  5
595
  8
DETAIL
  6
CONTINUOUS
 62
     5
 10
-151.2635010000001
 20
-177.5728219999997
 30
0.0
 11
-151.2635010000001
 21
-211.7214409999999
 31
0.0
  0
LINE
  5
596
  8
DETAIL
  6
CONTINUOUS
 62
     5
 10
-130.7743290000001
 20
-177.5728219999997
 30
0.0
 11
-130.7743290000001
 21
-211.7214409999999
 31
0.0
  0
ARC
  5
597
  8
DETAIL
  6
CONTINUOUS
 62
     5
 10
-141.0189149999999
 20
-211.7214409999999
 30
0.0
 40
10.24458599999997
 50
180.0
 51
0.0
  0
ARC
  5
598
  8
DETAIL
  6
CONTINUOUS
 62
     5
 10
-141.0189149999999
 20
-177.5728219999997
 30
0.0
 40
10.24458599999997
 50
0.0
 51
180.0
  0
LINE
  5
599
  8
DETAIL
  6
CONTINUOUS
 62
     5
 10
-130.7743290000001
 20
-177.5728219999997
 30
0.0
 11
-130.7743290000001
 21
-211.7214409999999
 31
0.0
  0
LINE
  5
59A
  8
DETAIL
  6
CONTINUOUS
 62
     5
 10
-130.7743290000001
 20
-117.4712509999999
 30
0.0
 11
-130.7743290000001
 21
-151.6198709999998
 31
0.0
  0
ARC
  5
59B
  8
DETAIL
  6
CONTINUOUS
 62
     5
 10
-141.0189149999999
 20
-117.4712509999999
 30
0.0
 40
10.24458599999997
 50
0.0
 51
180.0
  0
ARC
  5
59C
  8
DETAIL
  6
CONTINUOUS
 62
     5
 10
-141.0189149999999
 20
-151.6198709999998
 30
0.0
 40
10.24458599999997
 50
180.0
 51
0.0
  0
LINE
  5
59D
  8
DETAIL
  6
CONTINUOUS
 62
     5
 10
-130.7743290000001
 20
-117.4712509999999
 30
0.0
 11
-130.7743290000001
 21
-151.6198709999998
 31
0.0
  0
LINE
  5
59E
  8
DETAIL
  6
CONTINUOUS
 62
     5
 10
-151.2635010000001
 20
-117.4712509999999
 30
0.0
 11
-151.2635010000001
 21
-151.6198709999998
 31
0.0
  0
LINE
  5
59F
  8
DETAIL
  6
CONTINUOUS
 62
     5
 10
-178.5823959999999
 20
-117.4712509999999
 30
0.0
 11
-178.5823959999999
 21
-151.6198709999998
 31
0.0
  0
LINE
  5
5A0
  8
DETAIL
  6
CONTINUOUS
 62
     5
 10
-158.0932249999999
 20
-117.4712509999999
 30
0.0
 11
-158.0932249999999
 21
-151.6198709999998
 31
0.0
  0
ARC
  5
5A1
  8
DETAIL
  6
CONTINUOUS
 62
     5
 10
-168.3378109999999
 20
-151.6198709999998
 30
0.0
 40
10.24458599999997
 50
180.0
 51
0.0
  0
ARC
  5
5A2
  8
DETAIL
  6
CONTINUOUS
 62
     5
 10
-168.3378109999999
 20
-117.4712509999999
 30
0.0
 40
10.24458599999997
 50
0.0
 51
180.0
  0
LINE
  5
5A3
  8
DETAIL
  6
CONTINUOUS
 62
     5
 10
-158.0932249999999
 20
-117.4712509999999
 30
0.0
 11
-158.0932249999999
 21
-151.6198709999998
 31
0.0
  0
LINE
  5
5A4
  8
DETAIL
  6
CONTINUOUS
 62
     5
 10
-158.0932249999999
 20
-177.5728219999997
 30
0.0
 11
-158.0932249999999
 21
-211.7214409999999
 31
0.0
  0
ARC
  5
5A5
  8
DETAIL
  6
CONTINUOUS
 62
     5
 10
-168.3378109999999
 20
-177.5728219999997
 30
0.0
 40
10.24458599999997
 50
0.0
 51
180.0
  0
ARC
  5
5A6
  8
DETAIL
  6
CONTINUOUS
 62
     5
 10
-168.3378109999999
 20
-211.7214409999999
 30
0.0
 40
10.24458599999997
 50
180.0
 51
0.0
  0
LINE
  5
5A7
  8
DETAIL
  6
CONTINUOUS
 62
     5
 10
-158.0932249999999
 20
-177.5728219999997
 30
0.0
 11
-158.0932249999999
 21
-211.7214409999999
 31
0.0
  0
LINE
  5
5A8
  8
DETAIL
  6
CONTINUOUS
 62
     5
 10
-178.5823959999999
 20
-177.5728219999997
 30
0.0
 11
-178.5823959999999
 21
-211.7214409999999
 31
0.0
  0
LINE
  5
5A9
  8
DETAIL
  6
CONTINUOUS
 62
     5
 10
-158.0932249999999
 20
-237.674392
 30
0.0
 11
-158.0932249999999
 21
-271.8230119999999
 31
0.0
  0
ARC
  5
5AA
  8
DETAIL
  6
CONTINUOUS
 62
     5
 10
-168.3378109999999
 20
-237.674392
 30
0.0
 40
10.24458599999997
 50
0.0
 51
180.0
  0
ARC
  5
5AB
  8
DETAIL
  6
CONTINUOUS
 62
     5
 10
-168.3378109999999
 20
-271.8230119999999
 30
0.0
 40
10.24458599999997
 50
180.0
 51
0.0
  0
LINE
  5
5AC
  8
DETAIL
  6
CONTINUOUS
 62
     5
 10
-158.0932249999999
 20
-237.674392
 30
0.0
 11
-158.0932249999999
 21
-271.8230119999999
 31
0.0
  0
LINE
  5
5AD
  8
DETAIL
  6
CONTINUOUS
 62
     5
 10
-178.5823959999999
 20
-237.674392
 30
0.0
 11
-178.5823959999999
 21
-271.8230119999999
 31
0.0
  0
LINE
  5
5AE
  8
DETAIL
  6
CONTINUOUS
 62
     5
 10
-96.62571000000008
 20
-237.674392
 30
0.0
 11
-96.62571000000008
 21
-271.8230119999999
 31
0.0
  0
LINE
  5
5AF
  8
DETAIL
  6
CONTINUOUS
 62
     5
 10
-76.13653799999997
 20
-237.674392
 30
0.0
 11
-76.13653799999997
 21
-271.8230119999999
 31
0.0
  0
ARC
  5
5B0
  8
DETAIL
  6
CONTINUOUS
 62
     5
 10
-86.381124
 20
-271.8230119999999
 30
0.0
 40
10.24458599999997
 50
180.0
 51
0.0
  0
ARC
  5
5B1
  8
DETAIL
  6
CONTINUOUS
 62
     5
 10
-86.381124
 20
-237.674392
 30
0.0
 40
10.24458599999997
 50
0.0
 51
180.0
  0
LINE
  5
5B2
  8
DETAIL
  6
CONTINUOUS
 62
     5
 10
-76.13653799999997
 20
-237.674392
 30
0.0
 11
-76.13653799999997
 21
-271.8230119999999
 31
0.0
  0
LINE
  5
5B3
  8
DETAIL
  6
CONTINUOUS
 62
     5
 10
-96.62571000000008
 20
-177.5728219999997
 30
0.0
 11
-96.62571000000008
 21
-211.7214409999999
 31
0.0
  0
LINE
  5
5B4
  8
DETAIL
  6
CONTINUOUS
 62
     5
 10
-76.13653799999997
 20
-177.5728219999997
 30
0.0
 11
-76.13653799999997
 21
-211.7214409999999
 31
0.0
  0
ARC
  5
5B5
  8
DETAIL
  6
CONTINUOUS
 62
     5
 10
-86.381124
 20
-211.7214409999999
 30
0.0
 40
10.24458599999997
 50
180.0
 51
0.0
  0
ARC
  5
5B6
  8
DETAIL
  6
CONTINUOUS
 62
     5
 10
-86.381124
 20
-177.5728219999997
 30
0.0
 40
10.24458599999997
 50
0.0
 51
180.0
  0
LINE
  5
5B7
  8
DETAIL
  6
CONTINUOUS
 62
     5
 10
-76.13653799999997
 20
-177.5728219999997
 30
0.0
 11
-76.13653799999997
 21
-211.7214409999999
 31
0.0
  0
LINE
  5
5B8
  8
DETAIL
  6
CONTINUOUS
 62
     5
 10
-76.13653799999997
 20
-117.4712509999999
 30
0.0
 11
-76.13653799999997
 21
-151.6198709999998
 31
0.0
  0
ARC
  5
5B9
  8
DETAIL
  6
CONTINUOUS
 62
     5
 10
-86.381124
 20
-117.4712509999999
 30
0.0
 40
10.24458599999997
 50
0.0
 51
180.0
  0
ARC
  5
5BA
  8
DETAIL
  6
CONTINUOUS
 62
     5
 10
-86.381124
 20
-151.6198709999998
 30
0.0
 40
10.24458599999997
 50
180.0
 51
0.0
  0
LINE
  5
5BB
  8
DETAIL
  6
CONTINUOUS
 62
     5
 10
-76.13653799999997
 20
-117.4712509999999
 30
0.0
 11
-76.13653799999997
 21
-151.6198709999998
 31
0.0
  0
LINE
  5
5BC
  8
DETAIL
  6
CONTINUOUS
 62
     5
 10
-96.62571000000008
 20
-117.4712509999999
 30
0.0
 11
-96.62571000000008
 21
-151.6198709999998
 31
0.0
  0
LINE
  5
5BD
  8
DETAIL
  6
CONTINUOUS
 62
     5
 10
-123.9446050000001
 20
-237.674392
 30
0.0
 11
-123.9446050000001
 21
-271.8230119999999
 31
0.0
  0
LINE
  5
5BE
  8
DETAIL
  6
CONTINUOUS
 62
     5
 10
-103.455433
 20
-237.674392
 30
0.0
 11
-103.455433
 21
-271.8230119999999
 31
0.0
  0
ARC
  5
5BF
  8
DETAIL
  6
CONTINUOUS
 62
     5
 10
-113.700019
 20
-271.8230119999999
 30
0.0
 40
10.24458599999997
 50
180.0
 51
0.0
  0
ARC
  5
5C0
  8
DETAIL
  6
CONTINUOUS
 62
     5
 10
-113.700019
 20
-237.674392
 30
0.0
 40
10.24458599999997
 50
0.0
 51
180.0
  0
LINE
  5
5C1
  8
DETAIL
  6
CONTINUOUS
 62
     5
 10
-103.455433
 20
-237.674392
 30
0.0
 11
-103.455433
 21
-271.8230119999999
 31
0.0
  0
LINE
  5
5C2
  8
DETAIL
  6
CONTINUOUS
 62
     5
 10
-123.9446050000001
 20
-177.5728219999997
 30
0.0
 11
-123.9446050000001
 21
-211.7214409999999
 31
0.0
  0
LINE
  5
5C3
  8
DETAIL
  6
CONTINUOUS
 62
     5
 10
-103.455433
 20
-177.5728219999997
 30
0.0
 11
-103.455433
 21
-211.7214409999999
 31
0.0
  0
ARC
  5
5C4
  8
DETAIL
  6
CONTINUOUS
 62
     5
 10
-113.700019
 20
-211.7214409999999
 30
0.0
 40
10.24458599999997
 50
180.0
 51
0.0
  0
ARC
  5
5C5
  8
DETAIL
  6
CONTINUOUS
 62
     5
 10
-113.700019
 20
-177.5728219999997
 30
0.0
 40
10.24458599999997
 50
0.0
 51
180.0
  0
LINE
  5
5C6
  8
DETAIL
  6
CONTINUOUS
 62
     5
 10
-103.455433
 20
-177.5728219999997
 30
0.0
 11
-103.455433
 21
-211.7214409999999
 31
0.0
  0
LINE
  5
5C7
  8
DETAIL
  6
CONTINUOUS
 62
     5
 10
-103.455433
 20
-117.4712509999999
 30
0.0
 11
-103.455433
 21
-151.6198709999998
 31
0.0
  0
ARC
  5
5C8
  8
DETAIL
  6
CONTINUOUS
 62
     5
 10
-113.700019
 20
-117.4712509999999
 30
0.0
 40
10.24458599999997
 50
0.0
 51
180.0
  0
ARC
  5
5C9
  8
DETAIL
  6
CONTINUOUS
 62
     5
 10
-113.700019
 20
-151.6198709999998
 30
0.0
 40
10.24458599999997
 50
180.0
 51
0.0
  0
LINE
  5
5CA
  8
DETAIL
  6
CONTINUOUS
 62
     5
 10
-103.455433
 20
-117.4712509999999
 30
0.0
 11
-103.455433
 21
-151.6198709999998
 31
0.0
  0
LINE
  5
5CB
  8
DETAIL
  6
CONTINUOUS
 62
     5
 10
-123.9446050000001
 20
-117.4712509999999
 30
0.0
 11
-123.9446050000001
 21
-151.6198709999998
 31
0.0
  0
LINE
  5
5CC
  8
DETAIL
  6
CONTINUOUS
 62
     5
 10
-233.2487149999999
 20
-237.674392
 30
0.0
 11
-233.2487149999999
 21
-271.8230119999999
 31
0.0
  0
LINE
  5
5CD
  8
DETAIL
  6
CONTINUOUS
 62
     5
 10
-212.7595429999999
 20
-237.674392
 30
0.0
 11
-212.7595429999999
 21
-271.8230119999999
 31
0.0
  0
ARC
  5
5CE
  8
DETAIL
  6
CONTINUOUS
 62
     5
 10
-223.0041290000001
 20
-271.8230119999999
 30
0.0
 40
10.24458599999997
 50
180.0
 51
0.0
  0
ARC
  5
5CF
  8
DETAIL
  6
CONTINUOUS
 62
     5
 10
-223.0041290000001
 20
-237.674392
 30
0.0
 40
10.24458599999997
 50
0.0
 51
180.0
  0
LINE
  5
5D0
  8
DETAIL
  6
CONTINUOUS
 62
     5
 10
-212.7595429999999
 20
-237.674392
 30
0.0
 11
-212.7595429999999
 21
-271.8230119999999
 31
0.0
  0
LINE
  5
5D1
  8
DETAIL
  6
CONTINUOUS
 62
     5
 10
-233.2487149999999
 20
-177.5728219999997
 30
0.0
 11
-233.2487149999999
 21
-211.7214409999999
 31
0.0
  0
LINE
  5
5D2
  8
DETAIL
  6
CONTINUOUS
 62
     5
 10
-212.7595429999999
 20
-177.5728219999997
 30
0.0
 11
-212.7595429999999
 21
-211.7214409999999
 31
0.0
  0
ARC
  5
5D3
  8
DETAIL
  6
CONTINUOUS
 62
     5
 10
-223.0041290000001
 20
-211.7214409999999
 30
0.0
 40
10.24458599999997
 50
180.0
 51
0.0
  0
ARC
  5
5D4
  8
DETAIL
  6
CONTINUOUS
 62
     5
 10
-223.0041290000001
 20
-177.5728219999997
 30
0.0
 40
10.24458599999997
 50
0.0
 51
180.0
  0
LINE
  5
5D5
  8
DETAIL
  6
CONTINUOUS
 62
     5
 10
-212.7595429999999
 20
-177.5728219999997
 30
0.0
 11
-212.7595429999999
 21
-211.7214409999999
 31
0.0
  0
LINE
  5
5D6
  8
DETAIL
  6
CONTINUOUS
 62
     5
 10
-212.7595429999999
 20
-117.4712509999999
 30
0.0
 11
-212.7595429999999
 21
-151.6198709999998
 31
0.0
  0
ARC
  5
5D7
  8
DETAIL
  6
CONTINUOUS
 62
     5
 10
-223.0041290000001
 20
-117.4712509999999
 30
0.0
 40
10.24458599999997
 50
0.0
 51
180.0
  0
ARC
  5
5D8
  8
DETAIL
  6
CONTINUOUS
 62
     5
 10
-223.0041290000001
 20
-151.6198709999998
 30
0.0
 40
10.24458599999997
 50
180.0
 51
0.0
  0
LINE
  5
5D9
  8
DETAIL
  6
CONTINUOUS
 62
     5
 10
-212.7595429999999
 20
-117.4712509999999
 30
0.0
 11
-212.7595429999999
 21
-151.6198709999998
 31
0.0
  0
LINE
  5
5DA
  8
DETAIL
  6
CONTINUOUS
 62
     5
 10
-233.2487149999999
 20
-117.4712509999999
 30
0.0
 11
-233.2487149999999
 21
-151.6198709999998
 31
0.0
  0
LINE
  5
5DB
  8
DETAIL
  6
CONTINUOUS
 62
     5
 10
-69.33532099999991
 20
301.1908239999999
 30
0.0
 11
-69.33532099999991
 21
-301.1908239999999
 31
0.0
  0
LINE
  5
5DC
  8
DETAIL
  6
CONTINUOUS
 62
     5
 10
-137.6325599999999
 20
301.1908239999999
 30
0.0
 11
-137.6325599999999
 21
-301.1908239999999
 31
0.0
  0
ARC
  5
5DD
  8
DETAIL
  6
CONTINUOUS
 62
     5
 10
-213.9999999999999
 20
323.9999999999998
 30
0.0
 40
30.0
 50
90.0
 51
180.0
  0
ARC
  5
5DE
  8
DETAIL
  6
CONTINUOUS
 62
     5
 10
-213.9999999999999
 20
-324.0
 30
0.0
 40
30.0
 50
180.0
 51
270.0
  0
LINE
  5
5DF
  8
SIZE
  6
BYBLOCK
 62
    30
 10
0.0
 20
374.0
 30
0.0
 11
0.0
 21
696.919972
 31
0.0
  0
LINE
  5
5E0
  8
SIZE
  6
BYBLOCK
 62
    30
 10
-243.9999999999999
 20
343.9999999999998
 30
0.0
 11
-243.9999999999999
 21
696.919972
 31
0.0
  0
LINE
  5
5E1
  8
SIZE
  6
BYBLOCK
 62
    30
 10
-2.0
 20
666.9199719999999
 30
0.0
 11
-241.9999999999999
 21
666.9199719999999
 31
0.0
  0
TEXT
  5
5E2
  8
SIZE
  6
BYBLOCK
 62
    30
 10
-197.4285710000001
 20
698.919972
 30
0.0
 40
64.0
  1
244
 41
0.9
  0
LINE
  5
5E3
  8
SIZE
  6
BYBLOCK
 62
    30
 10
20.0
 20
353.9999999999999
 30
0.0
 11
739.7665879999996
 21
353.9999999999999
 31
0.0
  0
LINE
  5
5E4
  8
SIZE
  6
BYBLOCK
 62
    30
 10
20.0
 20
-354.0
 30
0.0
 11
739.7665879999996
 21
-354.0
 31
0.0
  0
LINE
  5
5E5
  8
SIZE
  6
BYBLOCK
 62
    30
 10
709.7665879999996
 20
351.9999999999998
 30
0.0
 11
709.7665879999996
 21
-352.0
 31
0.0
  0
TEXT
  5
5E6
  8
SIZE
  6
BYBLOCK
 62
    30
 10
677.7665879999996
 20
-74.057143
 30
0.0
 40
64.0
  1
708
 50
90.0
 41
0.9
  0
LINE
  5
5E7
  8
SIZE
  6
BYBLOCK
 62
    30
 10
40.0
 20
324.9999999999998
 30
0.0
 11
603.9476619999997
 21
324.9999999999998
 31
0.0
  0
LINE
  5
5E8
  8
SIZE
  6
BYBLOCK
 62
    30
 10
40.0
 20
-325.0
 30
0.0
 11
603.9476619999997
 21
-325.0
 31
0.0
  0
LINE
  5
5E9
  8
SIZE
  6
BYBLOCK
 62
    30
 10
573.9476619999999
 20
322.9999999999998
 30
0.0
 11
573.9476619999999
 21
-323.0
 31
0.0
  0
TEXT
  5
5EA
  8
SIZE
  6
BYBLOCK
 62
    30
 10
541.9476619999999
 20
-74.057143
 30
0.0
 40
64.0
  1
650
 50
90.0
 41
0.9
  0
LINE
  5
5EB
  8
SIZE
  6
BYBLOCK
 62
    30
 10
209.0000000000001
 20
306.9999999999998
 30
0.0
 11
483.8636969999999
 21
306.9999999999998
 31
0.0
  0
LINE
  5
5EC
  8
SIZE
  6
BYBLOCK
 62
    30
 10
209.0000000000001
 20
-307.0
 30
0.0
 11
483.8636969999999
 21
-307.0
 31
0.0
  0
LINE
  5
5ED
  8
SIZE
  6
BYBLOCK
 62
    30
 10
453.8636969999999
 20
304.9999999999998
 30
0.0
 11
453.8636969999999
 21
-304.9999999999999
 31
0.0
  0
TEXT
  5
5EE
  8
SIZE
  6
BYBLOCK
 62
    30
 10
421.8636969999998
 20
-102.5828569999999
 30
0.0
 40
64.0
  1
□614
 50
90.0
 41
0.9
  0
LINE
  5
5EF
  8
SIZE
  6
BYBLOCK
 62
    30
 10
0.0
 20
364.9999999999998
 30
0.0
 11
0.0
 21
696.919972
 31
0.0
  0
LINE
  5
5F0
  8
SIZE
  6
BYBLOCK
 62
    30
 10
188.9999999999999
 20
314.8727088825007
 30
0.0
 11
188.9999999999999
 21
696.919972
 31
0.0
  0
LINE
  5
5F1
  8
SIZE
  6
BYBLOCK
 62
    30
 10
2.0
 20
666.9199719999999
 30
0.0
 11
187.0000000000001
 21
666.9199719999999
 31
0.0
  0
TEXT
  5
5F2
  8
SIZE
  6
BYBLOCK
 62
    30
 10
27.2999999999999
 20
698.919972
 30
0.0
 40
64.0
  1
189
 41
0.9
  0
CIRCLE
  5
5F3
  8
SIZE
  6
CONTINUOUS
 62
    30
 10
188.9999999999999
 20
666.9199719999999
 30
0.0
 40
6.0
  0
CIRCLE
  5
5F4
  8
SIZE
  6
CONTINUOUS
 62
    30
 10
0.0
 20
666.9199719999999
 30
0.0
 40
6.0
  0
CIRCLE
  5
5F5
  8
SIZE
  6
CONTINUOUS
 62
    30
 10
453.8636969999999
 20
-307.0
 30
0.0
 40
6.0
  0
CIRCLE
  5
5F6
  8
SIZE
  6
CONTINUOUS
 62
    30
 10
453.8636969999999
 20
306.9999999999998
 30
0.0
 40
6.0
  0
CIRCLE
  5
5F7
  8
SIZE
  6
CONTINUOUS
 62
    30
 10
573.9476619999999
 20
-325.0
 30
0.0
 40
6.0
  0
CIRCLE
  5
5F8
  8
SIZE
  6
CONTINUOUS
 62
    30
 10
573.9476619999999
 20
324.9999999999998
 30
0.0
 40
6.0
  0
CIRCLE
  5
5F9
  8
SIZE
  6
CONTINUOUS
 62
    30
 10
709.7665879999996
 20
-354.0
 30
0.0
 40
6.0
  0
CIRCLE
  5
5FA
  8
SIZE
  6
CONTINUOUS
 62
    30
 10
709.7665879999996
 20
353.9999999999999
 30
0.0
 40
6.0
  0
CIRCLE
  5
5FB
  8
SIZE
  6
CONTINUOUS
 62
    30
 10
-243.9999999999999
 20
666.9199719999999
 30
0.0
 40
6.0
  0
CIRCLE
  5
5FC
  8
SIZE
  6
CONTINUOUS
 62
    30
 10
0.0
 20
666.9199719999999
 30
0.0
 40
6.0
  0
LINE
  5
5FD
  8
NOTE
  6
CONTINUOUS
 62
     4
 10
-20.0
 20
-325.0
 30
0.0
 11
20.0
 21
-325.0
 31
0.0
  0
LINE
  5
5FE
  8
NOTE
  6
CONTINUOUS
 62
     4
 10
0.0
 20
-304.9999999999999
 30
0.0
 11
0.0
 21
-345.0
 31
0.0
  0
LINE
  5
5FF
  8
NOTE
  6
CONTINUOUS
 62
     4
 10
-20.0
 20
-307.0
 30
0.0
 11
20.0
 21
-307.0
 31
0.0
  0
LINE
  5
600
  8
NOTE
  6
CONTINUOUS
 62
     4
 10
0.0
 20
-286.9999999999999
 30
0.0
 11
0.0
 21
-327.0
 31
0.0
  0
LINE
  5
601
  8
NOTE
  6
CONTINUOUS
 62
     4
 10
-20.0
 20
324.9999999999998
 30
0.0
 11
20.0
 21
324.9999999999998
 31
0.0
  0
LINE
  5
602
  8
NOTE
  6
CONTINUOUS
 62
     4
 10
0.0
 20
344.9999999999998
 30
0.0
 11
0.0
 21
304.9999999999998
 31
0.0
  0
TEXT
  5
603
  8
ETC
  6
CONTINUOUS
 62
    61
 10
645.2594792942408
 20
774.8123235598022
 30
0.0
 40
64.0
  1
EGG-60MSTB_4
 41
0.9
  0
TEXT
  5
604
  8
ETC
  6
CONTINUOUS
 62
    61
 10
741.5393846430317
 20
593.0073203775455
 30
0.0
 40
50.0
  1
EGG-60MSTB
 41
0.9
  0
TEXT
  5
605
  8
ETC
  6
CONTINUOUS
 62
    61
 10
637.1860012942408
 20
671.5284967679784
 30
0.0
 40
64.0
  1
産業扇
 41
0.9
  0
LINE
  5
606
  8
DETAIL
  6
CONTINUOUS
 62
     5
 39
50.0
 10
188.9999999999999
 20
-24.99999999999999
 30
0.0
 11
220.9798225867684
 21
-46.57066270188533
 31
0.0
  0
LINE
  5
607
  8
DETAIL
  6
CONTINUOUS
 62
     5
 39
50.0
 10
188.9999999999999
 20
-119.0
 30
0.0
 11
220.9798225867684
 21
-140.5706627018853
 31
0.0
  0
LINE
  5
608
  8
DETAIL
  6
CONTINUOUS
 62
     5
 39
50.0
 10
188.9999999999999
 20
-212.9999999999999
 30
0.0
 11
220.9798225867684
 21
-234.5706627018853
 31
0.0
  0
LINE
  5
609
  8
DETAIL
  6
CONTINUOUS
 62
     5
 39
50.0
 10
229.0690258125396
 20
-252.0038662242241
 30
0.0
 11
231.7822091631701
 21
-252.0038662242241
 31
0.0
  0
ARC
  5
60A
  8
DETAIL
  6
CONTINUOUS
 62
     5
 39
50.0
 10
204.5000000000001
 20
-162.6258755949148
 30
0.0
 40
25.0
 50
10.65415807152473
 51
56.00000000000084
  0
ARC
  5
60B
  8
DETAIL
  6
CONTINUOUS
 62
     5
 39
50.0
 10
207.0000000000001
 20
-161.2966020157611
 30
0.0
 40
25.0
 50
7.568385012309994
 51
56.00000000000087
  0
LINE
  5
60C
  8
DETAIL
  6
CONTINUOUS
 62
     5
 39
50.0
 10
229.0690258125396
 20
-158.0038662242243
 30
0.0
 11
231.7822091631701
 21
-158.0038662242244
 31
0.0
  0
ARC
  5
60D
  8
DETAIL
  6
CONTINUOUS
 62
     5
 39
50.0
 10
204.5000000000001
 20
-256.6258755949149
 30
0.0
 40
25.0
 50
10.65415807152486
 51
56.00000000000091
  0
ARC
  5
60E
  8
DETAIL
  6
CONTINUOUS
 62
     5
 39
50.0
 10
204.5000000000001
 20
-68.62587559491502
 30
0.0
 40
25.0
 50
10.6541580715248
 51
56.00000000000086
  0
ARC
  5
60F
  8
DETAIL
  6
CONTINUOUS
 62
     5
 39
50.0
 10
207.0000000000001
 20
-67.29660201576132
 30
0.0
 40
25.0
 50
7.568385012309994
 51
56.00000000000086
  0
LINE
  5
610
  8
DETAIL
  6
CONTINUOUS
 62
     5
 39
50.0
 10
229.0690258125396
 20
-64.00386622422435
 30
0.0
 11
231.7822091631707
 21
-64.00386622422435
 31
0.0
  0
LINE
  5
611
  8
DETAIL
  6
CONTINUOUS
 62
     5
 39
50.0
 10
188.9999999999999
 20
-28.01554487125972
 30
0.0
 11
218.4798225867687
 21
-47.89993628103898
 31
0.0
  0
ARC
  5
612
  8
DETAIL
  6
CONTINUOUS
 62
     5
 39
50.0
 10
205.8408499437088
 20
-256.3403054143938
 30
0.0
 40
26.51614294194396
 50
9.412406883428428
 51
55.18460448196824
  0
LINE
  5
613
  8
DETAIL
  6
CONTINUOUS
 62
     5
 39
50.0
 10
188.9999999999999
 20
-216.0155448712596
 30
0.0
 11
218.4798225867687
 21
-235.8999362810389
 31
0.0
  0
LINE
  5
614
  8
DETAIL
  6
CONTINUOUS
 62
     5
 39
50.0
 10
188.9999999999999
 20
-121.0725939313874
 30
0.0
 11
218.4798225867687
 21
-141.899936281039
 31
0.0
  0
LINE
  5
615
  8
DETAIL
  6
CONTINUOUS
 62
     5
 39
50.0
 10
188.9999999999999
 20
256.9999999999999
 30
0.0
 11
220.9798225867684
 21
235.4293372981145
 31
0.0
  0
LINE
  5
616
  8
DETAIL
  6
CONTINUOUS
 62
     5
 39
50.0
 10
187.6020177413232
 20
160.9274060686124
 30
0.0
 11
218.4798225867687
 21
140.1000637189609
 31
0.0
  0
LINE
  5
617
  8
DETAIL
  6
CONTINUOUS
 62
     5
 39
50.0
 10
188.9999999999999
 20
162.9999999999999
 30
0.0
 11
220.9798225867684
 21
141.4293372981145
 31
0.0
  0
LINE
  5
618
  8
DETAIL
  6
CONTINUOUS
 62
     5
 39
50.0
 10
188.9999999999999
 20
68.99999999999994
 30
0.0
 11
220.9798225867684
 21
47.42933729811472
 31
0.0
  0
ARC
  5
619
  8
DETAIL
  6
CONTINUOUS
 62
     5
 39
50.0
 10
204.5000000000001
 20
25.37412440508498
 30
0.0
 40
25.0
 50
10.6541580715248
 51
56.00000000000086
  0
ARC
  5
61A
  8
DETAIL
  6
CONTINUOUS
 62
     5
 39
50.0
 10
207.0000000000001
 20
26.70339798423871
 30
0.0
 40
25.0
 50
7.568385012309994
 51
56.00000000000086
  0
LINE
  5
61B
  8
DETAIL
  6
CONTINUOUS
 62
     5
 39
50.0
 10
229.0690258125396
 20
29.99613377577563
 30
0.0
 11
231.7822091631701
 21
29.99613377577563
 31
0.0
  0
LINE
  5
61C
  8
DETAIL
  6
CONTINUOUS
 62
     5
 39
50.0
 10
188.9999999999999
 20
65.98445512874025
 30
0.0
 11
218.4798225867687
 21
46.10006371896099
 31
0.0
  0
ARC
  5
61D
  8
DETAIL
  6
CONTINUOUS
 62
     5
 39
50.0
 10
207.0000000000001
 20
120.7033979842384
 30
0.0
 40
25.0
 50
7.568385012309994
 51
56.00000000000084
  0
LINE
  5
61E
  8
DETAIL
  6
CONTINUOUS
 62
     5
 39
50.0
 10
229.0690258125396
 20
123.9961337757755
 30
0.0
 11
231.7822091631701
 21
123.9961337757755
 31
0.0
  0
ARC
  5
61F
  8
DETAIL
  6
CONTINUOUS
 62
     5
 39
50.0
 10
204.5000000000001
 20
213.3741244050849
 30
0.0
 40
25.0
 50
10.65415807152483
 51
56.00000000000087
  0
ARC
  5
620
  8
DETAIL
  6
CONTINUOUS
 62
     5
 39
50.0
 10
207.0000000000001
 20
214.7033979842385
 30
0.0
 40
25.0
 50
7.568385012309994
 51
56.00000000000087
  0
LINE
  5
621
  8
DETAIL
  6
CONTINUOUS
 62
     5
 39
50.0
 10
229.0690258125396
 20
217.9961337757756
 30
0.0
 11
231.7822091631701
 21
217.9961337757756
 31
0.0
  0
LINE
  5
622
  8
DETAIL
  6
CONTINUOUS
 62
     5
 39
50.0
 10
188.9999999999999
 20
253.9844551287399
 30
0.0
 11
218.4798225867687
 21
234.1000637189609
 31
0.0
  0
ARC
  5
623
  8
DETAIL
  6
CONTINUOUS
 62
     5
 39
50.0
 10
204.5000000000001
 20
119.3741244050848
 30
0.0
 40
25.0
 50
10.65415807152483
 51
56.00000000000087
  0
ARC
  5
624
  8
DETAIL
  6
CONTINUOUS
 62
     5
 10
174.0000000000001
 20
291.9999999999999
 30
0.0
 40
15.0
 50
0.0
 51
90.0
  0
ARC
  5
625
  8
DETAIL
  6
CONTINUOUS
 62
     5
 10
174.0000000000001
 20
291.9999999999999
 30
0.0
 40
15.0
 50
0.0
 51
90.0
  0
LINE
  5
626
  8
SIZE
  6
BYBLOCK
 62
    30
 10
232.0000000000001
 20
234.811250886366
 30
0.0
 11
232.0000000000001
 21
696.919972
 31
0.0
  0
CIRCLE
  5
627
  8
FIX
  6
CONTINUOUS
 62
    11
 10
0.0
 20
324.9999999999998
 30
0.0
 40
5.0
  0
CIRCLE
  5
628
  8
FIX
  6
CONTINUOUS
 62
    11
 10
0.0
 20
-325.0
 30
0.0
 40
5.0
  0
ARC
  5
629
  8
DETAIL
  6
CONTINUOUS
 62
     5
 10
174.0000000000001
 20
291.9999999999999
 30
0.0
 40
15.0
 50
0.0
 51
90.0
  0
ARC
  5
62A
  8
DETAIL
  6
CONTINUOUS
 62
     5
 10
174.0000000000001
 20
-291.9999999999999
 30
0.0
 40
15.0
 50
270.0
 51
0.0
  0
LINE
  5
62B
  8
OUTLINE
  6
CONTINUOUS
 62
     3
 10
188.9999999999999
 20
291.9999999999999
 30
0.0
 11
188.9999999999999
 21
-291.9999999999999
 31
0.0
  0
LINE
  5
62C
  8
OUTLINE
  6
CONTINUOUS
 62
     3
 10
-243.9999999999999
 20
323.9999999999998
 30
0.0
 11
-243.9999999999999
 21
-324.0
 31
0.0
  0
CIRCLE
  5
62D
  8
ARRANGE
  6
CONTINUOUS
 62
     1
 10
0.0
 20
0.0
 30
0.0
 40
54.48275999999999
  0
POINT
  5
62E
  8
ARRANGE
  6
CONTINUOUS
 62
     1
 10
0.0
 20
0.0
 30
0.0
  0
LINE
  5
62F
  8
OUTLINE
  6
CONTINUOUS
 62
     3
 10
174.0000000000001
 20
-307.0
 30
0.0
 11
0.0
 21
-307.0
 31
0.0
  0
ARC
  5
630
  8
OUTLINE
  6
CONTINUOUS
 62
     3
 10
-213.9999999999999
 20
-324.0
 30
0.0
 40
30.0
 50
180.0
 51
270.0
  0
LINE
  5
631
  8
OUTLINE
  6
CONTINUOUS
 62
     3
 10
0.0
 20
-354.0
 30
0.0
 11
-213.9999999999999
 21
-354.0
 31
0.0
  0
ARC
  5
632
  8
OUTLINE
  6
CONTINUOUS
 62
     3
 10
174.0000000000001
 20
-291.9999999999999
 30
0.0
 40
15.0
 50
270.0
 51
0.0
  0
LINE
  5
633
  8
OUTLINE
  6
CONTINUOUS
 62
     3
 10
174.0000000000001
 20
306.9999999999998
 30
0.0
 11
0.0
 21
306.9999999999998
 31
0.0
  0
ARC
  5
634
  8
OUTLINE
  6
CONTINUOUS
 62
     3
 10
-213.9999999999999
 20
323.9999999999998
 30
0.0
 40
30.0
 50
90.0
 51
180.0
  0
LINE
  5
635
  8
OUTLINE
  6
CONTINUOUS
 62
     3
 10
0.0
 20
353.9999999999999
 30
0.0
 11
-213.9999999999999
 21
353.9999999999999
 31
0.0
  0
ARC
  5
636
  8
OUTLINE
  6
CONTINUOUS
 62
     3
 10
174.0000000000001
 20
291.9999999999999
 30
0.0
 40
15.0
 50
0.0
 51
90.0
  0
LINE
  5
637
  8
SIZE
  6
CONTINUOUS
 62
    30
 10
188.9999999999999
 20
666.9199719999999
 30
0.0
 11
388.8206166661092
 21
666.9199719999999
 31
0.0
  0
TEXT
  5
638
  8
SIZE
  6
BYBLOCK
 62
    30
 10
255.0701858648636
 20
698.919972
 30
0.0
 40
64.0
  1
43
 41
0.9
  0
CIRCLE
  5
639
  8
SIZE
  6
CONTINUOUS
 62
    30
 10
232.0000000000001
 20
666.9199719999999
 30
0.0
 40
6.0
  0
LINE
  5
63A
  8
OUTLINE
  6
CONTINUOUS
 62
     3
 10
0.0
 20
353.9999999999999
 30
0.0
 11
0.0
 21
-354.0
 31
0.0
  0
LINE
  5
63B
  8
NOTE
  6
CONTINUOUS
 62
     4
 10
-16.7000119999999
 20
-343.347072
 30
0.0
 11
0.0
 21
-307.0
 31
0.0
  0
LINE
  5
63C
  8
NOTE
  6
CONTINUOUS
 62
     4
 10
0.0
 20
-307.0
 30
0.0
 11
-32.63616999999999
 21
-330.1274819999997
 31
0.0
  0
LINE
  5
63D
  8
NOTE
  6
CONTINUOUS
 62
     4
 10
26.67613299999988
 20
354.80577
 30
0.0
 11
0.0
 21
324.9999999999998
 31
0.0
  0
LINE
  5
63E
  8
NOTE
  6
CONTINUOUS
 62
     4
 10
0.0
 20
324.9999999999998
 30
0.0
 11
38.0050940000001
 21
337.474488
 31
0.0
  0
ENDSEC
  0
EOF
