  0
SECTION
  2
HEADER
  9
$ACADVER
  1
AC1009
  9
$DWGCODEPAGE
  3
ansi_932
  9
$INSBASE
 10
0.0
 20
0.0
 30
0.0
  9
$EXTMIN
 10
-530.5550177003238
 20
-341.2901600131226
 30
0.0
  9
$EXTMAX
 10
1310.399659222439
 20
847.7290418530333
 30
50.0
  9
$LIMMIN
 10
-2970.0
 20
-2100.0
  9
$LIMMAX
 10
2970.0
 20
2100.0
  9
$ORTHOMODE
 70
     1
  9
$REGENMODE
 70
     0
  9
$FILLMODE
 70
     1
  9
$QTEXTMODE
 70
     0
  9
$MIRRTEXT
 70
     0
  9
$DRAGMODE
 70
     2
  9
$LTSCALE
 40
20.0
  9
$OSMODE
 70
    37
  9
$ATTMODE
 70
     1
  9
$TEXTSIZE
 40
64.0
  9
$TRACEWID
 40
0.05
  9
$TEXTSTYLE
  7
STANDARD
  9
$CLAYER
  8
OUTLINE
  9
$CELTYPE
  6
CONTINUOUS
  9
$CECOLOR
 62
     3
  9
$DIMSCALE
 40
1.0
  9
$DIMASZ
 40
2.0
  9
$DIMEXO
 40
20.0
  9
$DIMDLI
 40
200.0
  9
$DIMRND
 40
0.0
  9
$DIMDLE
 40
0.0
  9
$DIMEXE
 40
30.0
  9
$DIMTP
 40
0.0
  9
$DIMTM
 40
0.0
  9
$DIMTXT
 40
64.0
  9
$DIMCEN
 40
0.09
  9
$DIMTSZ
 40
0.0
  9
$DIMTOL
 70
     0
  9
$DIMLIM
 70
     0
  9
$DIMTIH
 70
     0
  9
$DIMTOH
 70
     0
  9
$DIMSE1
 70
     0
  9
$DIMSE2
 70
     0
  9
$DIMTAD
 70
     1
  9
$DIMZIN
 70
     8
  9
$DIMBLK
  1

  9
$DIMASO
 70
     1
  9
$DIMSHO
 70
     0
  9
$DIMPOST
  1

  9
$DIMAPOST
  1

  9
$DIMALT
 70
     0
  9
$DIMALTD
 70
     2
  9
$DIMALTF
 40
25.4
  9
$DIMLFAC
 40
1.0
  9
$DIMTOFL
 70
     1
  9
$DIMTVP
 40
0.0
  9
$DIMTIX
 70
     1
  9
$DIMSOXD
 70
     0
  9
$DIMSAH
 70
     0
  9
$DIMBLK1
  1

  9
$DIMBLK2
  1

  9
$DIMSTYLE
  2
STANDARD
  9
$DIMCLRD
 70
     0
  9
$DIMCLRE
 70
     0
  9
$DIMCLRT
 70
     0
  9
$DIMTFAC
 40
1.0
  9
$DIMGAP
 40
0.09
  9
$LUNITS
 70
     2
  9
$LUPREC
 70
     4
  9
$SKETCHINC
 40
0.1
  9
$FILLETRAD
 40
15.0
  9
$AUNITS
 70
     1
  9
$AUPREC
 70
     3
  9
$MENU
  1
ACAD
  9
$ELEVATION
 40
0.0
  9
$PELEVATION
 40
0.0
  9
$THICKNESS
 40
0.0
  9
$LIMCHECK
 70
     0
  9
$CHAMFERA
 40
0.0
  9
$CHAMFERB
 40
0.0
  9
$SKPOLY
 70
     0
  9
$TDCREATE
 40
2450968.627939803
  9
$TDUPDATE
 40
2457485.556169224
  9
$TDINDWG
 40
0.0310669792
  9
$TDUSRTIMER
 40
0.0310664352
  9
$USRTIMER
 70
     1
  9
$ANGBASE
 50
0.0
  9
$ANGDIR
 70
     0
  9
$PDMODE
 70
     3
  9
$PDSIZE
 40
-2.0
  9
$PLINEWID
 40
0.0
  9
$COORDS
 70
     1
  9
$SPLFRAME
 70
     0
  9
$SPLINETYPE
 70
     6
  9
$SPLINESEGS
 70
     8
  9
$ATTDIA
 70
     0
  9
$ATTREQ
 70
     1
  9
$HANDLING
 70
     1
  9
$HANDSEED
  5
900
  9
$SURFTAB1
 70
     6
  9
$SURFTAB2
 70
     6
  9
$SURFTYPE
 70
     6
  9
$SURFU
 70
     6
  9
$SURFV
 70
     6
  9
$UCSNAME
  2

  9
$UCSORG
 10
0.0
 20
0.0
 30
0.0
  9
$UCSXDIR
 10
1.0
 20
0.0
 30
0.0
  9
$UCSYDIR
 10
0.0
 20
1.0
 30
0.0
  9
$PUCSNAME
  2

  9
$PUCSORG
 10
0.0
 20
0.0
 30
0.0
  9
$PUCSXDIR
 10
1.0
 20
0.0
 30
0.0
  9
$PUCSYDIR
 10
0.0
 20
1.0
 30
0.0
  9
$USERI1
 70
     0
  9
$USERI2
 70
     0
  9
$USERI3
 70
     0
  9
$USERI4
 70
     0
  9
$USERI5
 70
     0
  9
$USERR1
 40
20.0
  9
$USERR2
 40
0.0
  9
$USERR3
 40
0.0
  9
$USERR4
 40
0.0
  9
$USERR5
 40
0.0
  9
$WORLDVIEW
 70
     1
  9
$SHADEDGE
 70
     3
  9
$SHADEDIF
 70
    70
  9
$TILEMODE
 70
     1
  9
$MAXACTVP
 70
    64
  9
$PLIMCHECK
 70
     0
  9
$PEXTMIN
 10
1.000000000000000E+20
 20
1.000000000000000E+20
 30
1.000000000000000E+20
  9
$PEXTMAX
 10
-1.000000000000000E+20
 20
-1.000000000000000E+20
 30
-1.000000000000000E+20
  9
$PLIMMIN
 10
0.0
 20
0.0
  9
$PLIMMAX
 10
12.0
 20
9.0
  9
$UNITMODE
 70
     0
  9
$VISRETAIN
 70
     1
  9
$PLINEGEN
 70
     0
  9
$PSLTSCALE
 70
     1
  0
ENDSEC
  0
SECTION
  2
TABLES
  0
TABLE
  2
VPORT
 70
     1
  0
VPORT
  2
*ACTIVE
 70
     0
 10
0.0
 20
0.0
 11
1.0
 21
1.0
 12
351.6596750736921
 22
249.1873193533166
 13
0.0
 23
0.0
 14
50.0
 24
50.0
 15
100.0
 25
100.0
 16
0.0
 26
0.0
 36
1.0
 17
0.0
 27
0.0
 37
0.0
 40
1813.075972507214
 41
1.493654822335025
 42
50.0
 43
0.0
 44
0.0
 50
0.0
 51
0.0
 71
     0
 72
  1000
 73
     1
 74
     0
 75
     0
 76
     0
 77
     0
 78
     1
  0
ENDTAB
  0
TABLE
  2
LTYPE
 70
     7
  0
LTYPE
  2
CONTINUOUS
 70
     0
  3
実線
 72
    65
 73
     0
 40
0.0
  0
LTYPE
  2
DASHDOT
 70
     0
  3
____ _ ____ _ ____ _ ____ _ ____ _ ____ _ ____
 72
    65
 73
     4
 40
5.5
 49
4.0
 49
-0.6
 49
0.3
 49
-0.6
  0
LTYPE
  2
DASHED
 70
     0
  3
_ _ _ _ _ _ _ _ _ _ _ _ _ _ _ _ _ _ _ _ _ _ _
 72
    65
 73
     2
 40
1.999999999999999
 49
1.199999999999999
 49
-0.8
  0
LTYPE
  2
DOT
 70
     0
  3
...............................................
 72
    65
 73
     2
 40
0.8
 49
0.5
 49
-0.3
  0
LTYPE
  2
DASHDOT1
 70
     0
  3
____ _ ____ _ ____ _ ____ _ ____ _ ____ _ ____
 72
    65
 73
     4
 40
2.0
 49
1.5
 49
-0.2
 49
0.1
 49
-0.2
  0
LTYPE
  2
DIVIDE
 70
     0
  3
_____ _ _ _____ _ _ _____ _ _ _____ _ _ ____
 72
    65
 73
     6
 40
6.4
 49
4.0
 49
-0.6
 49
0.3
 49
-0.6
 49
0.3
 49
-0.6
  0
LTYPE
  2
DIVIDE1
 70
     0
  3
_____ _ _ _____ _ _ _____ _ _ _____ _ _ ____
 72
    65
 73
     6
 40
3.2
 49
2.0
 49
-0.3
 49
0.15
 49
-0.3
 49
0.15
 49
-0.3
  0
ENDTAB
  0
TABLE
  2
LAYER
 70
    12
  0
LAYER
  2
0
 70
     0
 62
     7
  6
CONTINUOUS
  0
LAYER
  2
OUTLINE
 70
     0
 62
     3
  6
CONTINUOUS
  0
LAYER
  2
DETAIL
 70
     0
 62
     5
  6
CONTINUOUS
  0
LAYER
  2
BASIS
 70
     0
 62
     6
  6
DASHDOT
  0
LAYER
  2
SIZE
 70
     0
 62
    30
  6
CONTINUOUS
  0
LAYER
  2
NOTE
 70
     0
 62
     4
  6
CONTINUOUS
  0
LAYER
  2
DEFPOINTS
 70
     0
 62
     7
  6
CONTINUOUS
  0
LAYER
  2
ETC
 70
     0
 62
    61
  6
CONTINUOUS
  0
LAYER
  2
ARRANGE
 70
     0
 62
     1
  6
CONTINUOUS
  0
LAYER
  2
FIX
 70
     0
 62
    11
  6
CONTINUOUS
  0
LAYER
  2
SERVICESPACE
 70
     0
 62
     2
  6
DASHDOT
  0
LAYER
  2
SYMBOLLINE
 70
     0
 62
    15
  6
CONTINUOUS
  0
ENDTAB
  0
TABLE
  2
STYLE
 70
     1
  0
STYLE
  2
STANDARD
 70
     0
 40
0.0
 41
0.9
 50
0.0
 71
     0
 42
64.0
  3
SIMPLEX
  4
BIGFONT
  0
ENDTAB
  0
TABLE
  2
VIEW
 70
     1
  0
VIEW
  2
ALL
 70
     0
 40
4282.619807999997
 10
0.0
 20
41.30990399999999
 41
5940.0
 11
0.0
 21
0.0
 31
1.0
 12
0.0
 22
0.0
 32
0.0
 42
50.0
 43
0.0
 44
0.0
 50
0.0
 71
     0
  0
ENDTAB
  0
TABLE
  2
UCS
 70
     0
  0
ENDTAB
  0
TABLE
  2
APPID
 70
     1
  0
APPID
  2
ACAD
 70
     0
  0
ENDTAB
  0
TABLE
  2
DIMSTYLE
 70
     1
  0
DIMSTYLE
  2
STANDARD
 70
     0
  3

  4

  5

  6

  7

 40
1.0
 41
0.18
 42
0.0625
 43
0.38
 44
0.18
 45
0.0
 46
0.0
 47
0.0
 48
0.0
140
0.18
141
0.09
142
0.0
143
25.4
144
1.0
145
0.0
146
1.0
147
0.09
 71
     0
 72
     0
 73
     1
 74
     1
 75
     0
 76
     0
 77
     0
 78
     0
170
     0
171
     2
172
     0
173
     0
174
     0
175
     0
176
     0
177
     0
178
     0
  0
ENDTAB
  0
ENDSEC
  0
SECTION
  2
BLOCKS
  0
BLOCK
  8
0
  2
$MODEL_SPACE
 70
     0
 10
0.0
 20
0.0
 30
0.0
  3
$MODEL_SPACE
  1

  0
ENDBLK
  5
68E
  8
0
  0
BLOCK
 67
     1
  8
0
  2
$PAPER_SPACE
 70
     0
 10
0.0
 20
0.0
 30
0.0
  3
$PAPER_SPACE
  1

  0
ENDBLK
  5
68A
 67
     1
  8
0
  0
BLOCK
  8
0
  2
DOT1
 70
     0
 10
0.0
 20
0.0
 30
0.0
  3
DOT1
  1

  0
CIRCLE
  5
6AE
  8
SIZE
  6
CONTINUOUS
 62
     7
 10
0.0
 20
0.0
 30
0.0
 40
3.0
  0
ENDBLK
  5
6AF
  8
0
  0
BLOCK
  8
0
  2
_ORIGIN
 70
     0
 10
0.0
 20
0.0
 30
0.0
  3
_ORIGIN
  1

  0
CIRCLE
  5
6B2
  8
0
  6
CONTINUOUS
 62
     7
 10
0.0
 20
0.0
 30
0.0
 40
0.5
  0
LINE
  5
6B3
  8
0
  6
CONTINUOUS
 62
     7
 10
0.0
 20
0.0
 30
0.0
 11
-1.0
 21
0.0
 31
0.0
  0
ENDBLK
  5
6B4
  8
0
  0
ENDSEC
  0
SECTION
  2
ENTITIES
  0
LINE
  5
6B5
  8
NOTE
  6
CONTINUOUS
 62
     4
 10
0.0
 20
324.9999999999998
 30
0.0
 11
-260.6053709999999
 21
495.3502379999999
 31
0.0
  0
LINE
  5
6B6
  8
DETAIL
  6
CONTINUOUS
 62
     5
 10
-173.9999999999999
 20
306.9999999999997
 30
0.0
 11
0.0
 21
306.9999999999997
 31
0.0
  0
LINE
  5
6B7
  8
DETAIL
  6
CONTINUOUS
 62
     5
 10
-173.9999999999999
 20
-306.9999999999998
 30
0.0
 11
0.0
 21
-306.9999999999998
 31
0.0
  0
LINE
  5
6B8
  8
DETAIL
  6
CONTINUOUS
 62
     5
 10
0.0
 20
-353.9999999999998
 30
0.0
 11
214.0
 21
-353.9999999999998
 31
0.0
  0
LINE
  5
6B9
  8
DETAIL
  6
CONTINUOUS
 62
     5
 10
0.0
 20
353.9999999999998
 30
0.0
 11
214.0
 21
353.9999999999998
 31
0.0
  0
LINE
  5
6BA
  8
NOTE
  6
CONTINUOUS
 62
     4
 10
-260.6053709999999
 20
495.3502379999999
 30
0.0
 11
-553.5732899999999
 21
495.3502379999999
 31
0.0
  0
LINE
  5
6BB
  8
DETAIL
  6
CONTINUOUS
 62
     5
 10
0.0
 20
309.9999999999999
 30
0.0
 11
0.0
 21
265.5000049999998
 31
0.0
  0
LINE
  5
6BC
  8
DETAIL
  6
CONTINUOUS
 62
     5
 10
0.0
 20
-265.5000049999998
 30
0.0
 11
0.0
 21
-309.9999999999998
 31
0.0
  0
LINE
  5
6BD
  8
DETAIL
  6
CONTINUOUS
 62
     5
 10
0.0
 20
353.9999999999998
 30
0.0
 11
0.0
 21
-353.9999999999998
 31
0.0
  0
TEXT
  5
6BE
  8
NOTE
  6
CONTINUOUS
 62
     4
 10
-543.4580489999997
 20
521.6162249999996
 30
0.0
 40
64.0
  1
4-φ14
 41
0.9
  0
LINE
  5
6BF
  8
DETAIL
  6
CONTINUOUS
 62
     5
 10
-188.9999999999999
 20
291.9999999999997
 30
0.0
 11
-188.9999999999999
 21
-292.0
 31
0.0
  0
LINE
  5
6C0
  8
DETAIL
  6
CONTINUOUS
 62
     5
 10
244.0000000000001
 20
323.9999999999997
 30
0.0
 11
244.0000000000001
 21
-323.9999999999999
 31
0.0
  0
LINE
  5
6C1
  8
BASIS
  6
DASHDOT
 62
     6
 10
-261.1902469999999
 20
0.0
 30
0.0
 11
311.131292
 21
0.0
 31
0.0
  0
LINE
  5
6C2
  8
DETAIL
  6
CONTINUOUS
 62
     5
 10
244.0000000000001
 20
-301.1908239999997
 30
0.0
 11
0.0
 21
-301.1908239999997
 31
0.0
  0
LINE
  5
6C3
  8
DETAIL
  6
CONTINUOUS
 62
     5
 10
244.0000000000001
 20
301.1908239999999
 30
0.0
 11
0.0
 21
301.1908239999999
 31
0.0
  0
LINE
  5
6C4
  8
DETAIL
  6
CONTINUOUS
 62
     5
 10
244.0000000000001
 20
100.3969409999999
 30
0.0
 11
137.63256
 21
100.3969409999999
 31
0.0
  0
LINE
  5
6C5
  8
DETAIL
  6
CONTINUOUS
 62
     5
 10
244.0000000000001
 20
94.93316199999988
 30
0.0
 11
137.63256
 21
94.93316199999988
 31
0.0
  0
LINE
  5
6C6
  8
DETAIL
  6
CONTINUOUS
 62
     5
 10
244.0000000000001
 20
-94.93316199999992
 30
0.0
 11
137.63256
 21
-94.93316199999992
 31
0.0
  0
LINE
  5
6C7
  8
DETAIL
  6
CONTINUOUS
 62
     5
 10
244.0000000000001
 20
-100.3969409999999
 30
0.0
 11
137.63256
 21
-100.3969409999999
 31
0.0
  0
LINE
  5
6C8
  8
DETAIL
  6
CONTINUOUS
 62
     5
 10
244.0000000000001
 20
295.7270449999999
 30
0.0
 11
137.63256
 21
295.7270449999999
 31
0.0
  0
LINE
  5
6C9
  8
DETAIL
  6
CONTINUOUS
 62
     5
 10
244.0000000000001
 20
290.2632659999999
 30
0.0
 11
137.63256
 21
290.2632659999999
 31
0.0
  0
LINE
  5
6CA
  8
DETAIL
  6
CONTINUOUS
 62
     5
 10
244.0000000000001
 20
-295.7270449999998
 30
0.0
 11
137.63256
 21
-295.7270449999998
 31
0.0
  0
LINE
  5
6CB
  8
DETAIL
  6
CONTINUOUS
 62
     5
 10
244.0000000000001
 20
-290.2632659999999
 30
0.0
 11
137.63256
 21
-290.2632659999999
 31
0.0
  0
LINE
  5
6CC
  8
DETAIL
  6
CONTINUOUS
 62
     5
 10
205.901292
 20
273.1889559999999
 30
0.0
 11
205.901292
 21
239.0403369999999
 31
0.0
  0
LINE
  5
6CD
  8
DETAIL
  6
CONTINUOUS
 62
     5
 10
185.41212
 20
273.1889559999999
 30
0.0
 11
185.41212
 21
239.0403369999999
 31
0.0
  0
ARC
  5
6CE
  8
DETAIL
  6
CONTINUOUS
 62
     5
 10
195.656706
 20
239.0403369999999
 30
0.0
 40
10.24458599999997
 50
180.0
 51
0.0
  0
ARC
  5
6CF
  8
DETAIL
  6
CONTINUOUS
 62
     5
 10
195.656706
 20
273.1889559999999
 30
0.0
 40
10.24458599999997
 50
0.0
 51
180.0
  0
LINE
  5
6D0
  8
DETAIL
  6
CONTINUOUS
 62
     5
 10
185.41212
 20
273.1889559999999
 30
0.0
 11
185.41212
 21
239.0403369999999
 31
0.0
  0
LINE
  5
6D1
  8
DETAIL
  6
CONTINUOUS
 62
     5
 10
185.41212
 20
213.0873859999999
 30
0.0
 11
185.41212
 21
178.9387659999999
 31
0.0
  0
ARC
  5
6D2
  8
DETAIL
  6
CONTINUOUS
 62
     5
 10
195.656706
 20
213.0873859999999
 30
0.0
 40
10.24458599999997
 50
0.0
 51
180.0
  0
ARC
  5
6D3
  8
DETAIL
  6
CONTINUOUS
 62
     5
 10
195.656706
 20
178.9387659999999
 30
0.0
 40
10.24458599999997
 50
180.0
 51
0.0
  0
LINE
  5
6D4
  8
DETAIL
  6
CONTINUOUS
 62
     5
 10
185.41212
 20
213.0873859999999
 30
0.0
 11
185.41212
 21
178.9387659999999
 31
0.0
  0
LINE
  5
6D5
  8
DETAIL
  6
CONTINUOUS
 62
     5
 10
205.901292
 20
213.0873859999999
 30
0.0
 11
205.901292
 21
178.9387659999999
 31
0.0
  0
LINE
  5
6D6
  8
DETAIL
  6
CONTINUOUS
 62
     5
 10
185.41212
 20
152.985816
 30
0.0
 11
185.41212
 21
118.8371959999999
 31
0.0
  0
ARC
  5
6D7
  8
DETAIL
  6
CONTINUOUS
 62
     5
 10
195.656706
 20
152.985816
 30
0.0
 40
10.24458599999997
 50
0.0
 51
180.0
  0
ARC
  5
6D8
  8
DETAIL
  6
CONTINUOUS
 62
     5
 10
195.656706
 20
118.8371959999999
 30
0.0
 40
10.24458599999997
 50
180.0
 51
0.0
  0
LINE
  5
6D9
  8
DETAIL
  6
CONTINUOUS
 62
     5
 10
185.41212
 20
152.985816
 30
0.0
 11
185.41212
 21
118.8371959999999
 31
0.0
  0
LINE
  5
6DA
  8
DETAIL
  6
CONTINUOUS
 62
     5
 10
205.901292
 20
152.985816
 30
0.0
 11
205.901292
 21
118.8371959999999
 31
0.0
  0
LINE
  5
6DB
  8
DETAIL
  6
CONTINUOUS
 62
     5
 10
151.263501
 20
152.985816
 30
0.0
 11
151.263501
 21
118.8371959999999
 31
0.0
  0
LINE
  5
6DC
  8
DETAIL
  6
CONTINUOUS
 62
     5
 10
130.774329
 20
152.985816
 30
0.0
 11
130.774329
 21
118.8371959999999
 31
0.0
  0
ARC
  5
6DD
  8
DETAIL
  6
CONTINUOUS
 62
     5
 10
141.018915
 20
118.8371959999999
 30
0.0
 40
10.24458599999997
 50
180.0
 51
0.0
  0
ARC
  5
6DE
  8
DETAIL
  6
CONTINUOUS
 62
     5
 10
141.018915
 20
152.985816
 30
0.0
 40
10.24458599999997
 50
0.0
 51
180.0
  0
LINE
  5
6DF
  8
DETAIL
  6
CONTINUOUS
 62
     5
 10
130.774329
 20
152.985816
 30
0.0
 11
130.774329
 21
118.8371959999999
 31
0.0
  0
LINE
  5
6E0
  8
DETAIL
  6
CONTINUOUS
 62
     5
 10
151.263501
 20
213.0873859999999
 30
0.0
 11
151.263501
 21
178.9387659999999
 31
0.0
  0
LINE
  5
6E1
  8
DETAIL
  6
CONTINUOUS
 62
     5
 10
130.774329
 20
213.0873859999999
 30
0.0
 11
130.774329
 21
178.9387659999999
 31
0.0
  0
ARC
  5
6E2
  8
DETAIL
  6
CONTINUOUS
 62
     5
 10
141.018915
 20
178.9387659999999
 30
0.0
 40
10.24458599999997
 50
180.0
 51
0.0
  0
ARC
  5
6E3
  8
DETAIL
  6
CONTINUOUS
 62
     5
 10
141.018915
 20
213.0873859999999
 30
0.0
 40
10.24458599999997
 50
0.0
 51
180.0
  0
LINE
  5
6E4
  8
DETAIL
  6
CONTINUOUS
 62
     5
 10
130.774329
 20
213.0873859999999
 30
0.0
 11
130.774329
 21
178.9387659999999
 31
0.0
  0
LINE
  5
6E5
  8
DETAIL
  6
CONTINUOUS
 62
     5
 10
130.774329
 20
273.1889559999999
 30
0.0
 11
130.774329
 21
239.0403369999999
 31
0.0
  0
ARC
  5
6E6
  8
DETAIL
  6
CONTINUOUS
 62
     5
 10
141.018915
 20
273.1889559999999
 30
0.0
 40
10.24458599999997
 50
0.0
 51
180.0
  0
ARC
  5
6E7
  8
DETAIL
  6
CONTINUOUS
 62
     5
 10
141.018915
 20
239.0403369999999
 30
0.0
 40
10.24458599999997
 50
180.0
 51
0.0
  0
LINE
  5
6E8
  8
DETAIL
  6
CONTINUOUS
 62
     5
 10
130.774329
 20
273.1889559999999
 30
0.0
 11
130.774329
 21
239.0403369999999
 31
0.0
  0
LINE
  5
6E9
  8
DETAIL
  6
CONTINUOUS
 62
     5
 10
151.263501
 20
273.1889559999999
 30
0.0
 11
151.263501
 21
239.0403369999999
 31
0.0
  0
LINE
  5
6EA
  8
DETAIL
  6
CONTINUOUS
 62
     5
 10
178.582396
 20
273.1889559999999
 30
0.0
 11
178.582396
 21
239.0403369999999
 31
0.0
  0
LINE
  5
6EB
  8
DETAIL
  6
CONTINUOUS
 62
     5
 10
158.093225
 20
273.1889559999999
 30
0.0
 11
158.093225
 21
239.0403369999999
 31
0.0
  0
ARC
  5
6EC
  8
DETAIL
  6
CONTINUOUS
 62
     5
 10
168.3378110000001
 20
239.0403369999999
 30
0.0
 40
10.24458599999997
 50
180.0
 51
0.0
  0
ARC
  5
6ED
  8
DETAIL
  6
CONTINUOUS
 62
     5
 10
168.3378110000001
 20
273.1889559999999
 30
0.0
 40
10.24458599999997
 50
0.0
 51
180.0
  0
LINE
  5
6EE
  8
DETAIL
  6
CONTINUOUS
 62
     5
 10
158.093225
 20
273.1889559999999
 30
0.0
 11
158.093225
 21
239.0403369999999
 31
0.0
  0
LINE
  5
6EF
  8
DETAIL
  6
CONTINUOUS
 62
     5
 10
158.093225
 20
213.0873859999999
 30
0.0
 11
158.093225
 21
178.9387659999999
 31
0.0
  0
ARC
  5
6F0
  8
DETAIL
  6
CONTINUOUS
 62
     5
 10
168.3378110000001
 20
213.0873859999999
 30
0.0
 40
10.24458599999997
 50
0.0
 51
180.0
  0
ARC
  5
6F1
  8
DETAIL
  6
CONTINUOUS
 62
     5
 10
168.3378110000001
 20
178.9387659999999
 30
0.0
 40
10.24458599999997
 50
180.0
 51
0.0
  0
LINE
  5
6F2
  8
DETAIL
  6
CONTINUOUS
 62
     5
 10
158.093225
 20
213.0873859999999
 30
0.0
 11
158.093225
 21
178.9387659999999
 31
0.0
  0
LINE
  5
6F3
  8
DETAIL
  6
CONTINUOUS
 62
     5
 10
178.582396
 20
213.0873859999999
 30
0.0
 11
178.582396
 21
178.9387659999999
 31
0.0
  0
LINE
  5
6F4
  8
DETAIL
  6
CONTINUOUS
 62
     5
 10
158.093225
 20
152.985816
 30
0.0
 11
158.093225
 21
118.8371959999999
 31
0.0
  0
ARC
  5
6F5
  8
DETAIL
  6
CONTINUOUS
 62
     5
 10
168.3378110000001
 20
152.985816
 30
0.0
 40
10.24458599999997
 50
0.0
 51
180.0
  0
ARC
  5
6F6
  8
DETAIL
  6
CONTINUOUS
 62
     5
 10
168.3378110000001
 20
118.8371959999999
 30
0.0
 40
10.24458599999997
 50
180.0
 51
0.0
  0
LINE
  5
6F7
  8
DETAIL
  6
CONTINUOUS
 62
     5
 10
158.093225
 20
152.985816
 30
0.0
 11
158.093225
 21
118.8371959999999
 31
0.0
  0
LINE
  5
6F8
  8
DETAIL
  6
CONTINUOUS
 62
     5
 10
178.582396
 20
152.985816
 30
0.0
 11
178.582396
 21
118.8371959999999
 31
0.0
  0
LINE
  5
6F9
  8
DETAIL
  6
CONTINUOUS
 62
     5
 10
96.62571000000008
 20
152.985816
 30
0.0
 11
96.62571000000008
 21
118.8371959999999
 31
0.0
  0
LINE
  5
6FA
  8
DETAIL
  6
CONTINUOUS
 62
     5
 10
76.13653800000009
 20
152.985816
 30
0.0
 11
76.13653800000009
 21
118.8371959999999
 31
0.0
  0
ARC
  5
6FB
  8
DETAIL
  6
CONTINUOUS
 62
     5
 10
86.381124
 20
118.8371959999999
 30
0.0
 40
10.24458599999997
 50
180.0
 51
0.0
  0
ARC
  5
6FC
  8
DETAIL
  6
CONTINUOUS
 62
     5
 10
86.381124
 20
152.985816
 30
0.0
 40
10.24458599999997
 50
0.0
 51
180.0
  0
LINE
  5
6FD
  8
DETAIL
  6
CONTINUOUS
 62
     5
 10
76.13653800000009
 20
152.985816
 30
0.0
 11
76.13653800000009
 21
118.8371959999999
 31
0.0
  0
LINE
  5
6FE
  8
DETAIL
  6
CONTINUOUS
 62
     5
 10
96.62571000000008
 20
213.0873859999999
 30
0.0
 11
96.62571000000008
 21
178.9387659999999
 31
0.0
  0
LINE
  5
6FF
  8
DETAIL
  6
CONTINUOUS
 62
     5
 10
76.13653800000009
 20
213.0873859999999
 30
0.0
 11
76.13653800000009
 21
178.9387659999999
 31
0.0
  0
ARC
  5
700
  8
DETAIL
  6
CONTINUOUS
 62
     5
 10
86.381124
 20
178.9387659999999
 30
0.0
 40
10.24458599999997
 50
180.0
 51
0.0
  0
ARC
  5
701
  8
DETAIL
  6
CONTINUOUS
 62
     5
 10
86.381124
 20
213.0873859999999
 30
0.0
 40
10.24458599999997
 50
0.0
 51
180.0
  0
LINE
  5
702
  8
DETAIL
  6
CONTINUOUS
 62
     5
 10
76.13653800000009
 20
213.0873859999999
 30
0.0
 11
76.13653800000009
 21
178.9387659999999
 31
0.0
  0
LINE
  5
703
  8
DETAIL
  6
CONTINUOUS
 62
     5
 10
76.13653800000009
 20
273.1889559999999
 30
0.0
 11
76.13653800000009
 21
239.0403369999999
 31
0.0
  0
ARC
  5
704
  8
DETAIL
  6
CONTINUOUS
 62
     5
 10
86.381124
 20
273.1889559999999
 30
0.0
 40
10.24458599999997
 50
0.0
 51
180.0
  0
ARC
  5
705
  8
DETAIL
  6
CONTINUOUS
 62
     5
 10
86.381124
 20
239.0403369999999
 30
0.0
 40
10.24458599999997
 50
180.0
 51
0.0
  0
LINE
  5
706
  8
DETAIL
  6
CONTINUOUS
 62
     5
 10
76.13653800000009
 20
273.1889559999999
 30
0.0
 11
76.13653800000009
 21
239.0403369999999
 31
0.0
  0
LINE
  5
707
  8
DETAIL
  6
CONTINUOUS
 62
     5
 10
96.62571000000008
 20
273.1889559999999
 30
0.0
 11
96.62571000000008
 21
239.0403369999999
 31
0.0
  0
LINE
  5
708
  8
DETAIL
  6
CONTINUOUS
 62
     5
 10
123.944605
 20
152.985816
 30
0.0
 11
123.944605
 21
118.8371959999999
 31
0.0
  0
LINE
  5
709
  8
DETAIL
  6
CONTINUOUS
 62
     5
 10
103.455433
 20
152.985816
 30
0.0
 11
103.455433
 21
118.8371959999999
 31
0.0
  0
ARC
  5
70A
  8
DETAIL
  6
CONTINUOUS
 62
     5
 10
113.700019
 20
118.8371959999999
 30
0.0
 40
10.24458599999997
 50
180.0
 51
0.0
  0
ARC
  5
70B
  8
DETAIL
  6
CONTINUOUS
 62
     5
 10
113.700019
 20
152.985816
 30
0.0
 40
10.24458599999997
 50
0.0
 51
180.0
  0
LINE
  5
70C
  8
DETAIL
  6
CONTINUOUS
 62
     5
 10
103.455433
 20
152.985816
 30
0.0
 11
103.455433
 21
118.8371959999999
 31
0.0
  0
LINE
  5
70D
  8
DETAIL
  6
CONTINUOUS
 62
     5
 10
123.944605
 20
213.0873859999999
 30
0.0
 11
123.944605
 21
178.9387659999999
 31
0.0
  0
LINE
  5
70E
  8
DETAIL
  6
CONTINUOUS
 62
     5
 10
103.455433
 20
213.0873859999999
 30
0.0
 11
103.455433
 21
178.9387659999999
 31
0.0
  0
ARC
  5
70F
  8
DETAIL
  6
CONTINUOUS
 62
     5
 10
113.700019
 20
178.9387659999999
 30
0.0
 40
10.24458599999997
 50
180.0
 51
0.0
  0
ARC
  5
710
  8
DETAIL
  6
CONTINUOUS
 62
     5
 10
113.700019
 20
213.0873859999999
 30
0.0
 40
10.24458599999997
 50
0.0
 51
180.0
  0
LINE
  5
711
  8
DETAIL
  6
CONTINUOUS
 62
     5
 10
103.455433
 20
213.0873859999999
 30
0.0
 11
103.455433
 21
178.9387659999999
 31
0.0
  0
LINE
  5
712
  8
DETAIL
  6
CONTINUOUS
 62
     5
 10
103.455433
 20
273.1889559999999
 30
0.0
 11
103.455433
 21
239.0403369999999
 31
0.0
  0
ARC
  5
713
  8
DETAIL
  6
CONTINUOUS
 62
     5
 10
113.700019
 20
273.1889559999999
 30
0.0
 40
10.24458599999997
 50
0.0
 51
180.0
  0
ARC
  5
714
  8
DETAIL
  6
CONTINUOUS
 62
     5
 10
113.700019
 20
239.0403369999999
 30
0.0
 40
10.24458599999997
 50
180.0
 51
0.0
  0
LINE
  5
715
  8
DETAIL
  6
CONTINUOUS
 62
     5
 10
103.455433
 20
273.1889559999999
 30
0.0
 11
103.455433
 21
239.0403369999999
 31
0.0
  0
LINE
  5
716
  8
DETAIL
  6
CONTINUOUS
 62
     5
 10
123.944605
 20
273.1889559999999
 30
0.0
 11
123.944605
 21
239.0403369999999
 31
0.0
  0
LINE
  5
717
  8
DETAIL
  6
CONTINUOUS
 62
     5
 10
233.248715
 20
152.985816
 30
0.0
 11
233.248715
 21
118.8371959999999
 31
0.0
  0
LINE
  5
718
  8
DETAIL
  6
CONTINUOUS
 62
     5
 10
212.759543
 20
152.985816
 30
0.0
 11
212.759543
 21
118.8371959999999
 31
0.0
  0
ARC
  5
719
  8
DETAIL
  6
CONTINUOUS
 62
     5
 10
223.0041290000001
 20
118.8371959999999
 30
0.0
 40
10.24458599999997
 50
180.0
 51
0.0
  0
ARC
  5
71A
  8
DETAIL
  6
CONTINUOUS
 62
     5
 10
223.0041290000001
 20
152.985816
 30
0.0
 40
10.24458599999997
 50
0.0
 51
180.0
  0
LINE
  5
71B
  8
DETAIL
  6
CONTINUOUS
 62
     5
 10
212.759543
 20
152.985816
 30
0.0
 11
212.759543
 21
118.8371959999999
 31
0.0
  0
LINE
  5
71C
  8
DETAIL
  6
CONTINUOUS
 62
     5
 10
233.248715
 20
213.0873859999999
 30
0.0
 11
233.248715
 21
178.9387659999999
 31
0.0
  0
LINE
  5
71D
  8
DETAIL
  6
CONTINUOUS
 62
     5
 10
212.759543
 20
213.0873859999999
 30
0.0
 11
212.759543
 21
178.9387659999999
 31
0.0
  0
ARC
  5
71E
  8
DETAIL
  6
CONTINUOUS
 62
     5
 10
223.0041290000001
 20
178.9387659999999
 30
0.0
 40
10.24458599999997
 50
180.0
 51
0.0
  0
ARC
  5
71F
  8
DETAIL
  6
CONTINUOUS
 62
     5
 10
223.0041290000001
 20
213.0873859999999
 30
0.0
 40
10.24458599999997
 50
0.0
 51
180.0
  0
LINE
  5
720
  8
DETAIL
  6
CONTINUOUS
 62
     5
 10
212.759543
 20
213.0873859999999
 30
0.0
 11
212.759543
 21
178.9387659999999
 31
0.0
  0
LINE
  5
721
  8
DETAIL
  6
CONTINUOUS
 62
     5
 10
212.759543
 20
273.1889559999999
 30
0.0
 11
212.759543
 21
239.0403369999999
 31
0.0
  0
ARC
  5
722
  8
DETAIL
  6
CONTINUOUS
 62
     5
 10
223.0041290000001
 20
273.1889559999999
 30
0.0
 40
10.24458599999997
 50
0.0
 51
180.0
  0
ARC
  5
723
  8
DETAIL
  6
CONTINUOUS
 62
     5
 10
223.0041290000001
 20
239.0403369999999
 30
0.0
 40
10.24458599999997
 50
180.0
 51
0.0
  0
LINE
  5
724
  8
DETAIL
  6
CONTINUOUS
 62
     5
 10
212.759543
 20
273.1889559999999
 30
0.0
 11
212.759543
 21
239.0403369999999
 31
0.0
  0
LINE
  5
725
  8
DETAIL
  6
CONTINUOUS
 62
     5
 10
233.248715
 20
273.1889559999999
 30
0.0
 11
233.248715
 21
239.0403369999999
 31
0.0
  0
LINE
  5
726
  8
DETAIL
  6
CONTINUOUS
 62
     5
 10
233.248715
 20
77.85885299999995
 30
0.0
 11
233.248715
 21
43.71023300000001
 31
0.0
  0
LINE
  5
727
  8
DETAIL
  6
CONTINUOUS
 62
     5
 10
212.759543
 20
77.85885299999995
 30
0.0
 11
212.759543
 21
43.71023300000001
 31
0.0
  0
ARC
  5
728
  8
DETAIL
  6
CONTINUOUS
 62
     5
 10
223.0041290000001
 20
43.71023300000001
 30
0.0
 40
10.24458599999997
 50
180.0
 51
0.0
  0
ARC
  5
729
  8
DETAIL
  6
CONTINUOUS
 62
     5
 10
223.0041290000001
 20
77.85885299999995
 30
0.0
 40
10.24458599999997
 50
0.0
 51
180.0
  0
LINE
  5
72A
  8
DETAIL
  6
CONTINUOUS
 62
     5
 10
212.759543
 20
77.85885299999995
 30
0.0
 11
212.759543
 21
43.71023300000001
 31
0.0
  0
LINE
  5
72B
  8
DETAIL
  6
CONTINUOUS
 62
     5
 10
212.759543
 20
17.75728199999999
 30
0.0
 11
212.759543
 21
-16.39133699999998
 31
0.0
  0
ARC
  5
72C
  8
DETAIL
  6
CONTINUOUS
 62
     5
 10
223.0041290000001
 20
17.75728199999999
 30
0.0
 40
10.24458599999997
 50
0.0
 51
180.0
  0
ARC
  5
72D
  8
DETAIL
  6
CONTINUOUS
 62
     5
 10
223.0041290000001
 20
-16.39133699999998
 30
0.0
 40
10.24458599999997
 50
180.0
 51
0.0
  0
LINE
  5
72E
  8
DETAIL
  6
CONTINUOUS
 62
     5
 10
212.759543
 20
17.75728199999999
 30
0.0
 11
212.759543
 21
-16.39133699999998
 31
0.0
  0
LINE
  5
72F
  8
DETAIL
  6
CONTINUOUS
 62
     5
 10
233.248715
 20
17.75728199999999
 30
0.0
 11
233.248715
 21
-16.39133699999998
 31
0.0
  0
LINE
  5
730
  8
DETAIL
  6
CONTINUOUS
 62
     5
 10
212.759543
 20
-42.34428799999999
 30
0.0
 11
212.759543
 21
-76.492908
 31
0.0
  0
ARC
  5
731
  8
DETAIL
  6
CONTINUOUS
 62
     5
 10
223.0041290000001
 20
-42.34428799999999
 30
0.0
 40
10.24458599999997
 50
0.0
 51
180.0
  0
ARC
  5
732
  8
DETAIL
  6
CONTINUOUS
 62
     5
 10
223.0041290000001
 20
-76.492908
 30
0.0
 40
10.24458599999997
 50
180.0
 51
0.0
  0
LINE
  5
733
  8
DETAIL
  6
CONTINUOUS
 62
     5
 10
212.759543
 20
-42.34428799999999
 30
0.0
 11
212.759543
 21
-76.492908
 31
0.0
  0
LINE
  5
734
  8
DETAIL
  6
CONTINUOUS
 62
     5
 10
233.248715
 20
-42.34428799999999
 30
0.0
 11
233.248715
 21
-76.492908
 31
0.0
  0
LINE
  5
735
  8
DETAIL
  6
CONTINUOUS
 62
     5
 10
123.944605
 20
77.85885299999995
 30
0.0
 11
123.944605
 21
43.71023300000001
 31
0.0
  0
LINE
  5
736
  8
DETAIL
  6
CONTINUOUS
 62
     5
 10
103.455433
 20
77.85885299999995
 30
0.0
 11
103.455433
 21
43.71023300000001
 31
0.0
  0
ARC
  5
737
  8
DETAIL
  6
CONTINUOUS
 62
     5
 10
113.700019
 20
43.71023300000001
 30
0.0
 40
10.24458599999997
 50
180.0
 51
0.0
  0
ARC
  5
738
  8
DETAIL
  6
CONTINUOUS
 62
     5
 10
113.700019
 20
77.85885299999995
 30
0.0
 40
10.24458599999997
 50
0.0
 51
180.0
  0
LINE
  5
739
  8
DETAIL
  6
CONTINUOUS
 62
     5
 10
103.455433
 20
77.85885299999995
 30
0.0
 11
103.455433
 21
43.71023300000001
 31
0.0
  0
LINE
  5
73A
  8
DETAIL
  6
CONTINUOUS
 62
     5
 10
103.455433
 20
17.75728199999999
 30
0.0
 11
103.455433
 21
-16.39133699999998
 31
0.0
  0
ARC
  5
73B
  8
DETAIL
  6
CONTINUOUS
 62
     5
 10
113.700019
 20
17.75728199999999
 30
0.0
 40
10.24458599999997
 50
0.0
 51
180.0
  0
ARC
  5
73C
  8
DETAIL
  6
CONTINUOUS
 62
     5
 10
113.700019
 20
-16.39133699999998
 30
0.0
 40
10.24458599999997
 50
180.0
 51
0.0
  0
LINE
  5
73D
  8
DETAIL
  6
CONTINUOUS
 62
     5
 10
103.455433
 20
17.75728199999999
 30
0.0
 11
103.455433
 21
-16.39133699999998
 31
0.0
  0
LINE
  5
73E
  8
DETAIL
  6
CONTINUOUS
 62
     5
 10
123.944605
 20
17.75728199999999
 30
0.0
 11
123.944605
 21
-16.39133699999998
 31
0.0
  0
LINE
  5
73F
  8
DETAIL
  6
CONTINUOUS
 62
     5
 10
103.455433
 20
-42.34428799999999
 30
0.0
 11
103.455433
 21
-76.492908
 31
0.0
  0
ARC
  5
740
  8
DETAIL
  6
CONTINUOUS
 62
     5
 10
113.700019
 20
-42.34428799999999
 30
0.0
 40
10.24458599999997
 50
0.0
 51
180.0
  0
ARC
  5
741
  8
DETAIL
  6
CONTINUOUS
 62
     5
 10
113.700019
 20
-76.492908
 30
0.0
 40
10.24458599999997
 50
180.0
 51
0.0
  0
LINE
  5
742
  8
DETAIL
  6
CONTINUOUS
 62
     5
 10
103.455433
 20
-42.34428799999999
 30
0.0
 11
103.455433
 21
-76.492908
 31
0.0
  0
LINE
  5
743
  8
DETAIL
  6
CONTINUOUS
 62
     5
 10
123.944605
 20
-42.34428799999999
 30
0.0
 11
123.944605
 21
-76.492908
 31
0.0
  0
LINE
  5
744
  8
DETAIL
  6
CONTINUOUS
 62
     5
 10
96.62571000000008
 20
77.85885299999995
 30
0.0
 11
96.62571000000008
 21
43.71023300000001
 31
0.0
  0
LINE
  5
745
  8
DETAIL
  6
CONTINUOUS
 62
     5
 10
76.13653800000009
 20
77.85885299999995
 30
0.0
 11
76.13653800000009
 21
43.71023300000001
 31
0.0
  0
ARC
  5
746
  8
DETAIL
  6
CONTINUOUS
 62
     5
 10
86.381124
 20
43.71023300000001
 30
0.0
 40
10.24458599999997
 50
180.0
 51
0.0
  0
ARC
  5
747
  8
DETAIL
  6
CONTINUOUS
 62
     5
 10
86.381124
 20
77.85885299999995
 30
0.0
 40
10.24458599999997
 50
0.0
 51
180.0
  0
LINE
  5
748
  8
DETAIL
  6
CONTINUOUS
 62
     5
 10
76.13653800000009
 20
77.85885299999995
 30
0.0
 11
76.13653800000009
 21
43.71023300000001
 31
0.0
  0
LINE
  5
749
  8
DETAIL
  6
CONTINUOUS
 62
     5
 10
76.13653800000009
 20
17.75728199999999
 30
0.0
 11
76.13653800000009
 21
-16.39133699999998
 31
0.0
  0
ARC
  5
74A
  8
DETAIL
  6
CONTINUOUS
 62
     5
 10
86.381124
 20
17.75728199999999
 30
0.0
 40
10.24458599999997
 50
0.0
 51
180.0
  0
ARC
  5
74B
  8
DETAIL
  6
CONTINUOUS
 62
     5
 10
86.381124
 20
-16.39133699999998
 30
0.0
 40
10.24458599999997
 50
180.0
 51
0.0
  0
LINE
  5
74C
  8
DETAIL
  6
CONTINUOUS
 62
     5
 10
76.13653800000009
 20
17.75728199999999
 30
0.0
 11
76.13653800000009
 21
-16.39133699999998
 31
0.0
  0
LINE
  5
74D
  8
DETAIL
  6
CONTINUOUS
 62
     5
 10
96.62571000000008
 20
17.75728199999999
 30
0.0
 11
96.62571000000008
 21
-16.39133699999998
 31
0.0
  0
LINE
  5
74E
  8
DETAIL
  6
CONTINUOUS
 62
     5
 10
76.13653800000009
 20
-42.34428799999999
 30
0.0
 11
76.13653800000009
 21
-76.492908
 31
0.0
  0
ARC
  5
74F
  8
DETAIL
  6
CONTINUOUS
 62
     5
 10
86.381124
 20
-42.34428799999999
 30
0.0
 40
10.24458599999997
 50
0.0
 51
180.0
  0
ARC
  5
750
  8
DETAIL
  6
CONTINUOUS
 62
     5
 10
86.381124
 20
-76.492908
 30
0.0
 40
10.24458599999997
 50
180.0
 51
0.0
  0
LINE
  5
751
  8
DETAIL
  6
CONTINUOUS
 62
     5
 10
76.13653800000009
 20
-42.34428799999999
 30
0.0
 11
76.13653800000009
 21
-76.492908
 31
0.0
  0
LINE
  5
752
  8
DETAIL
  6
CONTINUOUS
 62
     5
 10
96.62571000000008
 20
-42.34428799999999
 30
0.0
 11
96.62571000000008
 21
-76.492908
 31
0.0
  0
LINE
  5
753
  8
DETAIL
  6
CONTINUOUS
 62
     5
 10
178.582396
 20
-42.34428799999999
 30
0.0
 11
178.582396
 21
-76.492908
 31
0.0
  0
LINE
  5
754
  8
DETAIL
  6
CONTINUOUS
 62
     5
 10
158.093225
 20
-42.34428799999999
 30
0.0
 11
158.093225
 21
-76.492908
 31
0.0
  0
ARC
  5
755
  8
DETAIL
  6
CONTINUOUS
 62
     5
 10
168.3378110000001
 20
-76.492908
 30
0.0
 40
10.24458599999997
 50
180.0
 51
0.0
  0
ARC
  5
756
  8
DETAIL
  6
CONTINUOUS
 62
     5
 10
168.3378110000001
 20
-42.34428799999999
 30
0.0
 40
10.24458599999997
 50
0.0
 51
180.0
  0
LINE
  5
757
  8
DETAIL
  6
CONTINUOUS
 62
     5
 10
158.093225
 20
-42.34428799999999
 30
0.0
 11
158.093225
 21
-76.492908
 31
0.0
  0
LINE
  5
758
  8
DETAIL
  6
CONTINUOUS
 62
     5
 10
178.582396
 20
17.75728199999999
 30
0.0
 11
178.582396
 21
-16.39133699999998
 31
0.0
  0
LINE
  5
759
  8
DETAIL
  6
CONTINUOUS
 62
     5
 10
158.093225
 20
17.75728199999999
 30
0.0
 11
158.093225
 21
-16.39133699999998
 31
0.0
  0
ARC
  5
75A
  8
DETAIL
  6
CONTINUOUS
 62
     5
 10
168.3378110000001
 20
-16.39133699999998
 30
0.0
 40
10.24458599999997
 50
180.0
 51
0.0
  0
ARC
  5
75B
  8
DETAIL
  6
CONTINUOUS
 62
     5
 10
168.3378110000001
 20
17.75728199999999
 30
0.0
 40
10.24458599999997
 50
0.0
 51
180.0
  0
LINE
  5
75C
  8
DETAIL
  6
CONTINUOUS
 62
     5
 10
158.093225
 20
17.75728199999999
 30
0.0
 11
158.093225
 21
-16.39133699999998
 31
0.0
  0
LINE
  5
75D
  8
DETAIL
  6
CONTINUOUS
 62
     5
 10
158.093225
 20
77.85885299999995
 30
0.0
 11
158.093225
 21
43.71023300000001
 31
0.0
  0
ARC
  5
75E
  8
DETAIL
  6
CONTINUOUS
 62
     5
 10
168.3378110000001
 20
77.85885299999995
 30
0.0
 40
10.24458599999997
 50
0.0
 51
180.0
  0
ARC
  5
75F
  8
DETAIL
  6
CONTINUOUS
 62
     5
 10
168.3378110000001
 20
43.71023300000001
 30
0.0
 40
10.24458599999997
 50
180.0
 51
0.0
  0
LINE
  5
760
  8
DETAIL
  6
CONTINUOUS
 62
     5
 10
158.093225
 20
77.85885299999995
 30
0.0
 11
158.093225
 21
43.71023300000001
 31
0.0
  0
LINE
  5
761
  8
DETAIL
  6
CONTINUOUS
 62
     5
 10
178.582396
 20
77.85885299999995
 30
0.0
 11
178.582396
 21
43.71023300000001
 31
0.0
  0
LINE
  5
762
  8
DETAIL
  6
CONTINUOUS
 62
     5
 10
151.263501
 20
77.85885299999995
 30
0.0
 11
151.263501
 21
43.71023300000001
 31
0.0
  0
LINE
  5
763
  8
DETAIL
  6
CONTINUOUS
 62
     5
 10
130.774329
 20
77.85885299999995
 30
0.0
 11
130.774329
 21
43.71023300000001
 31
0.0
  0
ARC
  5
764
  8
DETAIL
  6
CONTINUOUS
 62
     5
 10
141.018915
 20
43.71023300000001
 30
0.0
 40
10.24458599999997
 50
180.0
 51
0.0
  0
ARC
  5
765
  8
DETAIL
  6
CONTINUOUS
 62
     5
 10
141.018915
 20
77.85885299999995
 30
0.0
 40
10.24458599999997
 50
0.0
 51
180.0
  0
LINE
  5
766
  8
DETAIL
  6
CONTINUOUS
 62
     5
 10
130.774329
 20
77.85885299999995
 30
0.0
 11
130.774329
 21
43.71023300000001
 31
0.0
  0
LINE
  5
767
  8
DETAIL
  6
CONTINUOUS
 62
     5
 10
130.774329
 20
17.75728199999999
 30
0.0
 11
130.774329
 21
-16.39133699999998
 31
0.0
  0
ARC
  5
768
  8
DETAIL
  6
CONTINUOUS
 62
     5
 10
141.018915
 20
17.75728199999999
 30
0.0
 40
10.24458599999997
 50
0.0
 51
180.0
  0
ARC
  5
769
  8
DETAIL
  6
CONTINUOUS
 62
     5
 10
141.018915
 20
-16.39133699999998
 30
0.0
 40
10.24458599999997
 50
180.0
 51
0.0
  0
LINE
  5
76A
  8
DETAIL
  6
CONTINUOUS
 62
     5
 10
130.774329
 20
17.75728199999999
 30
0.0
 11
130.774329
 21
-16.39133699999998
 31
0.0
  0
LINE
  5
76B
  8
DETAIL
  6
CONTINUOUS
 62
     5
 10
151.263501
 20
17.75728199999999
 30
0.0
 11
151.263501
 21
-16.39133699999998
 31
0.0
  0
LINE
  5
76C
  8
DETAIL
  6
CONTINUOUS
 62
     5
 10
130.774329
 20
-42.34428799999999
 30
0.0
 11
130.774329
 21
-76.492908
 31
0.0
  0
ARC
  5
76D
  8
DETAIL
  6
CONTINUOUS
 62
     5
 10
141.018915
 20
-42.34428799999999
 30
0.0
 40
10.24458599999997
 50
0.0
 51
180.0
  0
ARC
  5
76E
  8
DETAIL
  6
CONTINUOUS
 62
     5
 10
141.018915
 20
-76.492908
 30
0.0
 40
10.24458599999997
 50
180.0
 51
0.0
  0
LINE
  5
76F
  8
DETAIL
  6
CONTINUOUS
 62
     5
 10
130.774329
 20
-42.34428799999999
 30
0.0
 11
130.774329
 21
-76.492908
 31
0.0
  0
LINE
  5
770
  8
DETAIL
  6
CONTINUOUS
 62
     5
 10
151.263501
 20
-42.34428799999999
 30
0.0
 11
151.263501
 21
-76.492908
 31
0.0
  0
LINE
  5
771
  8
DETAIL
  6
CONTINUOUS
 62
     5
 10
205.901292
 20
-42.34428799999999
 30
0.0
 11
205.901292
 21
-76.492908
 31
0.0
  0
LINE
  5
772
  8
DETAIL
  6
CONTINUOUS
 62
     5
 10
185.41212
 20
-42.34428799999999
 30
0.0
 11
185.41212
 21
-76.492908
 31
0.0
  0
ARC
  5
773
  8
DETAIL
  6
CONTINUOUS
 62
     5
 10
195.656706
 20
-76.492908
 30
0.0
 40
10.24458599999997
 50
180.0
 51
0.0
  0
ARC
  5
774
  8
DETAIL
  6
CONTINUOUS
 62
     5
 10
195.656706
 20
-42.34428799999999
 30
0.0
 40
10.24458599999997
 50
0.0
 51
180.0
  0
LINE
  5
775
  8
DETAIL
  6
CONTINUOUS
 62
     5
 10
185.41212
 20
-42.34428799999999
 30
0.0
 11
185.41212
 21
-76.492908
 31
0.0
  0
LINE
  5
776
  8
DETAIL
  6
CONTINUOUS
 62
     5
 10
205.901292
 20
17.75728199999999
 30
0.0
 11
205.901292
 21
-16.39133699999998
 31
0.0
  0
LINE
  5
777
  8
DETAIL
  6
CONTINUOUS
 62
     5
 10
185.41212
 20
17.75728199999999
 30
0.0
 11
185.41212
 21
-16.39133699999998
 31
0.0
  0
ARC
  5
778
  8
DETAIL
  6
CONTINUOUS
 62
     5
 10
195.656706
 20
-16.39133699999998
 30
0.0
 40
10.24458599999997
 50
180.0
 51
0.0
  0
ARC
  5
779
  8
DETAIL
  6
CONTINUOUS
 62
     5
 10
195.656706
 20
17.75728199999999
 30
0.0
 40
10.24458599999997
 50
0.0
 51
180.0
  0
LINE
  5
77A
  8
DETAIL
  6
CONTINUOUS
 62
     5
 10
185.41212
 20
17.75728199999999
 30
0.0
 11
185.41212
 21
-16.39133699999998
 31
0.0
  0
LINE
  5
77B
  8
DETAIL
  6
CONTINUOUS
 62
     5
 10
185.41212
 20
77.85885299999995
 30
0.0
 11
185.41212
 21
43.71023300000001
 31
0.0
  0
ARC
  5
77C
  8
DETAIL
  6
CONTINUOUS
 62
     5
 10
195.656706
 20
77.85885299999995
 30
0.0
 40
10.24458599999997
 50
0.0
 51
180.0
  0
ARC
  5
77D
  8
DETAIL
  6
CONTINUOUS
 62
     5
 10
195.656706
 20
43.71023300000001
 30
0.0
 40
10.24458599999997
 50
180.0
 51
0.0
  0
LINE
  5
77E
  8
DETAIL
  6
CONTINUOUS
 62
     5
 10
185.41212
 20
77.85885299999995
 30
0.0
 11
185.41212
 21
43.71023300000001
 31
0.0
  0
LINE
  5
77F
  8
DETAIL
  6
CONTINUOUS
 62
     5
 10
205.901292
 20
77.85885299999995
 30
0.0
 11
205.901292
 21
43.71023300000001
 31
0.0
  0
LINE
  5
780
  8
DETAIL
  6
CONTINUOUS
 62
     5
 10
205.901292
 20
-117.4712509999999
 30
0.0
 11
205.901292
 21
-151.6198709999996
 31
0.0
  0
LINE
  5
781
  8
DETAIL
  6
CONTINUOUS
 62
     5
 10
185.41212
 20
-117.4712509999999
 30
0.0
 11
185.41212
 21
-151.6198709999996
 31
0.0
  0
ARC
  5
782
  8
DETAIL
  6
CONTINUOUS
 62
     5
 10
195.656706
 20
-151.6198709999996
 30
0.0
 40
10.24458599999997
 50
180.0
 51
0.0
  0
ARC
  5
783
  8
DETAIL
  6
CONTINUOUS
 62
     5
 10
195.656706
 20
-117.4712509999999
 30
0.0
 40
10.24458599999997
 50
0.0
 51
180.0
  0
LINE
  5
784
  8
DETAIL
  6
CONTINUOUS
 62
     5
 10
185.41212
 20
-117.4712509999999
 30
0.0
 11
185.41212
 21
-151.6198709999996
 31
0.0
  0
LINE
  5
785
  8
DETAIL
  6
CONTINUOUS
 62
     5
 10
185.41212
 20
-177.5728219999997
 30
0.0
 11
185.41212
 21
-211.7214409999997
 31
0.0
  0
ARC
  5
786
  8
DETAIL
  6
CONTINUOUS
 62
     5
 10
195.656706
 20
-177.5728219999997
 30
0.0
 40
10.24458599999997
 50
0.0
 51
180.0
  0
ARC
  5
787
  8
DETAIL
  6
CONTINUOUS
 62
     5
 10
195.656706
 20
-211.7214409999997
 30
0.0
 40
10.24458599999997
 50
180.0
 51
0.0
  0
LINE
  5
788
  8
DETAIL
  6
CONTINUOUS
 62
     5
 10
185.41212
 20
-177.5728219999997
 30
0.0
 11
185.41212
 21
-211.7214409999997
 31
0.0
  0
LINE
  5
789
  8
DETAIL
  6
CONTINUOUS
 62
     5
 10
205.901292
 20
-177.5728219999997
 30
0.0
 11
205.901292
 21
-211.7214409999997
 31
0.0
  0
LINE
  5
78A
  8
DETAIL
  6
CONTINUOUS
 62
     5
 10
185.41212
 20
-237.674392
 30
0.0
 11
185.41212
 21
-271.823012
 31
0.0
  0
ARC
  5
78B
  8
DETAIL
  6
CONTINUOUS
 62
     5
 10
195.656706
 20
-237.674392
 30
0.0
 40
10.24458599999997
 50
0.0
 51
180.0
  0
ARC
  5
78C
  8
DETAIL
  6
CONTINUOUS
 62
     5
 10
195.656706
 20
-271.823012
 30
0.0
 40
10.24458599999997
 50
180.0
 51
0.0
  0
LINE
  5
78D
  8
DETAIL
  6
CONTINUOUS
 62
     5
 10
185.41212
 20
-237.674392
 30
0.0
 11
185.41212
 21
-271.823012
 31
0.0
  0
LINE
  5
78E
  8
DETAIL
  6
CONTINUOUS
 62
     5
 10
205.901292
 20
-237.674392
 30
0.0
 11
205.901292
 21
-271.823012
 31
0.0
  0
LINE
  5
78F
  8
DETAIL
  6
CONTINUOUS
 62
     5
 10
151.263501
 20
-237.674392
 30
0.0
 11
151.263501
 21
-271.823012
 31
0.0
  0
LINE
  5
790
  8
DETAIL
  6
CONTINUOUS
 62
     5
 10
130.774329
 20
-237.674392
 30
0.0
 11
130.774329
 21
-271.823012
 31
0.0
  0
ARC
  5
791
  8
DETAIL
  6
CONTINUOUS
 62
     5
 10
141.018915
 20
-271.823012
 30
0.0
 40
10.24458599999997
 50
180.0
 51
0.0
  0
ARC
  5
792
  8
DETAIL
  6
CONTINUOUS
 62
     5
 10
141.018915
 20
-237.674392
 30
0.0
 40
10.24458599999997
 50
0.0
 51
180.0
  0
LINE
  5
793
  8
DETAIL
  6
CONTINUOUS
 62
     5
 10
130.774329
 20
-237.674392
 30
0.0
 11
130.774329
 21
-271.823012
 31
0.0
  0
LINE
  5
794
  8
DETAIL
  6
CONTINUOUS
 62
     5
 10
151.263501
 20
-177.5728219999997
 30
0.0
 11
151.263501
 21
-211.7214409999997
 31
0.0
  0
LINE
  5
795
  8
DETAIL
  6
CONTINUOUS
 62
     5
 10
130.774329
 20
-177.5728219999997
 30
0.0
 11
130.774329
 21
-211.7214409999997
 31
0.0
  0
ARC
  5
796
  8
DETAIL
  6
CONTINUOUS
 62
     5
 10
141.018915
 20
-211.7214409999997
 30
0.0
 40
10.24458599999997
 50
180.0
 51
0.0
  0
ARC
  5
797
  8
DETAIL
  6
CONTINUOUS
 62
     5
 10
141.018915
 20
-177.5728219999997
 30
0.0
 40
10.24458599999997
 50
0.0
 51
180.0
  0
LINE
  5
798
  8
DETAIL
  6
CONTINUOUS
 62
     5
 10
130.774329
 20
-177.5728219999997
 30
0.0
 11
130.774329
 21
-211.7214409999997
 31
0.0
  0
LINE
  5
799
  8
DETAIL
  6
CONTINUOUS
 62
     5
 10
130.774329
 20
-117.4712509999999
 30
0.0
 11
130.774329
 21
-151.6198709999996
 31
0.0
  0
ARC
  5
79A
  8
DETAIL
  6
CONTINUOUS
 62
     5
 10
141.018915
 20
-117.4712509999999
 30
0.0
 40
10.24458599999997
 50
0.0
 51
180.0
  0
ARC
  5
79B
  8
DETAIL
  6
CONTINUOUS
 62
     5
 10
141.018915
 20
-151.6198709999996
 30
0.0
 40
10.24458599999997
 50
180.0
 51
0.0
  0
LINE
  5
79C
  8
DETAIL
  6
CONTINUOUS
 62
     5
 10
130.774329
 20
-117.4712509999999
 30
0.0
 11
130.774329
 21
-151.6198709999996
 31
0.0
  0
LINE
  5
79D
  8
DETAIL
  6
CONTINUOUS
 62
     5
 10
151.263501
 20
-117.4712509999999
 30
0.0
 11
151.263501
 21
-151.6198709999996
 31
0.0
  0
LINE
  5
79E
  8
DETAIL
  6
CONTINUOUS
 62
     5
 10
178.582396
 20
-117.4712509999999
 30
0.0
 11
178.582396
 21
-151.6198709999996
 31
0.0
  0
LINE
  5
79F
  8
DETAIL
  6
CONTINUOUS
 62
     5
 10
158.093225
 20
-117.4712509999999
 30
0.0
 11
158.093225
 21
-151.6198709999996
 31
0.0
  0
ARC
  5
7A0
  8
DETAIL
  6
CONTINUOUS
 62
     5
 10
168.3378110000001
 20
-151.6198709999996
 30
0.0
 40
10.24458599999997
 50
180.0
 51
0.0
  0
ARC
  5
7A1
  8
DETAIL
  6
CONTINUOUS
 62
     5
 10
168.3378110000001
 20
-117.4712509999999
 30
0.0
 40
10.24458599999997
 50
0.0
 51
180.0
  0
LINE
  5
7A2
  8
DETAIL
  6
CONTINUOUS
 62
     5
 10
158.093225
 20
-117.4712509999999
 30
0.0
 11
158.093225
 21
-151.6198709999996
 31
0.0
  0
LINE
  5
7A3
  8
DETAIL
  6
CONTINUOUS
 62
     5
 10
158.093225
 20
-177.5728219999997
 30
0.0
 11
158.093225
 21
-211.7214409999997
 31
0.0
  0
ARC
  5
7A4
  8
DETAIL
  6
CONTINUOUS
 62
     5
 10
168.3378110000001
 20
-177.5728219999997
 30
0.0
 40
10.24458599999997
 50
0.0
 51
180.0
  0
ARC
  5
7A5
  8
DETAIL
  6
CONTINUOUS
 62
     5
 10
168.3378110000001
 20
-211.7214409999997
 30
0.0
 40
10.24458599999997
 50
180.0
 51
0.0
  0
LINE
  5
7A6
  8
DETAIL
  6
CONTINUOUS
 62
     5
 10
158.093225
 20
-177.5728219999997
 30
0.0
 11
158.093225
 21
-211.7214409999997
 31
0.0
  0
LINE
  5
7A7
  8
DETAIL
  6
CONTINUOUS
 62
     5
 10
178.582396
 20
-177.5728219999997
 30
0.0
 11
178.582396
 21
-211.7214409999997
 31
0.0
  0
LINE
  5
7A8
  8
DETAIL
  6
CONTINUOUS
 62
     5
 10
158.093225
 20
-237.674392
 30
0.0
 11
158.093225
 21
-271.823012
 31
0.0
  0
ARC
  5
7A9
  8
DETAIL
  6
CONTINUOUS
 62
     5
 10
168.3378110000001
 20
-237.674392
 30
0.0
 40
10.24458599999997
 50
0.0
 51
180.0
  0
ARC
  5
7AA
  8
DETAIL
  6
CONTINUOUS
 62
     5
 10
168.3378110000001
 20
-271.823012
 30
0.0
 40
10.24458599999997
 50
180.0
 51
0.0
  0
LINE
  5
7AB
  8
DETAIL
  6
CONTINUOUS
 62
     5
 10
158.093225
 20
-237.674392
 30
0.0
 11
158.093225
 21
-271.823012
 31
0.0
  0
LINE
  5
7AC
  8
DETAIL
  6
CONTINUOUS
 62
     5
 10
178.582396
 20
-237.674392
 30
0.0
 11
178.582396
 21
-271.823012
 31
0.0
  0
LINE
  5
7AD
  8
DETAIL
  6
CONTINUOUS
 62
     5
 10
96.62571000000008
 20
-237.674392
 30
0.0
 11
96.62571000000008
 21
-271.823012
 31
0.0
  0
LINE
  5
7AE
  8
DETAIL
  6
CONTINUOUS
 62
     5
 10
76.13653800000009
 20
-237.674392
 30
0.0
 11
76.13653800000009
 21
-271.823012
 31
0.0
  0
ARC
  5
7AF
  8
DETAIL
  6
CONTINUOUS
 62
     5
 10
86.381124
 20
-271.823012
 30
0.0
 40
10.24458599999997
 50
180.0
 51
0.0
  0
ARC
  5
7B0
  8
DETAIL
  6
CONTINUOUS
 62
     5
 10
86.381124
 20
-237.674392
 30
0.0
 40
10.24458599999997
 50
0.0
 51
180.0
  0
LINE
  5
7B1
  8
DETAIL
  6
CONTINUOUS
 62
     5
 10
76.13653800000009
 20
-237.674392
 30
0.0
 11
76.13653800000009
 21
-271.823012
 31
0.0
  0
LINE
  5
7B2
  8
DETAIL
  6
CONTINUOUS
 62
     5
 10
96.62571000000008
 20
-177.5728219999997
 30
0.0
 11
96.62571000000008
 21
-211.7214409999997
 31
0.0
  0
LINE
  5
7B3
  8
DETAIL
  6
CONTINUOUS
 62
     5
 10
76.13653800000009
 20
-177.5728219999997
 30
0.0
 11
76.13653800000009
 21
-211.7214409999997
 31
0.0
  0
ARC
  5
7B4
  8
DETAIL
  6
CONTINUOUS
 62
     5
 10
86.381124
 20
-211.7214409999997
 30
0.0
 40
10.24458599999997
 50
180.0
 51
0.0
  0
ARC
  5
7B5
  8
DETAIL
  6
CONTINUOUS
 62
     5
 10
86.381124
 20
-177.5728219999997
 30
0.0
 40
10.24458599999997
 50
0.0
 51
180.0
  0
LINE
  5
7B6
  8
DETAIL
  6
CONTINUOUS
 62
     5
 10
76.13653800000009
 20
-177.5728219999997
 30
0.0
 11
76.13653800000009
 21
-211.7214409999997
 31
0.0
  0
LINE
  5
7B7
  8
DETAIL
  6
CONTINUOUS
 62
     5
 10
76.13653800000009
 20
-117.4712509999999
 30
0.0
 11
76.13653800000009
 21
-151.6198709999996
 31
0.0
  0
ARC
  5
7B8
  8
DETAIL
  6
CONTINUOUS
 62
     5
 10
86.381124
 20
-117.4712509999999
 30
0.0
 40
10.24458599999997
 50
0.0
 51
180.0
  0
ARC
  5
7B9
  8
DETAIL
  6
CONTINUOUS
 62
     5
 10
86.381124
 20
-151.6198709999996
 30
0.0
 40
10.24458599999997
 50
180.0
 51
0.0
  0
LINE
  5
7BA
  8
DETAIL
  6
CONTINUOUS
 62
     5
 10
76.13653800000009
 20
-117.4712509999999
 30
0.0
 11
76.13653800000009
 21
-151.6198709999996
 31
0.0
  0
LINE
  5
7BB
  8
DETAIL
  6
CONTINUOUS
 62
     5
 10
96.62571000000008
 20
-117.4712509999999
 30
0.0
 11
96.62571000000008
 21
-151.6198709999996
 31
0.0
  0
LINE
  5
7BC
  8
DETAIL
  6
CONTINUOUS
 62
     5
 10
123.944605
 20
-237.674392
 30
0.0
 11
123.944605
 21
-271.823012
 31
0.0
  0
LINE
  5
7BD
  8
DETAIL
  6
CONTINUOUS
 62
     5
 10
103.455433
 20
-237.674392
 30
0.0
 11
103.455433
 21
-271.823012
 31
0.0
  0
ARC
  5
7BE
  8
DETAIL
  6
CONTINUOUS
 62
     5
 10
113.700019
 20
-271.823012
 30
0.0
 40
10.24458599999997
 50
180.0
 51
0.0
  0
ARC
  5
7BF
  8
DETAIL
  6
CONTINUOUS
 62
     5
 10
113.700019
 20
-237.674392
 30
0.0
 40
10.24458599999997
 50
0.0
 51
180.0
  0
LINE
  5
7C0
  8
DETAIL
  6
CONTINUOUS
 62
     5
 10
103.455433
 20
-237.674392
 30
0.0
 11
103.455433
 21
-271.823012
 31
0.0
  0
LINE
  5
7C1
  8
DETAIL
  6
CONTINUOUS
 62
     5
 10
123.944605
 20
-177.5728219999997
 30
0.0
 11
123.944605
 21
-211.7214409999997
 31
0.0
  0
LINE
  5
7C2
  8
DETAIL
  6
CONTINUOUS
 62
     5
 10
103.455433
 20
-177.5728219999997
 30
0.0
 11
103.455433
 21
-211.7214409999997
 31
0.0
  0
ARC
  5
7C3
  8
DETAIL
  6
CONTINUOUS
 62
     5
 10
113.700019
 20
-211.7214409999997
 30
0.0
 40
10.24458599999997
 50
180.0
 51
0.0
  0
ARC
  5
7C4
  8
DETAIL
  6
CONTINUOUS
 62
     5
 10
113.700019
 20
-177.5728219999997
 30
0.0
 40
10.24458599999997
 50
0.0
 51
180.0
  0
LINE
  5
7C5
  8
DETAIL
  6
CONTINUOUS
 62
     5
 10
103.455433
 20
-177.5728219999997
 30
0.0
 11
103.455433
 21
-211.7214409999997
 31
0.0
  0
LINE
  5
7C6
  8
DETAIL
  6
CONTINUOUS
 62
     5
 10
103.455433
 20
-117.4712509999999
 30
0.0
 11
103.455433
 21
-151.6198709999996
 31
0.0
  0
ARC
  5
7C7
  8
DETAIL
  6
CONTINUOUS
 62
     5
 10
113.700019
 20
-117.4712509999999
 30
0.0
 40
10.24458599999997
 50
0.0
 51
180.0
  0
ARC
  5
7C8
  8
DETAIL
  6
CONTINUOUS
 62
     5
 10
113.700019
 20
-151.6198709999996
 30
0.0
 40
10.24458599999997
 50
180.0
 51
0.0
  0
LINE
  5
7C9
  8
DETAIL
  6
CONTINUOUS
 62
     5
 10
103.455433
 20
-117.4712509999999
 30
0.0
 11
103.455433
 21
-151.6198709999996
 31
0.0
  0
LINE
  5
7CA
  8
DETAIL
  6
CONTINUOUS
 62
     5
 10
123.944605
 20
-117.4712509999999
 30
0.0
 11
123.944605
 21
-151.6198709999996
 31
0.0
  0
LINE
  5
7CB
  8
DETAIL
  6
CONTINUOUS
 62
     5
 10
233.248715
 20
-237.674392
 30
0.0
 11
233.248715
 21
-271.823012
 31
0.0
  0
LINE
  5
7CC
  8
DETAIL
  6
CONTINUOUS
 62
     5
 10
212.759543
 20
-237.674392
 30
0.0
 11
212.759543
 21
-271.823012
 31
0.0
  0
ARC
  5
7CD
  8
DETAIL
  6
CONTINUOUS
 62
     5
 10
223.0041290000001
 20
-271.823012
 30
0.0
 40
10.24458599999997
 50
180.0
 51
0.0
  0
ARC
  5
7CE
  8
DETAIL
  6
CONTINUOUS
 62
     5
 10
223.0041290000001
 20
-237.674392
 30
0.0
 40
10.24458599999997
 50
0.0
 51
180.0
  0
LINE
  5
7CF
  8
DETAIL
  6
CONTINUOUS
 62
     5
 10
212.759543
 20
-237.674392
 30
0.0
 11
212.759543
 21
-271.823012
 31
0.0
  0
LINE
  5
7D0
  8
DETAIL
  6
CONTINUOUS
 62
     5
 10
233.248715
 20
-177.5728219999997
 30
0.0
 11
233.248715
 21
-211.7214409999997
 31
0.0
  0
LINE
  5
7D1
  8
DETAIL
  6
CONTINUOUS
 62
     5
 10
212.759543
 20
-177.5728219999997
 30
0.0
 11
212.759543
 21
-211.7214409999997
 31
0.0
  0
ARC
  5
7D2
  8
DETAIL
  6
CONTINUOUS
 62
     5
 10
223.0041290000001
 20
-211.7214409999997
 30
0.0
 40
10.24458599999997
 50
180.0
 51
0.0
  0
ARC
  5
7D3
  8
DETAIL
  6
CONTINUOUS
 62
     5
 10
223.0041290000001
 20
-177.5728219999997
 30
0.0
 40
10.24458599999997
 50
0.0
 51
180.0
  0
LINE
  5
7D4
  8
DETAIL
  6
CONTINUOUS
 62
     5
 10
212.759543
 20
-177.5728219999997
 30
0.0
 11
212.759543
 21
-211.7214409999997
 31
0.0
  0
LINE
  5
7D5
  8
DETAIL
  6
CONTINUOUS
 62
     5
 10
212.759543
 20
-117.4712509999999
 30
0.0
 11
212.759543
 21
-151.6198709999996
 31
0.0
  0
ARC
  5
7D6
  8
DETAIL
  6
CONTINUOUS
 62
     5
 10
223.0041290000001
 20
-117.4712509999999
 30
0.0
 40
10.24458599999997
 50
0.0
 51
180.0
  0
ARC
  5
7D7
  8
DETAIL
  6
CONTINUOUS
 62
     5
 10
223.0041290000001
 20
-151.6198709999996
 30
0.0
 40
10.24458599999997
 50
180.0
 51
0.0
  0
LINE
  5
7D8
  8
DETAIL
  6
CONTINUOUS
 62
     5
 10
212.759543
 20
-117.4712509999999
 30
0.0
 11
212.759543
 21
-151.6198709999996
 31
0.0
  0
LINE
  5
7D9
  8
DETAIL
  6
CONTINUOUS
 62
     5
 10
233.248715
 20
-117.4712509999999
 30
0.0
 11
233.248715
 21
-151.6198709999996
 31
0.0
  0
LINE
  5
7DA
  8
DETAIL
  6
CONTINUOUS
 62
     5
 10
69.33532100000008
 20
301.1908239999999
 30
0.0
 11
69.33532100000008
 21
-301.1908239999997
 31
0.0
  0
LINE
  5
7DB
  8
DETAIL
  6
CONTINUOUS
 62
     5
 10
137.63256
 20
301.1908239999999
 30
0.0
 11
137.63256
 21
-301.1908239999997
 31
0.0
  0
ARC
  5
7DC
  8
DETAIL
  6
CONTINUOUS
 62
     5
 10
214.0
 20
323.9999999999997
 30
0.0
 40
30.0
 50
0.0
 51
90.0
  0
ARC
  5
7DD
  8
DETAIL
  6
CONTINUOUS
 62
     5
 10
214.0
 20
-323.9999999999999
 30
0.0
 40
30.0
 50
270.0
 51
0.0
  0
LINE
  5
7DE
  8
SIZE
  6
BYBLOCK
 62
    30
 10
0.0
 20
373.9999999999998
 30
0.0
 11
0.0
 21
696.9199720000001
 31
0.0
  0
LINE
  5
7DF
  8
SIZE
  6
BYBLOCK
 62
    30
 10
244.0000000000001
 20
343.9999999999998
 30
0.0
 11
244.0000000000001
 21
696.9199720000001
 31
0.0
  0
LINE
  5
7E0
  8
SIZE
  6
BYBLOCK
 62
    30
 10
2.0
 20
666.9199720000001
 30
0.0
 11
242.0000000000001
 21
666.9199720000001
 31
0.0
  0
TEXT
  5
7E1
  8
SIZE
  6
BYBLOCK
 62
    30
 10
46.57142900000008
 20
698.9199720000001
 30
0.0
 40
64.0
  1
244
 41
0.9
  0
LINE
  5
7E2
  8
SIZE
  6
BYBLOCK
 62
    30
 10
-20.00000000000003
 20
353.9999999999998
 30
0.0
 11
-744.443393594252
 21
353.9999999999998
 31
0.0
  0
LINE
  5
7E3
  8
SIZE
  6
BYBLOCK
 62
    30
 10
-20.00000000000003
 20
-353.9999999999998
 30
0.0
 11
-749.4495610100382
 21
-353.9999999999998
 31
0.0
  0
LINE
  5
7E4
  8
SIZE
  6
BYBLOCK
 62
    30
 10
-704.7662894199068
 20
351.9999999999998
 30
0.0
 11
-704.7662894199068
 21
-351.9999999999999
 31
0.0
  0
TEXT
  5
7E5
  8
SIZE
  6
BYBLOCK
 62
    30
 10
-736.7662894199068
 20
-74.057143
 30
0.0
 40
64.0
  1
708
 50
90.0
 41
0.9
  0
LINE
  5
7E6
  8
SIZE
  6
BYBLOCK
 62
    30
 10
-40.00000000000011
 20
324.9999999999998
 30
0.0
 11
-601.7676559761256
 21
324.9999999999998
 31
0.0
  0
LINE
  5
7E7
  8
SIZE
  6
BYBLOCK
 62
    30
 10
-40.00000000000011
 20
-324.9999999999999
 30
0.0
 11
-606.7738233919115
 21
-324.9999999999999
 31
0.0
  0
LINE
  5
7E8
  8
SIZE
  6
BYBLOCK
 62
    30
 10
-567.749991419907
 20
322.9999999999998
 30
0.0
 11
-567.749991419907
 21
-322.9999999999999
 31
0.0
  0
TEXT
  5
7E9
  8
SIZE
  6
BYBLOCK
 62
    30
 10
-599.7499914199069
 20
-74.057143
 30
0.0
 40
64.0
  1
650
 50
90.0
 41
0.9
  0
LINE
  5
7EA
  8
SIZE
  6
BYBLOCK
 62
    30
 10
-208.9999999999999
 20
306.9999999999997
 30
0.0
 11
-474.1104206053582
 21
306.9999999999997
 31
0.0
  0
LINE
  5
7EB
  8
SIZE
  6
BYBLOCK
 62
    30
 10
-208.9999999999999
 20
-306.9999999999998
 30
0.0
 11
-474.1104206053582
 21
-306.9999999999998
 31
0.0
  0
LINE
  5
7EC
  8
SIZE
  6
BYBLOCK
 62
    30
 10
-436.5641734199069
 20
304.9999999999997
 30
0.0
 11
-436.5641734199069
 21
-304.9999999999998
 31
0.0
  0
TEXT
  5
7ED
  8
SIZE
  6
BYBLOCK
 62
    30
 10
-468.5641734199068
 20
-102.582857
 30
0.0
 40
64.0
  1
□614
 50
90.0
 41
0.9
  0
LINE
  5
7EE
  8
SIZE
  6
BYBLOCK
 62
    30
 10
0.0
 20
364.9999999999998
 30
0.0
 11
0.0
 21
696.9199720000001
 31
0.0
  0
LINE
  5
7EF
  8
SIZE
  6
BYBLOCK
 62
    30
 10
-188.9999999999999
 20
316.6442060358601
 30
0.0
 11
-188.9999999999999
 21
696.9199720000001
 31
0.0
  0
LINE
  5
7F0
  8
SIZE
  6
BYBLOCK
 62
    30
 10
-2.0
 20
666.9199720000001
 30
0.0
 11
-186.9999999999999
 21
666.9199720000001
 31
0.0
  0
TEXT
  5
7F1
  8
SIZE
  6
BYBLOCK
 62
    30
 10
-161.7000000000002
 20
698.9199720000001
 30
0.0
 40
64.0
  1
189
 41
0.9
  0
CIRCLE
  5
7F2
  8
SIZE
  6
CONTINUOUS
 62
    30
 10
-188.9999999999999
 20
666.9199720000001
 30
0.0
 40
6.0
  0
CIRCLE
  5
7F3
  8
SIZE
  6
CONTINUOUS
 62
    30
 10
0.0
 20
666.9199720000001
 30
0.0
 40
6.0
  0
CIRCLE
  5
7F4
  8
SIZE
  6
CONTINUOUS
 62
    30
 10
-436.5641734199069
 20
-306.9999999999998
 30
0.0
 40
6.0
  0
CIRCLE
  5
7F5
  8
SIZE
  6
CONTINUOUS
 62
    30
 10
-436.5641734199069
 20
306.9999999999997
 30
0.0
 40
6.0
  0
CIRCLE
  5
7F6
  8
SIZE
  6
CONTINUOUS
 62
    30
 10
-567.749991419907
 20
-324.9999999999999
 30
0.0
 40
6.0
  0
CIRCLE
  5
7F7
  8
SIZE
  6
CONTINUOUS
 62
    30
 10
-567.749991419907
 20
324.9999999999998
 30
0.0
 40
6.0
  0
CIRCLE
  5
7F8
  8
SIZE
  6
CONTINUOUS
 62
    30
 10
-704.7662894199068
 20
-353.9999999999998
 30
0.0
 40
6.0
  0
CIRCLE
  5
7F9
  8
SIZE
  6
CONTINUOUS
 62
    30
 10
-704.7662894199068
 20
353.9999999999998
 30
0.0
 40
6.0
  0
CIRCLE
  5
7FA
  8
SIZE
  6
CONTINUOUS
 62
    30
 10
244.0000000000001
 20
666.9199720000001
 30
0.0
 40
6.0
  0
CIRCLE
  5
7FB
  8
SIZE
  6
CONTINUOUS
 62
    30
 10
0.0
 20
666.9199720000001
 30
0.0
 40
6.0
  0
LINE
  5
7FC
  8
NOTE
  6
CONTINUOUS
 62
     4
 10
20.0
 20
-324.9999999999999
 30
0.0
 11
-20.00000000000003
 21
-324.9999999999999
 31
0.0
  0
LINE
  5
7FD
  8
NOTE
  6
CONTINUOUS
 62
     4
 10
0.0
 20
-304.9999999999998
 30
0.0
 11
0.0
 21
-344.9999999999997
 31
0.0
  0
LINE
  5
7FE
  8
NOTE
  6
CONTINUOUS
 62
     4
 10
20.0
 20
324.9999999999998
 30
0.0
 11
-20.00000000000003
 21
324.9999999999998
 31
0.0
  0
LINE
  5
7FF
  8
NOTE
  6
CONTINUOUS
 62
     4
 10
0.0
 20
344.9999999999999
 30
0.0
 11
0.0
 21
304.9999999999997
 31
0.0
  0
TEXT
  5
800
  8
ETC
  6
CONTINUOUS
 62
    61
 10
359.9598160742839
 20
764.8059984305589
 30
0.0
 40
64.0
  1
EGG-60MSTB_5
 41
0.9
  0
TEXT
  5
801
  8
ETC
  6
CONTINUOUS
 62
    61
 10
456.2397214230746
 20
583.0009952483022
 30
0.0
 40
50.0
  1
EGG-60MSTB
 41
0.9
  0
TEXT
  5
802
  8
ETC
  6
CONTINUOUS
 62
    61
 10
351.8863380742839
 20
661.5221716387347
 30
0.0
 40
64.0
  1
産業扇
 41
0.9
  0
LINE
  5
803
  8
SIZE
  6
BYBLOCK
 62
    30
 10
-231.9999999999999
 20
236.0230809545509
 30
0.0
 11
-231.9999999999999
 21
696.9199720000001
 31
0.0
  0
CIRCLE
  5
804
  8
FIX
  6
CONTINUOUS
 62
    11
 10
0.0
 20
324.9999999999998
 30
0.0
 40
5.0
  0
CIRCLE
  5
805
  8
FIX
  6
CONTINUOUS
 62
    11
 10
0.0
 20
-324.9999999999999
 30
0.0
 40
5.0
  0
LINE
  5
806
  8
DETAIL
  6
CONTINUOUS
 62
     5
 39
50.0
 10
-188.9999999999999
 20
-24.99999999999999
 30
0.0
 11
-220.9798225867685
 21
-46.57066270188527
 31
0.0
  0
LINE
  5
807
  8
DETAIL
  6
CONTINUOUS
 62
     5
 39
50.0
 10
-188.9999999999999
 20
-118.9999999999997
 30
0.0
 11
-220.9798225867685
 21
-140.5706627018851
 31
0.0
  0
LINE
  5
808
  8
DETAIL
  6
CONTINUOUS
 62
     5
 39
50.0
 10
-188.9999999999999
 20
-212.9999999999998
 30
0.0
 11
-220.9798225867685
 21
-234.5706627018851
 31
0.0
  0
LINE
  5
809
  8
DETAIL
  6
CONTINUOUS
 62
     5
 39
50.0
 10
-229.0690258125396
 20
-252.0038662242241
 30
0.0
 11
-231.7822091631703
 21
-252.0038662242241
 31
0.0
  0
ARC
  5
80A
  8
DETAIL
  6
CONTINUOUS
 62
     5
 39
50.0
 10
-204.5
 20
-162.6258755949149
 30
0.0
 40
25.0
 50
123.9999999999989
 51
169.3458419284752
  0
ARC
  5
80B
  8
DETAIL
  6
CONTINUOUS
 62
     5
 39
50.0
 10
-206.9999999999999
 20
-161.296602015761
 30
0.0
 40
25.0
 50
123.9999999999989
 51
172.4316149876901
  0
LINE
  5
80C
  8
DETAIL
  6
CONTINUOUS
 62
     5
 39
50.0
 10
-229.0690258125396
 20
-158.0038662242241
 30
0.0
 11
-231.7822091631703
 21
-158.0038662242241
 31
0.0
  0
ARC
  5
80D
  8
DETAIL
  6
CONTINUOUS
 62
     5
 39
50.0
 10
-204.4999999999998
 20
-256.6258755949148
 30
0.0
 40
25.0
 50
123.9999999999989
 51
169.3458419284752
  0
ARC
  5
80E
  8
DETAIL
  6
CONTINUOUS
 62
     5
 39
50.0
 10
-204.4999999999998
 20
-68.62587559491487
 30
0.0
 40
25.0
 50
123.9999999999989
 51
169.3458419284752
  0
ARC
  5
80F
  8
DETAIL
  6
CONTINUOUS
 62
     5
 39
50.0
 10
-206.9999999999999
 20
-67.2966020157613
 30
0.0
 40
25.0
 50
123.9999999999989
 51
172.4316149876901
  0
LINE
  5
810
  8
DETAIL
  6
CONTINUOUS
 62
     5
 39
50.0
 10
-229.0690258125396
 20
-64.00386622422438
 30
0.0
 11
-231.7822091631704
 21
-64.00386622422438
 31
0.0
  0
LINE
  5
811
  8
DETAIL
  6
CONTINUOUS
 62
     5
 39
50.0
 10
-188.9999999999999
 20
-28.01554487125972
 30
0.0
 11
-218.4798225867686
 21
-47.89993628103886
 31
0.0
  0
ARC
  5
812
  8
DETAIL
  6
CONTINUOUS
 62
     5
 39
50.0
 10
-205.8408499437085
 20
-256.3403054143938
 30
0.0
 40
26.51614294194396
 50
124.8153955180318
 51
170.5875931165715
  0
LINE
  5
813
  8
DETAIL
  6
CONTINUOUS
 62
     5
 39
50.0
 10
-188.9999999999999
 20
-216.0155448712595
 30
0.0
 11
-218.4798225867686
 21
-235.899936281039
 31
0.0
  0
LINE
  5
814
  8
DETAIL
  6
CONTINUOUS
 62
     5
 39
50.0
 10
-188.9999999999999
 20
-121.0725939313874
 30
0.0
 11
-218.4798225867686
 21
-141.8999362810387
 31
0.0
  0
LINE
  5
815
  8
DETAIL
  6
CONTINUOUS
 62
     5
 39
50.0
 10
-188.9999999999999
 20
256.9999999999997
 30
0.0
 11
-220.9798225867685
 21
235.4293372981145
 31
0.0
  0
LINE
  5
816
  8
DETAIL
  6
CONTINUOUS
 62
     5
 39
50.0
 10
-187.6020177413231
 20
160.9274060686123
 30
0.0
 11
-218.4798225867686
 21
140.100063718961
 31
0.0
  0
LINE
  5
817
  8
DETAIL
  6
CONTINUOUS
 62
     5
 39
50.0
 10
-188.9999999999999
 20
162.9999999999998
 30
0.0
 11
-220.9798225867685
 21
141.4293372981144
 31
0.0
  0
LINE
  5
818
  8
DETAIL
  6
CONTINUOUS
 62
     5
 39
50.0
 10
-188.9999999999999
 20
68.99999999999999
 30
0.0
 11
-220.9798225867685
 21
47.42933729811472
 31
0.0
  0
ARC
  5
819
  8
DETAIL
  6
CONTINUOUS
 62
     5
 39
50.0
 10
-204.4999999999998
 20
25.37412440508495
 30
0.0
 40
25.0
 50
123.9999999999989
 51
169.3458419284752
  0
ARC
  5
81A
  8
DETAIL
  6
CONTINUOUS
 62
     5
 39
50.0
 10
-206.9999999999999
 20
26.70339798423866
 30
0.0
 40
25.0
 50
123.9999999999989
 51
172.4316149876901
  0
LINE
  5
81B
  8
DETAIL
  6
CONTINUOUS
 62
     5
 39
50.0
 10
-229.0690258125396
 20
29.99613377577561
 30
0.0
 11
-231.7822091631703
 21
29.99613377577561
 31
0.0
  0
LINE
  5
81C
  8
DETAIL
  6
CONTINUOUS
 62
     5
 39
50.0
 10
-188.9999999999999
 20
65.98445512874024
 30
0.0
 11
-218.4798225867686
 21
46.10006371896101
 31
0.0
  0
ARC
  5
81D
  8
DETAIL
  6
CONTINUOUS
 62
     5
 39
50.0
 10
-206.9999999999999
 20
120.7033979842385
 30
0.0
 40
25.0
 50
123.9999999999989
 51
172.4316149876901
  0
LINE
  5
81E
  8
DETAIL
  6
CONTINUOUS
 62
     5
 39
50.0
 10
-229.0690258125396
 20
123.9961337757755
 30
0.0
 11
-231.7822091631703
 21
123.9961337757755
 31
0.0
  0
ARC
  5
81F
  8
DETAIL
  6
CONTINUOUS
 62
     5
 39
50.0
 10
-204.4999999999998
 20
213.3741244050849
 30
0.0
 40
25.0
 50
123.9999999999989
 51
169.3458419284752
  0
ARC
  5
820
  8
DETAIL
  6
CONTINUOUS
 62
     5
 39
50.0
 10
-206.9999999999999
 20
214.7033979842384
 30
0.0
 40
25.0
 50
123.9999999999989
 51
172.4316149876901
  0
LINE
  5
821
  8
DETAIL
  6
CONTINUOUS
 62
     5
 39
50.0
 10
-229.0690258125396
 20
217.9961337757755
 30
0.0
 11
-231.7822091631703
 21
217.9961337757755
 31
0.0
  0
LINE
  5
822
  8
DETAIL
  6
CONTINUOUS
 62
     5
 39
50.0
 10
-188.9999999999999
 20
253.98445512874
 30
0.0
 11
-218.4798225867686
 21
234.1000637189607
 31
0.0
  0
ARC
  5
823
  8
DETAIL
  6
CONTINUOUS
 62
     5
 39
50.0
 10
-204.4999999999998
 20
119.3741244050848
 30
0.0
 40
25.0
 50
123.9999999999989
 51
169.3458419284752
  0
ARC
  5
824
  8
DETAIL
  6
CONTINUOUS
 62
     5
 10
-173.9999999999999
 20
291.9999999999997
 30
0.0
 40
15.0
 50
90.0
 51
180.0
  0
ARC
  5
825
  8
DETAIL
  6
CONTINUOUS
 62
     5
 10
-173.9999999999999
 20
-292.0
 30
0.0
 40
15.0
 50
180.0
 51
270.0
  0
LINE
  5
826
  8
OUTLINE
  6
CONTINUOUS
 62
     3
 10
244.0000000000001
 20
323.9999999999997
 30
0.0
 11
244.0000000000001
 21
-323.9999999999999
 31
0.0
  0
LINE
  5
827
  8
OUTLINE
  6
CONTINUOUS
 62
     3
 10
-188.9999999999999
 20
291.9999999999997
 30
0.0
 11
-188.9999999999999
 21
-292.0
 31
0.0
  0
CIRCLE
  5
828
  8
ARRANGE
  6
CONTINUOUS
 62
     1
 10
0.0
 20
0.0
 30
0.0
 40
54.48275999999999
  0
POINT
  5
829
  8
ARRANGE
  6
CONTINUOUS
 62
     1
 10
0.0
 20
0.0
 30
0.0
  0
ARC
  5
82A
  8
OUTLINE
  6
CONTINUOUS
 62
     3
 10
214.0
 20
-323.9999999999999
 30
0.0
 40
30.0
 50
270.0
 51
0.0
  0
LINE
  5
82B
  8
OUTLINE
  6
CONTINUOUS
 62
     3
 10
0.0
 20
-353.9999999999998
 30
0.0
 11
214.0
 21
-353.9999999999998
 31
0.0
  0
LINE
  5
82C
  8
OUTLINE
  6
CONTINUOUS
 62
     3
 10
-173.9999999999999
 20
-306.9999999999998
 30
0.0
 11
0.0
 21
-306.9999999999998
 31
0.0
  0
ARC
  5
82D
  8
OUTLINE
  6
CONTINUOUS
 62
     3
 10
-173.9999999999999
 20
-292.0
 30
0.0
 40
15.0
 50
180.0
 51
270.0
  0
ARC
  5
82E
  8
OUTLINE
  6
CONTINUOUS
 62
     3
 10
214.0
 20
323.9999999999997
 30
0.0
 40
30.0
 50
0.0
 51
90.0
  0
LINE
  5
82F
  8
OUTLINE
  6
CONTINUOUS
 62
     3
 10
-173.9999999999999
 20
306.9999999999997
 30
0.0
 11
0.0
 21
306.9999999999997
 31
0.0
  0
ARC
  5
830
  8
OUTLINE
  6
CONTINUOUS
 62
     3
 10
-173.9999999999999
 20
291.9999999999997
 30
0.0
 40
15.0
 50
90.0
 51
180.0
  0
LINE
  5
831
  8
OUTLINE
  6
CONTINUOUS
 62
     3
 10
0.0
 20
353.9999999999998
 30
0.0
 11
214.0
 21
353.9999999999998
 31
0.0
  0
LINE
  5
832
  8
SIZE
  6
CONTINUOUS
 62
    30
 10
-188.9999999999999
 20
666.9199720000001
 30
0.0
 11
-393.1856506252314
 21
666.9199720000001
 31
0.0
  0
TEXT
  5
833
  8
SIZE
  6
BYBLOCK
 62
    30
 10
-377.570498830918
 20
698.9199720000001
 30
0.0
 40
64.0
  1
43
 41
0.9
  0
CIRCLE
  5
834
  8
SIZE
  6
CONTINUOUS
 62
    30
 10
-231.9999999999999
 20
666.9199720000001
 30
0.0
 40
6.0
  0
LINE
  5
835
  8
OUTLINE
  6
CONTINUOUS
 62
     3
 10
0.0
 20
353.9999999999998
 30
0.0
 11
0.0
 21
-353.9999999999998
 31
0.0
  0
LINE
  5
836
  8
NOTE
  6
CONTINUOUS
 62
     4
 10
-26.67613299999994
 20
354.8057699999999
 30
0.0
 11
0.0
 21
324.9999999999998
 31
0.0
  0
LINE
  5
837
  8
NOTE
  6
CONTINUOUS
 62
     4
 10
0.0
 20
324.9999999999998
 30
0.0
 11
-38.00509400000001
 21
337.4744879999999
 31
0.0
  0
ENDSEC
  0
EOF
