  0
SECTION
  2
HEADER
  9
$ACADVER
  1
AC1009
  9
$INSBASE
 10
0.0
 20
0.0
 30
0.0
  9
$EXTMIN
 10
-752.94378400000005
 20
-628.47740899999985
 30
0.0
  9
$EXTMAX
 10
1304.05409140097
 20
545.66455619047599
 30
0.0
  9
$LIMMIN
 10
-2970.0
 20
-2100.0
  9
$LIMMAX
 10
2970.0
 20
2100.0
  9
$ORTHOMODE
 70
     1
  9
$REGENMODE
 70
     0
  9
$FILLMODE
 70
     1
  9
$QTEXTMODE
 70
     0
  9
$MIRRTEXT
 70
     0
  9
$DRAGMODE
 70
     2
  9
$LTSCALE
 40
20.0
  9
$OSMODE
 70
   167
  9
$ATTMODE
 70
     1
  9
$TEXTSIZE
 40
64.0
  9
$TRACEWID
 40
0.05
  9
$TEXTSTYLE
  7
STANDARD
  9
$CLAYER
  8
SIZE
  9
$CELTYPE
  6
CONTINUOUS
  9
$CECOLOR
 62
     8
  9
$DIMSCALE
 40
1.0
  9
$DIMASZ
 40
12.0
  9
$DIMEXO
 40
20.0
  9
$DIMDLI
 40
200.0
  9
$DIMRND
 40
0.0
  9
$DIMDLE
 40
0.0
  9
$DIMEXE
 40
20.0
  9
$DIMTP
 40
0.0
  9
$DIMTM
 40
0.0
  9
$DIMTXT
 40
64.0
  9
$DIMCEN
 40
0.09
  9
$DIMTSZ
 40
0.0
  9
$DIMTOL
 70
     0
  9
$DIMLIM
 70
     0
  9
$DIMTIH
 70
     0
  9
$DIMTOH
 70
     0
  9
$DIMSE1
 70
     0
  9
$DIMSE2
 70
     0
  9
$DIMTAD
 70
     1
  9
$DIMZIN
 70
     8
  9
$DIMBLK
  1
DOT1
  9
$DIMASO
 70
     1
  9
$DIMSHO
 70
     0
  9
$DIMPOST
  1

  9
$DIMAPOST
  1

  9
$DIMALT
 70
     0
  9
$DIMALTD
 70
     2
  9
$DIMALTF
 40
25.399999999999999
  9
$DIMLFAC
 40
1.0
  9
$DIMTOFL
 70
     1
  9
$DIMTVP
 40
0.0
  9
$DIMTIX
 70
     1
  9
$DIMSOXD
 70
     0
  9
$DIMSAH
 70
     1
  9
$DIMBLK1
  1
ORIGIN
  9
$DIMBLK2
  1
ORIGIN
  9
$DIMSTYLE
  2
STANDARD
  9
$DIMCLRD
 70
     0
  9
$DIMCLRE
 70
     0
  9
$DIMCLRT
 70
     0
  9
$DIMTFAC
 40
1.0
  9
$DIMGAP
 40
0.09
  9
$LUNITS
 70
     2
  9
$LUPREC
 70
     4
  9
$SKETCHINC
 40
0.1
  9
$FILLETRAD
 40
5.0
  9
$AUNITS
 70
     1
  9
$AUPREC
 70
     3
  9
$MENU
  1
ACAD
  9
$ELEVATION
 40
0.0
  9
$PELEVATION
 40
0.0
  9
$THICKNESS
 40
50.0
  9
$LIMCHECK
 70
     0
  9
$BLIPMODE
 70
     0
  9
$CHAMFERA
 40
0.0
  9
$CHAMFERB
 40
0.0
  9
$SKPOLY
 70
     0
  9
$TDCREATE
 40
2452310.657101389
  9
$TDUPDATE
 40
2454964.5333889001
  9
$TDINDWG
 40
0.1382038426
  9
$TDUSRTIMER
 40
0.1381866551
  9
$USRTIMER
 70
     1
  9
$ANGBASE
 50
0.0
  9
$ANGDIR
 70
     0
  9
$PDMODE
 70
     3
  9
$PDSIZE
 40
-2.0
  9
$PLINEWID
 40
0.0
  9
$COORDS
 70
     2
  9
$SPLFRAME
 70
     0
  9
$SPLINETYPE
 70
     6
  9
$SPLINESEGS
 70
     8
  9
$ATTDIA
 70
     0
  9
$ATTREQ
 70
     1
  9
$HANDLING
 70
 22529
  9
$HANDSEED
  5
357
  9
$SURFTAB1
 70
     6
  9
$SURFTAB2
 70
     6
  9
$SURFTYPE
 70
     6
  9
$SURFU
 70
     6
  9
$SURFV
 70
     6
  9
$UCSNAME
  2

  9
$UCSORG
 10
0.0
 20
0.0
 30
0.0
  9
$UCSXDIR
 10
1.0
 20
0.0
 30
0.0
  9
$UCSYDIR
 10
0.0
 20
1.0
 30
0.0
  9
$PUCSNAME
  2

  9
$PUCSORG
 10
0.0
 20
0.0
 30
0.0
  9
$PUCSXDIR
 10
1.0
 20
0.0
 30
0.0
  9
$PUCSYDIR
 10
0.0
 20
1.0
 30
0.0
  9
$USERI1
 70
     0
  9
$USERI2
 70
     0
  9
$USERI3
 70
     0
  9
$USERI4
 70
     0
  9
$USERI5
 70
     0
  9
$USERR1
 40
20.0
  9
$USERR2
 40
0.0
  9
$USERR3
 40
0.0
  9
$USERR4
 40
0.0
  9
$USERR5
 40
0.0
  9
$WORLDVIEW
 70
     1
  9
$SHADEDGE
 70
     3
  9
$SHADEDIF
 70
    70
  9
$TILEMODE
 70
     1
  9
$MAXACTVP
 70
    64
  9
$PLIMCHECK
 70
     0
  9
$PEXTMIN
 10
1.0000000000000000E+020
 20
1.0000000000000000E+020
 30
1.0000000000000000E+020
  9
$PEXTMAX
 10
-1.0000000000000000E+020
 20
-1.0000000000000000E+020
 30
-1.0000000000000000E+020
  9
$PLIMMIN
 10
0.0
 20
0.0
  9
$PLIMMAX
 10
12.0
 20
9.0
  9
$UNITMODE
 70
     0
  9
$VISRETAIN
 70
     1
  9
$PLINEGEN
 70
     0
  9
$PSLTSCALE
 70
     1
  0
ENDSEC
  0
SECTION
  2
TABLES
  0
TABLE
  2
VPORT
 70
     4
  0
VPORT
  2
*ACTIVE
 70
     0
 10
0.0
 20
0.0
 11
1.0
 21
1.0
 12
268.16434553528933
 22
-45.727481593401421
 13
0.0
 23
0.0
 14
1.0
 24
1.0
 15
0.0
 25
0.0
 16
0.0
 26
0.0
 36
1.0
 17
0.0
 27
0.0
 37
0.0
 40
1655.317910498512
 41
1.493654822335025
 42
50.0
 43
0.0
 44
0.0
 50
0.0
 51
0.0
 71
     0
 72
   100
 73
     1
 74
     0
 75
     0
 76
     0
 77
     0
 78
     0
  0
ENDTAB
  0
TABLE
  2
LTYPE
 70
     2
  0
LTYPE
  2
CONTINUOUS
 70
     0
  3
実線
 72
    65
 73
     0
 40
0.0
  0
LTYPE
  2
DASHDOT
 70
     0
  3
____ _ ____ _ ____ _ ____ _ ____ _ ____ _ ____
 72
    65
 73
     4
 40
5.5
 49
4.0
 49
-0.6
 49
0.3
 49
-0.6
  0
ENDTAB
  0
TABLE
  2
LAYER
 70
    12
  0
LAYER
  2
0
 70
     0
 62
     7
  6
CONTINUOUS
  0
LAYER
  2
SIZE
 70
     0
 62
    30
  6
CONTINUOUS
  0
LAYER
  2
BASIS
 70
     0
 62
     6
  6
DASHDOT
  0
LAYER
  2
OUTLINE
 70
     0
 62
     3
  6
CONTINUOUS
  0
LAYER
  2
DETAIL
 70
     0
 62
     5
  6
CONTINUOUS
  0
LAYER
  2
ARRANGE
 70
     0
 62
     1
  6
CONTINUOUS
  0
LAYER
  2
DEFPOINTS
 70
     0
 62
     7
  6
CONTINUOUS
  0
LAYER
  2
ETC
 70
     0
 62
    61
  6
CONTINUOUS
  0
LAYER
  2
FIX
 70
     0
 62
    11
  6
CONTINUOUS
  0
LAYER
  2
NOTE
 70
     0
 62
     4
  6
CONTINUOUS
  0
LAYER
  2
SERVICESPACE
 70
     0
 62
     2
  6
DASHDOT
  0
LAYER
  2
SYMBOLLINE
 70
     0
 62
    15
  6
CONTINUOUS
  0
ENDTAB
  0
TABLE
  2
STYLE
 70
     1
  0
STYLE
  2
STANDARD
 70
     0
 40
64.0
 41
0.9
 50
0.0
 71
     0
 42
64.0
  3
SIMPLEX.shx
  4
BIGFONT.shx
  0
ENDTAB
  0
TABLE
  2
VIEW
 70
     1
  0
VIEW
  2
ALL
 70
     0
 40
4282.6198079999976
 10
0.0
 20
41.309903999999989
 41
5940.0
 11
0.0
 21
0.0
 31
1.0
 12
0.0
 22
0.0
 32
0.0
 42
50.0
 43
0.0
 44
0.0
 50
0.0
 71
     0
  0
ENDTAB
  0
TABLE
  2
UCS
 70
     0
  0
ENDTAB
  0
TABLE
  2
APPID
 70
     1
  0
APPID
  2
ACAD
 70
     0
  0
ENDTAB
  0
TABLE
  2
DIMSTYLE
 70
     1
  0
DIMSTYLE
  2
STANDARD
 70
     0
  3

  4

  5

  6

  7

 40
1.0
 41
0.18
 42
0.0625
 43
0.38
 44
0.18
 45
0.0
 46
0.0
 47
0.0
 48
0.0
140
0.18
141
0.09
142
0.0
143
25.399999999999999
144
1.0
145
0.0
146
1.0
147
0.09
 71
     0
 72
     0
 73
     1
 74
     1
 75
     0
 76
     0
 77
     0
 78
     0
170
     0
171
     2
172
     0
173
     0
174
     0
175
     0
176
     0
177
     0
178
     0
  0
ENDTAB
  0
ENDSEC
  0
SECTION
  2
BLOCKS
  0
BLOCK
  8
0
  2
$MODEL_SPACE
 70
     0
 10
0.0
 20
0.0
 30
0.0
  3
$MODEL_SPACE
  1

  0
ENDBLK
  5
20B
  8
0
  0
BLOCK
 67
     1
  8
0
  2
$PAPER_SPACE
 70
     0
 10
0.0
 20
0.0
 30
0.0
  3
$PAPER_SPACE
  1

  0
ENDBLK
  5
207
 67
     1
  8
0
  0
BLOCK
  8
0
  2
DOT1
 70
     0
 10
0.0
 20
0.0
 30
0.0
  3
DOT1
  1

  0
CIRCLE
  5
226
  8
SIZE
  6
CONTINUOUS
 62
     7
 10
0.0
 20
0.0
 30
0.0
 40
3.0
  0
ENDBLK
  5
227
  8
0
  0
BLOCK
  8
0
  2
_ORIGIN
 70
     0
 10
0.0
 20
0.0
 30
0.0
  3
_ORIGIN
  1

  0
CIRCLE
  5
22A
  8
0
  6
CONTINUOUS
 62
     7
 10
0.0
 20
0.0
 30
0.0
 40
0.5
  0
LINE
  5
22B
  8
0
  6
CONTINUOUS
 62
     7
 10
0.0
 20
0.0
 30
0.0
 11
-1.0
 21
0.0
 31
0.0
  0
ENDBLK
  5
22C
  8
0
  0
ENDSEC
  0
SECTION
  2
ENTITIES
  0
TEXT
  5
22D
  8
ETC
  6
CONTINUOUS
 62
    61
 10
708.38902154382788
 20
362.68413514552827
 30
0.0
 40
64.0
  1
産業扇
 41
0.9
  0
TEXT
  5
22E
  8
ETC
  6
CONTINUOUS
 62
    61
 10
711.59694854382792
 20
462.68441614552819
 30
0.0
 40
64.0
  1
EH-50CTB3_1
 41
0.9
  0
TEXT
  5
22F
  8
ETC
  6
CONTINUOUS
 62
    61
 10
708.38902154382788
 20
362.68413514552827
 30
0.0
 40
64.0
  1
産業扇
 41
0.9
  0
LINE
  5
230
  8
DETAIL
  6
CONTINUOUS
 62
     5
 10
310.0
 20
0.0
 30
0.0
 11
-310.0
 21
0.0
 31
0.0
  0
LINE
  5
231
  8
BASIS
  6
DASHDOT
 62
     6
 10
0.0
 20
54.261400999999999
 30
0.0
 11
0.0
 21
-341.07756799999993
 31
0.0
  0
LINE
  5
232
  8
DETAIL
  6
CONTINUOUS
 62
     5
 10
-250.0
 20
-20.0
 30
0.0
 11
-250.0
 21
-178.46083400000001
 31
0.0
  0
LINE
  5
233
  8
DETAIL
  6
CONTINUOUS
 62
     5
 10
250.0
 20
-20.0
 30
0.0
 11
250.0
 21
-178.46083400000001
 31
0.0
  0
LINE
  5
234
  8
DETAIL
  6
CONTINUOUS
 62
     5
 10
303.0
 20
-10.0
 30
0.0
 11
290.5
 21
-10.0
 31
0.0
  0
LINE
  5
235
  8
DETAIL
  6
CONTINUOUS
 62
     5
 10
310.0
 20
-3.0
 30
0.0
 11
310.0
 21
0.0
 31
0.0
  0
LINE
  5
236
  8
DETAIL
  6
CONTINUOUS
 62
     5
 10
-310.0
 20
-3.0
 30
0.0
 11
-310.0
 21
0.0
 31
0.0
  0
LINE
  5
237
  8
DETAIL
  6
CONTINUOUS
 62
     5
 10
290.5
 20
-10.0
 30
0.0
 11
-290.5
 21
-10.0
 31
0.0
  0
LINE
  5
238
  8
DETAIL
  6
CONTINUOUS
 62
     5
 10
-290.5
 20
-10.0
 30
0.0
 11
-303.0
 21
-10.0
 31
0.0
  0
LINE
  5
239
  8
DETAIL
  6
CONTINUOUS
 62
     5
 10
90.0
 20
-220.46083399999989
 30
0.0
 11
0.0
 21
-220.46083399999989
 31
0.0
  0
LINE
  5
23A
  8
NOTE
  6
CONTINUOUS
 62
     4
 10
-280.0
 20
-20.0
 30
0.0
 11
-280.0
 21
20.0
 31
0.0
  0
LINE
  5
23B
  8
NOTE
  6
CONTINUOUS
 62
     4
 10
-300.0
 20
0.0
 30
0.0
 11
-260.0
 21
0.0
 31
0.0
  0
LINE
  5
23C
  8
NOTE
  6
CONTINUOUS
 62
     4
 10
280.0
 20
-20.0
 30
0.0
 11
280.0
 21
20.0
 31
0.0
  0
LINE
  5
23D
  8
NOTE
  6
CONTINUOUS
 62
     4
 10
260.0
 20
0.0
 30
0.0
 11
300.0
 21
0.0
 31
0.0
  0
LINE
  5
23E
  8
DETAIL
  6
CONTINUOUS
 62
     5
 10
-286.28576499999991
 20
-20.0
 30
0.0
 11
-286.28576499999991
 21
-10.0
 31
0.0
  0
LINE
  5
23F
  8
DETAIL
  6
CONTINUOUS
 62
     5
 10
287.05401099999978
 20
-20.0
 30
0.0
 11
287.05401099999978
 21
-10.0
 31
0.0
  0
LINE
  5
240
  8
DETAIL
  6
CONTINUOUS
 62
     5
 10
90.0
 20
-220.46083399999989
 30
0.0
 11
175.0
 21
-220.46083399999989
 31
0.0
  0
LINE
  5
241
  8
DETAIL
  6
CONTINUOUS
 62
     5
 10
0.0
 20
-220.46083399999989
 30
0.0
 11
-175.0
 21
-220.46083399999989
 31
0.0
  0
LINE
  5
242
  8
DETAIL
  6
CONTINUOUS
 62
     5
 10
287.05401099999978
 20
-20.0
 30
0.0
 11
-286.28576499999991
 21
-20.0
 31
0.0
  0
ARC
  5
243
  8
DETAIL
  6
CONTINUOUS
 62
     5
 10
-303.0
 20
-3.0
 30
0.0
 40
7.0
 50
180.0
 51
270.0
  0
ARC
  5
244
  8
DETAIL
  6
CONTINUOUS
 62
     5
 10
303.0
 20
-3.0
 30
0.0
 40
7.0
 50
270.0
 51
0.0
  0
LINE
  5
245
  8
DETAIL
  6
CONTINUOUS
 62
     5
 10
225.0
 20
-88.0
 30
0.0
 11
-225.0
 21
-88.0
 31
0.0
  0
LINE
  5
246
  8
DETAIL
  6
CONTINUOUS
 62
     5
 10
-250.0
 20
-88.0
 30
0.0
 11
-302.49999999999989
 21
-88.0
 31
0.0
  0
LINE
  5
247
  8
DETAIL
  6
CONTINUOUS
 62
     5
 10
250.0
 20
-88.0
 30
0.0
 11
302.49999999999989
 21
-88.0
 31
0.0
  0
POINT
  5
248
  8
ARRANGE
  6
CONTINUOUS
 62
     1
 10
0.0
 20
0.0
 30
0.0
  0
CIRCLE
  5
249
  8
ARRANGE
  6
CONTINUOUS
 62
     1
 10
0.0
 20
0.0
 30
0.0
 40
40.0
  0
LINE
  5
24A
  8
SIZE
  6
CONTINUOUS
 62
    30
 10
-330.0
 20
0.0
 30
0.0
 11
-448.53778499999987
 21
0.0
 31
0.0
  0
LINE
  5
24B
  8
SIZE
  6
CONTINUOUS
 62
    30
 10
-323.0
 20
-10.0
 30
0.0
 11
-448.53778499999987
 21
-10.0
 31
0.0
  0
LINE
  5
24C
  8
SIZE
  6
CONTINUOUS
 62
    30
 10
-428.53778499999987
 20
-22.0
 30
0.0
 11
-428.53778499999987
 21
-34.0
 31
0.0
  0
LINE
  5
24D
  8
SIZE
  6
CONTINUOUS
 62
    30
 10
-428.53778499999987
 20
12.0
 30
0.0
 11
-428.53778499999987
 21
156.28571400000001
 31
0.0
  0
LINE
  5
24E
  8
SIZE
  6
CONTINUOUS
 62
    30
 10
-428.53778499999987
 20
-10.0
 30
0.0
 11
-428.53778499999987
 21
0.0
 31
0.0
  0
CIRCLE
  5
24F
  8
SIZE
  6
CONTINUOUS
 62
    30
 10
-428.53778499999987
 20
-10.0
 30
0.0
 40
6.0
  0
LINE
  5
250
  8
SIZE
  6
CONTINUOUS
 62
    30
 10
-428.53778499999987
 20
-10.0
 30
0.0
 11
-428.53778499999987
 21
-22.0
 31
0.0
  0
CIRCLE
  5
251
  8
SIZE
  6
CONTINUOUS
 62
    30
 10
-428.53778499999987
 20
0.0
 30
0.0
 40
6.0
  0
LINE
  5
252
  8
SIZE
  6
CONTINUOUS
 62
    30
 10
-428.53778499999987
 20
0.0
 30
0.0
 11
-428.53778499999987
 21
12.0
 31
0.0
  0
TEXT
  5
253
  8
SIZE
  6
CONTINUOUS
 62
    30
 10
-453.53778499999987
 20
48.999999857142868
 30
0.0
 40
64.0
  1
10
 50
90.0
 41
0.9
 72
     1
 11
-453.53778499999987
 21
90.142857000000006
 31
0.0
  0
LINE
  5
254
  8
SIZE
  6
CONTINUOUS
 62
    30
 10
-330.0
 20
0.0
 30
0.0
 11
-577.94753099999969
 21
0.0
 31
0.0
  0
LINE
  5
255
  8
SIZE
  6
CONTINUOUS
 62
    30
 10
-322.5
 20
-95.0
 30
0.0
 11
-577.94753099999969
 21
-95.0
 31
0.0
  0
LINE
  5
256
  8
SIZE
  6
CONTINUOUS
 62
    30
 10
-557.94753099999991
 20
-83.0
 30
0.0
 11
-557.94753099999991
 21
-12.0
 31
0.0
  0
LINE
  5
257
  8
SIZE
  6
CONTINUOUS
 62
    30
 10
-557.94753099999991
 20
0.0
 30
0.0
 11
-557.94753099999991
 21
155.2571429999999
 31
0.0
  0
CIRCLE
  5
258
  8
SIZE
  6
CONTINUOUS
 62
    30
 10
-557.94753099999991
 20
-95.0
 30
0.0
 40
6.0
  0
LINE
  5
259
  8
SIZE
  6
CONTINUOUS
 62
    30
 10
-557.94753099999991
 20
-95.0
 30
0.0
 11
-557.94753099999991
 21
-83.0
 31
0.0
  0
CIRCLE
  5
25A
  8
SIZE
  6
CONTINUOUS
 62
    30
 10
-557.94753099999991
 20
0.0
 30
0.0
 40
6.0
  0
LINE
  5
25B
  8
SIZE
  6
CONTINUOUS
 62
    30
 10
-557.94753099999991
 20
0.0
 30
0.0
 11
-557.94753099999991
 21
-12.0
 31
0.0
  0
TEXT
  5
25C
  8
SIZE
  6
CONTINUOUS
 62
    30
 10
-582.9475309999998
 20
36.999999571428553
 30
0.0
 40
64.0
  1
95
 50
90.0
 41
0.9
 72
     1
 11
-582.9475309999998
 21
83.628570999999965
 31
0.0
  0
LINE
  5
25D
  8
SIZE
  6
CONTINUOUS
 62
    30
 10
-330.0
 20
0.0
 30
0.0
 11
-683.94378400000005
 21
0.0
 31
0.0
  0
LINE
  5
25E
  8
SIZE
  6
CONTINUOUS
 62
    30
 10
-77.5
 20
-285.0
 30
0.0
 11
-683.94378400000005
 21
-285.0
 31
0.0
  0
LINE
  5
25F
  8
SIZE
  6
CONTINUOUS
 62
    30
 10
-663.94378400000005
 20
-12.0
 30
0.0
 11
-663.94378400000005
 21
-273.0
 31
0.0
  0
CIRCLE
  5
260
  8
SIZE
  6
CONTINUOUS
 62
    30
 10
-663.94378400000005
 20
0.0
 30
0.0
 40
6.0
  0
LINE
  5
261
  8
SIZE
  6
CONTINUOUS
 62
    30
 10
-663.94378400000005
 20
0.0
 30
0.0
 11
-663.94378400000005
 21
-12.0
 31
0.0
  0
CIRCLE
  5
262
  8
SIZE
  6
CONTINUOUS
 62
    30
 10
-663.94378400000005
 20
-285.0
 30
0.0
 40
6.0
  0
LINE
  5
263
  8
SIZE
  6
CONTINUOUS
 62
    30
 10
-663.94378400000005
 20
-285.0
 30
0.0
 11
-663.94378400000005
 21
-273.0
 31
0.0
  0
TEXT
  5
264
  8
SIZE
  6
CONTINUOUS
 62
    30
 10
-688.94378400000005
 20
-216.55714285714279
 30
0.0
 40
64.0
  1
285
 50
90.0
 41
0.9
 72
     1
 11
-688.94378400000005
 21
-142.5
 31
0.0
  0
LINE
  5
265
  8
NOTE
  6
CONTINUOUS
 62
     4
 10
280.0
 20
0.0
 30
0.0
 11
444.98476199999988
 21
152.78360699999999
 31
0.0
  0
LINE
  5
266
  8
NOTE
  6
CONTINUOUS
 62
     4
 10
315.40316299999989
 20
18.617626999999992
 30
0.0
 11
280.0
 21
0.0
 31
0.0
  0
LINE
  5
267
  8
NOTE
  6
CONTINUOUS
 62
     4
 10
280.0
 20
0.0
 30
0.0
 11
301.351225
 21
33.824919000000001
 31
0.0
  0
LINE
  5
268
  8
SIZE
  6
CONTINUOUS
 62
    30
 10
-280.0
 20
40.0
 30
0.0
 11
-280.0
 21
168.4217459999999
 31
0.0
  0
LINE
  5
269
  8
SIZE
  6
CONTINUOUS
 62
    30
 10
280.0
 20
40.0
 30
0.0
 11
280.0
 21
168.4217459999999
 31
0.0
  0
LINE
  5
26A
  8
SIZE
  6
CONTINUOUS
 62
    30
 10
-268.0
 20
148.4217459999999
 30
0.0
 11
268.0
 21
148.4217459999999
 31
0.0
  0
CIRCLE
  5
26B
  8
SIZE
  6
CONTINUOUS
 62
    30
 10
-280.0
 20
148.4217459999999
 30
0.0
 40
6.0
  0
LINE
  5
26C
  8
SIZE
  6
CONTINUOUS
 62
    30
 10
-280.0
 20
148.4217459999999
 30
0.0
 11
-268.0
 21
148.4217459999999
 31
0.0
  0
CIRCLE
  5
26D
  8
SIZE
  6
CONTINUOUS
 62
    30
 10
280.0
 20
148.4217459999999
 30
0.0
 40
6.0
  0
LINE
  5
26E
  8
SIZE
  6
CONTINUOUS
 62
    30
 10
280.0
 20
148.4217459999999
 30
0.0
 11
268.0
 21
148.4217459999999
 31
0.0
  0
TEXT
  5
26F
  8
SIZE
  6
CONTINUOUS
 62
    30
 10
-67.93947685714285
 20
173.4217459999999
 30
0.0
 40
64.0
  1
560
 41
0.9
 72
     1
 11
6.1176659999999989
 21
173.4217459999999
 31
0.0
  0
LINE
  5
270
  8
SIZE
  6
CONTINUOUS
 62
    30
 10
-310.0
 20
17.0
 30
0.0
 11
-310.0
 21
300.50130999999982
 31
0.0
  0
LINE
  5
271
  8
SIZE
  6
CONTINUOUS
 62
    30
 10
310.0
 20
17.0
 30
0.0
 11
310.0
 21
300.50130999999982
 31
0.0
  0
LINE
  5
272
  8
SIZE
  6
CONTINUOUS
 62
    30
 10
-298.0
 20
280.50130999999999
 30
0.0
 11
298.0
 21
280.50130999999999
 31
0.0
  0
CIRCLE
  5
273
  8
SIZE
  6
CONTINUOUS
 62
    30
 10
-310.0
 20
280.50130999999999
 30
0.0
 40
6.0
  0
LINE
  5
274
  8
SIZE
  6
CONTINUOUS
 62
    30
 10
-310.0
 20
280.50130999999999
 30
0.0
 11
-298.0
 21
280.50130999999999
 31
0.0
  0
CIRCLE
  5
275
  8
SIZE
  6
CONTINUOUS
 62
    30
 10
310.0
 20
280.50130999999999
 30
0.0
 40
6.0
  0
LINE
  5
276
  8
SIZE
  6
CONTINUOUS
 62
    30
 10
310.0
 20
280.50130999999999
 30
0.0
 11
298.0
 21
280.50130999999999
 31
0.0
  0
TEXT
  5
277
  8
SIZE
  6
CONTINUOUS
 62
    30
 10
-74.05714285714285
 20
305.50130999999999
 30
0.0
 40
64.0
  1
620
 41
0.9
 72
     1
 11
0.0
 21
305.50130999999999
 31
0.0
  0
LINE
  5
278
  8
DETAIL
  6
CONTINUOUS
 62
     5
 10
-250.0
 20
-95.0
 30
0.0
 11
-302.49999999999989
 21
-95.0
 31
0.0
  0
LINE
  5
279
  8
DETAIL
  6
CONTINUOUS
 62
     5
 10
225.0
 20
-95.0
 30
0.0
 11
-225.0
 21
-95.0
 31
0.0
  0
LINE
  5
27A
  8
DETAIL
  6
CONTINUOUS
 62
     5
 10
250.0
 20
-95.0
 30
0.0
 11
302.49999999999989
 21
-95.0
 31
0.0
  0
LINE
  5
27B
  8
DETAIL
  6
CONTINUOUS
 62
     5
 10
-302.49999999999989
 20
-95.0
 30
0.0
 11
-302.49999999999989
 21
-88.0
 31
0.0
  0
LINE
  5
27C
  8
DETAIL
  6
CONTINUOUS
 62
     5
 10
302.49999999999989
 20
-95.0
 30
0.0
 11
302.49999999999989
 21
-88.0
 31
0.0
  0
LINE
  5
27D
  8
DETAIL
  6
CONTINUOUS
 62
     5
 10
-92.537949999999995
 20
-258.46083399999992
 30
0.0
 11
-92.537949999999995
 21
-220.46083399999989
 31
0.0
  0
LINE
  5
27E
  8
DETAIL
  6
CONTINUOUS
 62
     5
 10
90.0
 20
-213.30179699999999
 30
0.0
 11
-90.0
 21
-213.30179699999999
 31
0.0
  0
LINE
  5
27F
  8
DETAIL
  6
CONTINUOUS
 62
     5
 10
-95.0
 20
-220.46083399999989
 30
0.0
 11
-95.0
 21
-218.30179699999991
 31
0.0
  0
LINE
  5
280
  8
DETAIL
  6
CONTINUOUS
 62
     5
 10
95.0
 20
-220.46083399999989
 30
0.0
 11
95.0
 21
-218.30179699999991
 31
0.0
  0
LINE
  5
281
  8
SIZE
  6
CONTINUOUS
 62
    30
 10
-323.0
 20
-10.0
 30
0.0
 11
-448.53778499999987
 21
-10.0
 31
0.0
  0
LINE
  5
282
  8
SIZE
  6
CONTINUOUS
 62
    30
 10
-306.28576499999991
 20
-20.0
 30
0.0
 11
-448.53778499999987
 21
-20.0
 31
0.0
  0
LINE
  5
283
  8
SIZE
  6
CONTINUOUS
 62
    30
 10
-428.53778499999987
 20
2.0
 30
0.0
 11
-428.53778499999987
 21
14.0
 31
0.0
  0
LINE
  5
284
  8
SIZE
  6
CONTINUOUS
 62
    30
 10
-428.53778499999987
 20
-32.0
 30
0.0
 11
-428.53778499999987
 21
-255.25018399999999
 31
0.0
  0
LINE
  5
285
  8
SIZE
  6
CONTINUOUS
 62
    30
 10
-428.53778499999987
 20
-10.0
 30
0.0
 11
-428.53778499999987
 21
-20.0
 31
0.0
  0
CIRCLE
  5
286
  8
SIZE
  6
CONTINUOUS
 62
    30
 10
-428.53778499999987
 20
-10.0
 30
0.0
 40
6.0
  0
LINE
  5
287
  8
SIZE
  6
CONTINUOUS
 62
    30
 10
-428.53778499999987
 20
-10.0
 30
0.0
 11
-428.53778499999987
 21
2.0
 31
0.0
  0
CIRCLE
  5
288
  8
SIZE
  6
CONTINUOUS
 62
    30
 10
-428.53778499999987
 20
-20.0
 30
0.0
 40
6.0
  0
LINE
  5
289
  8
SIZE
  6
CONTINUOUS
 62
    30
 10
-428.53778499999987
 20
-20.0
 30
0.0
 11
-428.53778499999987
 21
-32.0
 31
0.0
  0
TEXT
  5
28A
  8
SIZE
  6
CONTINUOUS
 62
    30
 10
-453.53778499999987
 20
-230.250183142857
 30
0.0
 40
64.0
  1
10
 50
90.0
 41
0.9
 72
     1
 11
-453.53778499999987
 21
-189.1073259999998
 31
0.0
  0
TEXT
  5
28B
  8
NOTE
  6
CONTINUOUS
 62
     4
 10
453.47062699999998
 20
177.88315600000001
 30
0.0
 40
64.0
  1
4-φ14
 41
0.9
  0
LINE
  5
28C
  8
NOTE
  6
CONTINUOUS
 62
     4
 10
762.09423600000002
 20
152.78360699999999
 30
0.0
 11
444.98476199999988
 21
152.78360699999999
 31
0.0
  0
CIRCLE
  5
28D
  8
FIX
  6
CONTINUOUS
 62
    11
 10
280.0
 20
0.0
 30
0.0
 40
7.0
  0
CIRCLE
  5
28E
  8
FIX
  6
CONTINUOUS
 62
    11
 10
-280.0
 20
0.0
 30
0.0
 40
7.0
  0
LINE
  5
28F
  8
SIZE
  6
CONTINUOUS
 62
    30
 10
-65.5
 20
-290.0
 30
0.0
 11
-65.5
 21
-498.85325599999987
 31
0.0
  0
LINE
  5
290
  8
SIZE
  6
CONTINUOUS
 62
    30
 10
65.5
 20
-290.0
 30
0.0
 11
65.5
 21
-498.85325599999987
 31
0.0
  0
LINE
  5
291
  8
SIZE
  6
CONTINUOUS
 62
    30
 10
-53.5
 20
-478.85325599999987
 30
0.0
 11
53.5
 21
-478.85325599999987
 31
0.0
  0
LINE
  5
292
  8
SIZE
  6
CONTINUOUS
 62
    30
 10
-308.830397
 20
-478.85325599999987
 30
0.0
 11
-65.5
 21
-478.85325599999987
 31
0.0
  0
TEXT
  5
293
  8
SIZE
  6
CONTINUOUS
 62
    30
 10
-298.0932534285713
 20
-453.85325599999987
 30
0.0
 40
64.0
  1
φ131
 41
0.9
 72
     1
 11
-201.54468199999999
 21
-453.85325599999987
 31
0.0
  0
CIRCLE
  5
294
  8
SIZE
  6
CONTINUOUS
 62
    30
 10
-65.5
 20
-478.85325599999987
 30
0.0
 40
6.0
  0
LINE
  5
295
  8
SIZE
  6
CONTINUOUS
 62
    30
 10
-65.5
 20
-478.85325599999987
 30
0.0
 11
-53.5
 21
-478.85325599999987
 31
0.0
  0
CIRCLE
  5
296
  8
SIZE
  6
CONTINUOUS
 62
    30
 10
65.5
 20
-478.85325599999987
 30
0.0
 40
6.0
  0
LINE
  5
297
  8
SIZE
  6
CONTINUOUS
 62
    30
 10
65.5
 20
-478.85325599999987
 30
0.0
 11
53.5
 21
-478.85325599999987
 31
0.0
  0
LINE
  5
298
  8
DETAIL
  6
CONTINUOUS
 62
     5
 10
57.5
 20
-285.0
 30
0.0
 11
-57.5
 21
-285.0
 31
0.0
  0
LINE
  5
299
  8
DETAIL
  6
CONTINUOUS
 62
     5
 10
95.0
 20
-258.45178700000002
 30
0.0
 11
95.0
 21
-262.50994199999991
 31
0.0
  0
LINE
  5
29A
  8
DETAIL
  6
CONTINUOUS
 62
     5
 10
-95.000932000000006
 20
-258.45178700000002
 30
0.0
 11
-95.000932000000006
 21
-262.50994199999991
 31
0.0
  0
LINE
  5
29B
  8
DETAIL
  6
CONTINUOUS
 62
     5
 10
-170.0
 20
-258.46083399999992
 30
0.0
 11
170.0
 21
-258.46083399999992
 31
0.0
  0
LINE
  5
29C
  8
DETAIL
  6
CONTINUOUS
 62
     5
 10
-65.5
 20
-262.50994199999991
 30
0.0
 11
-65.5
 21
-277.0
 31
0.0
  0
LINE
  5
29D
  8
DETAIL
  6
CONTINUOUS
 62
     5
 10
65.5
 20
-262.50994199999991
 30
0.0
 11
65.5
 21
-277.0
 31
0.0
  0
ARC
  5
29E
  8
DETAIL
  6
CONTINUOUS
 62
     5
 10
-57.5
 20
-277.0
 30
0.0
 40
8.0
 50
180.0
 51
270.0
  0
ARC
  5
29F
  8
DETAIL
  6
CONTINUOUS
 62
     5
 10
57.5
 20
-277.0
 30
0.0
 40
8.0
 50
270.0
 51
0.0
  0
ARC
  5
2A0
  8
DETAIL
  6
CONTINUOUS
 62
     5
 10
-90.0
 20
-218.30179699999991
 30
0.0
 40
5.0
 50
90.0
 51
180.0
  0
ARC
  5
2A1
  8
DETAIL
  6
CONTINUOUS
 62
     5
 10
90.0
 20
-218.30179699999991
 30
0.0
 40
5.0
 50
0.0
 51
90.0
  0
LINE
  5
2A2
  8
DETAIL
  6
CONTINUOUS
 62
     5
 10
-225.0
 20
-20.0
 30
0.0
 11
-225.0
 21
-170.46083400000001
 31
0.0
  0
LINE
  5
2A3
  8
DETAIL
  6
CONTINUOUS
 62
     5
 10
225.0
 20
-20.0
 30
0.0
 11
225.0
 21
-170.46083400000001
 31
0.0
  0
ARC
  5
2A4
  8
DETAIL
  6
CONTINUOUS
 62
     5
 10
-175.0
 20
-170.46083400000001
 30
0.0
 40
50.0
 50
180.0
 51
270.0
  0
ARC
  5
2A5
  8
DETAIL
  6
CONTINUOUS
 62
     5
 10
175.0
 20
-170.46083400000001
 30
0.0
 40
50.0
 50
270.0
 51
0.0
  0
ARC
  5
2A6
  8
DETAIL
  6
CONTINUOUS
 62
     5
 10
-170.0
 20
-178.46083400000001
 30
0.0
 40
80.0
 50
180.0
 51
270.0
  0
ARC
  5
2A7
  8
DETAIL
  6
CONTINUOUS
 62
     5
 10
170.0
 20
-178.46083400000001
 30
0.0
 40
80.0
 50
270.0
 51
0.0
  0
LINE
  5
2A8
  8
SIZE
  6
CONTINUOUS
 62
    30
 10
-302.49999999999989
 20
-115.0
 30
0.0
 11
-302.49999999999989
 21
-628.47740899999985
 31
0.0
  0
LINE
  5
2A9
  8
SIZE
  6
CONTINUOUS
 62
    30
 10
302.49999999999989
 20
-115.0
 30
0.0
 11
302.49999999999989
 21
-628.47740899999985
 31
0.0
  0
LINE
  5
2AA
  8
SIZE
  6
CONTINUOUS
 62
    30
 10
-290.5
 20
-608.47740899999985
 30
0.0
 11
290.5
 21
-608.47740899999985
 31
0.0
  0
CIRCLE
  5
2AB
  8
SIZE
  6
CONTINUOUS
 62
    30
 10
-302.49999999999989
 20
-608.47740899999985
 30
0.0
 40
6.0
  0
LINE
  5
2AC
  8
SIZE
  6
CONTINUOUS
 62
    30
 10
-302.49999999999989
 20
-608.47740899999985
 30
0.0
 11
-290.5
 21
-608.47740899999985
 31
0.0
  0
CIRCLE
  5
2AD
  8
SIZE
  6
CONTINUOUS
 62
    30
 10
302.49999999999989
 20
-608.47740899999985
 30
0.0
 40
6.0
  0
LINE
  5
2AE
  8
SIZE
  6
CONTINUOUS
 62
    30
 10
302.49999999999989
 20
-608.47740899999985
 30
0.0
 11
290.5
 21
-608.47740899999985
 31
0.0
  0
TEXT
  5
2AF
  8
SIZE
  6
CONTINUOUS
 62
    30
 10
-114.3771428571428
 20
-583.47740899999985
 30
0.0
 40
64.0
  1
φ605
 41
0.9
 72
     1
 11
0.0
 21
-583.47740899999985
 31
0.0
  0
ARC
  5
2B0
  8
DETAIL
  6
CONTINUOUS
 62
     5
 10
-300.03239400000001
 20
-46.947741000000001
 30
0.0
 40
46.069327999999999
 50
296.98852799999992
 51
10.679003
  0
LINE
  5
2B1
  8
DETAIL
  6
CONTINUOUS
 62
     5
 10
-254.76095100000001
 20
-38.410795
 30
0.0
 11
-257.06909599999977
 21
-20.0
 31
0.0
  0
ARC
  5
2B2
  8
DETAIL
  6
CONTINUOUS
 62
     5
 10
300.03239400000001
 20
-46.947741000000001
 30
0.0
 40
46.069327999999999
 50
169.32099700000001
 51
243.011472
  0
LINE
  5
2B3
  8
DETAIL
  6
CONTINUOUS
 62
     5
 10
254.76095100000001
 20
-38.410795
 30
0.0
 11
257.06909599999977
 21
-20.0
 31
0.0
  0
LINE
  5
2B4
  8
DETAIL
  6
CONTINUOUS
 62
     5
 10
92.537949999999995
 20
-258.46083399999992
 30
0.0
 11
92.537949999999995
 21
-220.46083399999989
 31
0.0
  0
LINE
  5
2B5
  8
DETAIL
  6
CONTINUOUS
 62
     5
 10
-95.000932000000006
 20
-262.50994199999991
 30
0.0
 11
95.0
 21
-262.50994199999991
 31
0.0
  0
LINE
  5
2B6
  8
OUTLINE
  6
CONTINUOUS
 62
     3
 10
-170.0
 20
-258.46083399999992
 30
0.0
 11
170.0
 21
-258.46083399999992
 31
0.0
  0
LINE
  5
2B7
  8
OUTLINE
  6
CONTINUOUS
 62
     3
 10
0.0
 20
-220.46083399999989
 30
0.0
 11
-175.0
 21
-220.46083399999989
 31
0.0
  0
LINE
  5
2B8
  8
OUTLINE
  6
CONTINUOUS
 62
     3
 10
57.5
 20
-285.0
 30
0.0
 11
-57.5
 21
-285.0
 31
0.0
  0
LINE
  5
2B9
  8
OUTLINE
  6
CONTINUOUS
 62
     3
 10
225.0
 20
-95.0
 30
0.0
 11
-225.0
 21
-95.0
 31
0.0
  0
LINE
  5
2BA
  8
OUTLINE
  6
CONTINUOUS
 62
     3
 10
225.0
 20
-88.0
 30
0.0
 11
-225.0
 21
-88.0
 31
0.0
  0
LINE
  5
2BB
  8
OUTLINE
  6
CONTINUOUS
 62
     3
 10
287.05401099999978
 20
-20.0
 30
0.0
 11
-286.28576499999991
 21
-20.0
 31
0.0
  0
LINE
  5
2BC
  8
OUTLINE
  6
CONTINUOUS
 62
     3
 10
290.5
 20
-10.0
 30
0.0
 11
-290.5
 21
-10.0
 31
0.0
  0
LINE
  5
2BD
  8
OUTLINE
  6
CONTINUOUS
 62
     3
 10
310.0
 20
0.0
 30
0.0
 11
-310.0
 21
0.0
 31
0.0
  0
LINE
  5
2BE
  8
OUTLINE
  6
CONTINUOUS
 62
     3
 10
92.537949999999995
 20
-258.46083399999992
 30
0.0
 11
92.537949999999995
 21
-220.46083399999989
 31
0.0
  0
ARC
  5
2BF
  8
OUTLINE
  6
CONTINUOUS
 62
     3
 10
170.0
 20
-178.46083400000001
 30
0.0
 40
80.0
 50
270.0
 51
0.0
  0
LINE
  5
2C0
  8
OUTLINE
  6
CONTINUOUS
 62
     3
 10
95.0
 20
-258.45178700000002
 30
0.0
 11
95.0
 21
-262.50994199999991
 31
0.0
  0
LINE
  5
2C1
  8
OUTLINE
  6
CONTINUOUS
 62
     3
 10
65.5
 20
-262.50994199999991
 30
0.0
 11
65.5
 21
-277.0
 31
0.0
  0
ARC
  5
2C2
  8
OUTLINE
  6
CONTINUOUS
 62
     3
 10
57.5
 20
-277.0
 30
0.0
 40
8.0
 50
270.0
 51
0.0
  0
LINE
  5
2C3
  8
OUTLINE
  6
CONTINUOUS
 62
     3
 10
90.0
 20
-220.46083399999989
 30
0.0
 11
175.0
 21
-220.46083399999989
 31
0.0
  0
LINE
  5
2C4
  8
OUTLINE
  6
CONTINUOUS
 62
     3
 10
225.0
 20
-20.0
 30
0.0
 11
225.0
 21
-170.46083400000001
 31
0.0
  0
LINE
  5
2C5
  8
OUTLINE
  6
CONTINUOUS
 62
     3
 10
250.0
 20
-20.0
 30
0.0
 11
250.0
 21
-178.46083400000001
 31
0.0
  0
ARC
  5
2C6
  8
OUTLINE
  6
CONTINUOUS
 62
     3
 10
175.0
 20
-170.46083400000001
 30
0.0
 40
50.0
 50
270.0
 51
0.0
  0
ARC
  5
2C7
  8
OUTLINE
  6
CONTINUOUS
 62
     3
 10
300.03239400000001
 20
-46.947741000000001
 30
0.0
 40
46.069327999999999
 50
169.32099700000001
 51
243.011472
  0
LINE
  5
2C8
  8
OUTLINE
  6
CONTINUOUS
 62
     3
 10
302.49999999999989
 20
-95.0
 30
0.0
 11
302.49999999999989
 21
-88.0
 31
0.0
  0
LINE
  5
2C9
  8
OUTLINE
  6
CONTINUOUS
 62
     3
 10
250.0
 20
-95.0
 30
0.0
 11
302.49999999999989
 21
-95.0
 31
0.0
  0
LINE
  5
2CA
  8
OUTLINE
  6
CONTINUOUS
 62
     3
 10
250.0
 20
-88.0
 30
0.0
 11
302.49999999999989
 21
-88.0
 31
0.0
  0
LINE
  5
2CB
  8
OUTLINE
  6
CONTINUOUS
 62
     3
 10
254.76095100000001
 20
-38.410795
 30
0.0
 11
257.06909599999977
 21
-20.0
 31
0.0
  0
ARC
  5
2CC
  8
OUTLINE
  6
CONTINUOUS
 62
     3
 10
303.0
 20
-3.0
 30
0.0
 40
7.0
 50
270.0
 51
0.0
  0
LINE
  5
2CD
  8
OUTLINE
  6
CONTINUOUS
 62
     3
 10
287.05401099999978
 20
-20.0
 30
0.0
 11
287.05401099999978
 21
-10.0
 31
0.0
  0
LINE
  5
2CE
  8
OUTLINE
  6
CONTINUOUS
 62
     3
 10
310.0
 20
-3.0
 30
0.0
 11
310.0
 21
0.0
 31
0.0
  0
LINE
  5
2CF
  8
OUTLINE
  6
CONTINUOUS
 62
     3
 10
303.0
 20
-10.0
 30
0.0
 11
290.5
 21
-10.0
 31
0.0
  0
LINE
  5
2D0
  8
OUTLINE
  6
CONTINUOUS
 62
     3
 10
90.0
 20
-220.46083399999989
 30
0.0
 11
0.0
 21
-220.46083399999989
 31
0.0
  0
LINE
  5
2D1
  8
OUTLINE
  6
CONTINUOUS
 62
     3
 10
-92.537949999999995
 20
-258.46083399999992
 30
0.0
 11
-92.537949999999995
 21
-220.46083399999989
 31
0.0
  0
ARC
  5
2D2
  8
OUTLINE
  6
CONTINUOUS
 62
     3
 10
-170.0
 20
-178.46083400000001
 30
0.0
 40
80.0
 50
180.0
 51
270.0
  0
LINE
  5
2D3
  8
OUTLINE
  6
CONTINUOUS
 62
     3
 10
-95.000932000000006
 20
-262.50994199999991
 30
0.0
 11
95.0
 21
-262.50994199999991
 31
0.0
  0
LINE
  5
2D4
  8
OUTLINE
  6
CONTINUOUS
 62
     3
 10
-65.5
 20
-262.50994199999991
 30
0.0
 11
-65.5
 21
-277.0
 31
0.0
  0
ARC
  5
2D5
  8
OUTLINE
  6
CONTINUOUS
 62
     3
 10
-57.5
 20
-277.0
 30
0.0
 40
8.0
 50
180.0
 51
270.0
  0
LINE
  5
2D6
  8
OUTLINE
  6
CONTINUOUS
 62
     3
 10
-95.000932000000006
 20
-258.45178700000002
 30
0.0
 11
-95.000932000000006
 21
-262.50994199999991
 31
0.0
  0
LINE
  5
2D7
  8
OUTLINE
  6
CONTINUOUS
 62
     3
 10
-225.0
 20
-20.0
 30
0.0
 11
-225.0
 21
-170.46083400000001
 31
0.0
  0
LINE
  5
2D8
  8
OUTLINE
  6
CONTINUOUS
 62
     3
 10
-250.0
 20
-20.0
 30
0.0
 11
-250.0
 21
-178.46083400000001
 31
0.0
  0
ARC
  5
2D9
  8
OUTLINE
  6
CONTINUOUS
 62
     3
 10
-175.0
 20
-170.46083400000001
 30
0.0
 40
50.0
 50
180.0
 51
270.0
  0
ARC
  5
2DA
  8
OUTLINE
  6
CONTINUOUS
 62
     3
 10
-300.03239400000001
 20
-46.947741000000001
 30
0.0
 40
46.069327999999999
 50
296.98852799999992
 51
10.679003
  0
LINE
  5
2DB
  8
OUTLINE
  6
CONTINUOUS
 62
     3
 10
-302.49999999999989
 20
-95.0
 30
0.0
 11
-302.49999999999989
 21
-88.0
 31
0.0
  0
LINE
  5
2DC
  8
OUTLINE
  6
CONTINUOUS
 62
     3
 10
-250.0
 20
-95.0
 30
0.0
 11
-302.49999999999989
 21
-95.0
 31
0.0
  0
LINE
  5
2DD
  8
OUTLINE
  6
CONTINUOUS
 62
     3
 10
-250.0
 20
-88.0
 30
0.0
 11
-302.49999999999989
 21
-88.0
 31
0.0
  0
LINE
  5
2DE
  8
OUTLINE
  6
CONTINUOUS
 62
     3
 10
-254.76095100000001
 20
-38.410795
 30
0.0
 11
-257.06909599999977
 21
-20.0
 31
0.0
  0
ARC
  5
2DF
  8
OUTLINE
  6
CONTINUOUS
 62
     3
 10
-303.0
 20
-3.0
 30
0.0
 40
7.0
 50
180.0
 51
270.0
  0
LINE
  5
2E0
  8
OUTLINE
  6
CONTINUOUS
 62
     3
 10
-286.28576499999991
 20
-20.0
 30
0.0
 11
-286.28576499999991
 21
-10.0
 31
0.0
  0
LINE
  5
2E1
  8
OUTLINE
  6
CONTINUOUS
 62
     3
 10
-290.5
 20
-10.0
 30
0.0
 11
-303.0
 21
-10.0
 31
0.0
  0
LINE
  5
2E2
  8
OUTLINE
  6
CONTINUOUS
 62
     3
 10
-310.0
 20
-3.0
 30
0.0
 11
-310.0
 21
0.0
 31
0.0
  0
ARC
  5
2E3
  8
DETAIL
  6
CONTINUOUS
 62
     5
 10
-148.40203500000001
 20
-82.440745999999976
 30
0.0
 40
93.132537000000013
 50
215.9749359999999
 51
274.729378
  0
ARC
  5
2E4
  8
DETAIL
  6
CONTINUOUS
 62
     5
 10
-110.7233029999999
 20
-165.57956399999981
 30
0.0
 40
30.0
 50
148.07741299999981
 51
180.0
  0
LINE
  5
2E5
  8
DETAIL
  6
CONTINUOUS
 62
     5
 10
-140.7233029999999
 20
-175.25619
 30
0.0
 11
-140.7233029999999
 21
-165.57956399999981
 31
0.0
  0
ARC
  5
2E6
  8
DETAIL
  6
CONTINUOUS
 62
     5
 10
101.3470019999999
 20
-335.46999299999987
 30
0.0
 40
301.54009600000001
 50
127.110564
 51
141.97419500000001
  0
ARC
  5
2E7
  8
DETAIL
  6
CONTINUOUS
 62
     5
 10
-143.48639800000001
 20
21.766467999999978
 30
0.0
 40
209.311455
 50
295.04868699999992
 51
326.09207500000002
  0
ARC
  5
2E8
  8
DETAIL
  6
CONTINUOUS
 62
     5
 10
-88.040746999999996
 20
194.2999209999999
 30
0.0
 40
363.67505799999992
 50
275.2337839999999
 51
307.29842500000001
  0
ARC
  5
2E9
  8
DETAIL
  6
CONTINUOUS
 62
     5
 10
264.82703299999991
 20
88.281210000000016
 30
0.0
 40
269.96017899999998
 50
230.7004839999999
 51
261.37223899999992
  0
ARC
  5
2EA
  8
DETAIL
  6
CONTINUOUS
 62
     5
 10
351.09228200000001
 20
60.73193599999999
 30
0.0
 40
268.52848699999993
 50
215.44672199999991
 51
241.91453199999989
  0
LINE
  5
2EB
  8
DETAIL
  6
CONTINUOUS
 62
     5
 10
-65.5
 20
-136.1348319999999
 30
0.0
 11
-65.5
 21
-169.742527
 31
0.0
  0
LINE
  5
2EC
  8
DETAIL
  6
CONTINUOUS
 62
     5
 10
65.5
 20
-136.1348319999999
 30
0.0
 11
65.5
 21
-169.742527
 31
0.0
  0
LINE
  5
2ED
  8
DETAIL
  6
CONTINUOUS
 62
     5
 10
-66.800606999999999
 20
-169.742527
 30
0.0
 11
66.800607000000014
 21
-169.742527
 31
0.0
  0
LINE
  5
2EE
  8
DETAIL
  6
CONTINUOUS
 62
     5
 10
90.0
 20
-213.30179699999999
 30
0.0
 11
-90.0
 21
-213.30179699999999
 31
0.0
  0
LINE
  5
2F2
  8
DETAIL
  6
CONTINUOUS
 62
     5
 10
-66.800606999999999
 20
-213.30179699999999
 30
0.0
 11
-66.800606999999999
 21
-169.742527
 31
0.0
  0
LINE
  5
300
  8
DETAIL
  6
CONTINUOUS
 62
     5
 10
66.800606999999999
 20
-213.30179699999999
 30
0.0
 11
66.800606999999999
 21
-169.742527
 31
0.0
  0
LINE
  5
302
  8
DETAIL
  6
CONTINUOUS
 62
     5
 10
4.623326999999998
 20
-126.1348319999999
 30
0.0
 11
-55.5
 21
-126.1348319999999
 31
0.0
  0
ARC
  5
303
  8
DETAIL
  6
CONTINUOUS
 62
     5
 10
-55.5
 20
-136.1348319999999
 30
0.0
 40
10.0
 50
90.0
 51
180.0
  0
LINE
  5
304
  8
DETAIL
  6
CONTINUOUS
 62
     5
 10
-5.0
 20
-105.0
 30
0.0
 11
-5.0
 21
-111.134832
 31
0.0
  0
LINE
  5
305
  8
DETAIL
  6
CONTINUOUS
 62
     5
 10
5.0
 20
-105.0
 30
0.0
 11
5.0
 21
-111.134832
 31
0.0
  0
LINE
  5
306
  8
DETAIL
  6
CONTINUOUS
 62
     5
 10
8.3200649999999978
 20
-105.0
 30
0.0
 11
-8.3200649999999978
 21
-105.0
 31
0.0
  0
LINE
  5
307
  8
DETAIL
  6
CONTINUOUS
 62
     5
 10
-8.3200649999999978
 20
-105.0
 30
0.0
 11
-10.956924000000001
 21
-95.0
 31
0.0
  0
LINE
  5
308
  8
DETAIL
  6
CONTINUOUS
 62
     5
 10
8.3200649999999978
 20
-105.0
 30
0.0
 11
10.956924000000001
 21
-95.0
 31
0.0
  0
LINE
  5
309
  8
DETAIL
  6
CONTINUOUS
 62
     5
 10
15.0
 20
-111.134832
 30
0.0
 11
-15.0
 21
-111.134832
 31
0.0
  0
LINE
  5
30A
  8
DETAIL
  6
CONTINUOUS
 62
     5
 10
-20.0
 20
-116.134832
 30
0.0
 11
-20.0
 21
-126.1348319999999
 31
0.0
  0
ARC
  5
30B
  8
DETAIL
  6
CONTINUOUS
 62
     5
 10
-15.0
 20
-116.134832
 30
0.0
 40
5.0
 50
90.0
 51
180.0
  0
ARC
  5
30C
  8
DETAIL
  6
CONTINUOUS
 62
     5
 10
15.0
 20
-116.134832
 30
0.0
 40
5.0
 50
58.519606000000003
 51
90.0
  0
ARC
  5
30D
  8
DETAIL
  6
CONTINUOUS
 62
     5
 10
55.5
 20
-136.1348319999999
 30
0.0
 40
10.0
 50
0.0
 51
4.2894490000000003
  0
TEXT
  5
315
  8
ETC
  6
CONTINUOUS
 62
    61
 10
838.03647687797695
 20
284.4707939077046
 30
0.0
 40
50.0
  1
EH-50CTB3
 41
0.9
  0
ENDSEC
  0
EOF
