  0
SECTION
  2
HEADER
  9
$ACADVER
  1
AC1009
  9
$DWGCODEPAGE
  3
ansi_932
  9
$INSBASE
 10
0.0
 20
0.0
 30
0.0
  9
$EXTMIN
 10
-1206.375954371651
 20
-624.2021975297417
 30
0.0
  9
$EXTMAX
 10
746.1883250853674
 20
735.8716644730447
 30
50.0
  9
$LIMMIN
 10
-2970.0
 20
-2100.0
  9
$LIMMAX
 10
2970.0
 20
2100.0
  9
$ORTHOMODE
 70
     0
  9
$REGENMODE
 70
     0
  9
$FILLMODE
 70
     1
  9
$QTEXTMODE
 70
     0
  9
$MIRRTEXT
 70
     0
  9
$DRAGMODE
 70
     2
  9
$LTSCALE
 40
20.0
  9
$OSMODE
 70
    37
  9
$ATTMODE
 70
     1
  9
$TEXTSIZE
 40
64.0
  9
$TRACEWID
 40
0.05
  9
$TEXTSTYLE
  7
STANDARD
  9
$CLAYER
  8
SIZE
  9
$CELTYPE
  6
CONTINUOUS
  9
$CECOLOR
 62
    30
  9
$DIMSCALE
 40
1.0
  9
$DIMASZ
 40
12.0
  9
$DIMEXO
 40
20.0
  9
$DIMDLI
 40
200.0
  9
$DIMRND
 40
0.0
  9
$DIMDLE
 40
0.0
  9
$DIMEXE
 40
20.0
  9
$DIMTP
 40
0.0
  9
$DIMTM
 40
0.0
  9
$DIMTXT
 40
64.0
  9
$DIMCEN
 40
0.09
  9
$DIMTSZ
 40
0.0
  9
$DIMTOL
 70
     0
  9
$DIMLIM
 70
     0
  9
$DIMTIH
 70
     0
  9
$DIMTOH
 70
     0
  9
$DIMSE1
 70
     0
  9
$DIMSE2
 70
     0
  9
$DIMTAD
 70
     1
  9
$DIMZIN
 70
     8
  9
$DIMBLK
  1
DOT1
  9
$DIMASO
 70
     1
  9
$DIMSHO
 70
     0
  9
$DIMPOST
  1

  9
$DIMAPOST
  1

  9
$DIMALT
 70
     0
  9
$DIMALTD
 70
     2
  9
$DIMALTF
 40
25.4
  9
$DIMLFAC
 40
1.0
  9
$DIMTOFL
 70
     1
  9
$DIMTVP
 40
0.0
  9
$DIMTIX
 70
     1
  9
$DIMSOXD
 70
     0
  9
$DIMSAH
 70
     1
  9
$DIMBLK1
  1
ORIGIN
  9
$DIMBLK2
  1
ORIGIN
  9
$DIMSTYLE
  2
STANDARD
  9
$DIMCLRD
 70
     0
  9
$DIMCLRE
 70
     0
  9
$DIMCLRT
 70
     0
  9
$DIMTFAC
 40
1.0
  9
$DIMGAP
 40
0.09
  9
$LUNITS
 70
     2
  9
$LUPREC
 70
     4
  9
$SKETCHINC
 40
0.1
  9
$FILLETRAD
 40
5.0
  9
$AUNITS
 70
     1
  9
$AUPREC
 70
     3
  9
$MENU
  1
ACAD
  9
$ELEVATION
 40
0.0
  9
$PELEVATION
 40
0.0
  9
$THICKNESS
 40
50.0
  9
$LIMCHECK
 70
     0
  9
$CHAMFERA
 40
0.0
  9
$CHAMFERB
 40
0.0
  9
$SKPOLY
 70
     0
  9
$TDCREATE
 40
2452310.657101389
  9
$TDUPDATE
 40
2457485.556274676
  9
$TDINDWG
 40
0.0951150116
  9
$TDUSRTIMER
 40
0.095114838
  9
$USRTIMER
 70
     1
  9
$ANGBASE
 50
0.0
  9
$ANGDIR
 70
     0
  9
$PDMODE
 70
     3
  9
$PDSIZE
 40
-2.0
  9
$PLINEWID
 40
0.0
  9
$COORDS
 70
     1
  9
$SPLFRAME
 70
     0
  9
$SPLINETYPE
 70
     6
  9
$SPLINESEGS
 70
     8
  9
$ATTDIA
 70
     0
  9
$ATTREQ
 70
     1
  9
$HANDLING
 70
     1
  9
$HANDSEED
  5
53A
  9
$SURFTAB1
 70
     6
  9
$SURFTAB2
 70
     6
  9
$SURFTYPE
 70
     6
  9
$SURFU
 70
     6
  9
$SURFV
 70
     6
  9
$UCSNAME
  2

  9
$UCSORG
 10
0.0
 20
0.0
 30
0.0
  9
$UCSXDIR
 10
1.0
 20
0.0
 30
0.0
  9
$UCSYDIR
 10
0.0
 20
1.0
 30
0.0
  9
$PUCSNAME
  2

  9
$PUCSORG
 10
0.0
 20
0.0
 30
0.0
  9
$PUCSXDIR
 10
1.0
 20
0.0
 30
0.0
  9
$PUCSYDIR
 10
0.0
 20
1.0
 30
0.0
  9
$USERI1
 70
     0
  9
$USERI2
 70
     0
  9
$USERI3
 70
     0
  9
$USERI4
 70
     0
  9
$USERI5
 70
     0
  9
$USERR1
 40
20.0
  9
$USERR2
 40
0.0
  9
$USERR3
 40
0.0
  9
$USERR4
 40
0.0
  9
$USERR5
 40
0.0
  9
$WORLDVIEW
 70
     1
  9
$SHADEDGE
 70
     3
  9
$SHADEDIF
 70
    70
  9
$TILEMODE
 70
     1
  9
$MAXACTVP
 70
    64
  9
$PLIMCHECK
 70
     0
  9
$PEXTMIN
 10
1.000000000000000E+20
 20
1.000000000000000E+20
 30
1.000000000000000E+20
  9
$PEXTMAX
 10
-1.000000000000000E+20
 20
-1.000000000000000E+20
 30
-1.000000000000000E+20
  9
$PLIMMIN
 10
0.0
 20
0.0
  9
$PLIMMAX
 10
12.0
 20
9.0
  9
$UNITMODE
 70
     0
  9
$VISRETAIN
 70
     1
  9
$PLINEGEN
 70
     0
  9
$PSLTSCALE
 70
     1
  0
ENDSEC
  0
SECTION
  2
TABLES
  0
TABLE
  2
VPORT
 70
     1
  0
VPORT
  2
*ACTIVE
 70
     0
 10
0.0
 20
0.0
 11
1.0
 21
1.0
 12
-233.8290919320848
 22
55.83949335308898
 13
0.0
 23
0.0
 14
1.0
 24
1.0
 15
0.0
 25
0.0
 16
0.0
 26
0.0
 36
1.0
 17
0.0
 27
0.0
 37
0.0
 40
1697.849156379329
 41
1.493654822335025
 42
50.0
 43
0.0
 44
0.0
 50
0.0
 51
0.0
 71
     0
 72
   100
 73
     1
 74
     0
 75
     0
 76
     0
 77
     0
 78
     0
  0
ENDTAB
  0
TABLE
  2
LTYPE
 70
     2
  0
LTYPE
  2
CONTINUOUS
 70
     0
  3
実線
 72
    65
 73
     0
 40
0.0
  0
LTYPE
  2
DASHDOT
 70
     0
  3
____ _ ____ _ ____ _ ____ _ ____ _ ____ _ ____
 72
    65
 73
     4
 40
5.5
 49
4.0
 49
-0.6
 49
0.3
 49
-0.6
  0
ENDTAB
  0
TABLE
  2
LAYER
 70
    12
  0
LAYER
  2
0
 70
     0
 62
     7
  6
CONTINUOUS
  0
LAYER
  2
SIZE
 70
     0
 62
    30
  6
CONTINUOUS
  0
LAYER
  2
BASIS
 70
     0
 62
     6
  6
DASHDOT
  0
LAYER
  2
OUTLINE
 70
     0
 62
     3
  6
CONTINUOUS
  0
LAYER
  2
DETAIL
 70
     0
 62
     5
  6
CONTINUOUS
  0
LAYER
  2
ARRANGE
 70
     0
 62
     1
  6
CONTINUOUS
  0
LAYER
  2
DEFPOINTS
 70
     0
 62
     7
  6
CONTINUOUS
  0
LAYER
  2
ETC
 70
     0
 62
    61
  6
CONTINUOUS
  0
LAYER
  2
FIX
 70
     0
 62
    11
  6
CONTINUOUS
  0
LAYER
  2
NOTE
 70
     0
 62
     4
  6
CONTINUOUS
  0
LAYER
  2
SERVICESPACE
 70
     0
 62
     2
  6
DASHDOT
  0
LAYER
  2
SYMBOLLINE
 70
     0
 62
    15
  6
CONTINUOUS
  0
ENDTAB
  0
TABLE
  2
STYLE
 70
     1
  0
STYLE
  2
STANDARD
 70
     0
 40
64.0
 41
0.9
 50
0.0
 71
     0
 42
64.0
  3
SIMPLEX.shx
  4
BIGFONT.shx
  0
ENDTAB
  0
TABLE
  2
VIEW
 70
     1
  0
VIEW
  2
ALL
 70
     0
 40
4282.619807999997
 10
0.0
 20
41.30990399999999
 41
5940.0
 11
0.0
 21
0.0
 31
1.0
 12
0.0
 22
0.0
 32
0.0
 42
50.0
 43
0.0
 44
0.0
 50
0.0
 71
     0
  0
ENDTAB
  0
TABLE
  2
UCS
 70
     0
  0
ENDTAB
  0
TABLE
  2
APPID
 70
     1
  0
APPID
  2
ACAD
 70
     0
  0
ENDTAB
  0
TABLE
  2
DIMSTYLE
 70
     1
  0
DIMSTYLE
  2
STANDARD
 70
     0
  3

  4

  5

  6

  7

 40
1.0
 41
0.18
 42
0.0625
 43
0.38
 44
0.18
 45
0.0
 46
0.0
 47
0.0
 48
0.0
140
0.18
141
0.09
142
0.0
143
25.4
144
1.0
145
0.0
146
1.0
147
0.09
 71
     0
 72
     0
 73
     1
 74
     1
 75
     0
 76
     0
 77
     0
 78
     0
170
     0
171
     2
172
     0
173
     0
174
     0
175
     0
176
     0
177
     0
178
     0
  0
ENDTAB
  0
ENDSEC
  0
SECTION
  2
BLOCKS
  0
BLOCK
  8
0
  2
$MODEL_SPACE
 70
     0
 10
0.0
 20
0.0
 30
0.0
  3
$MODEL_SPACE
  1

  0
ENDBLK
  5
385
  8
0
  0
BLOCK
 67
     1
  8
0
  2
$PAPER_SPACE
 70
     0
 10
0.0
 20
0.0
 30
0.0
  3
$PAPER_SPACE
  1

  0
ENDBLK
  5
381
 67
     1
  8
0
  0
BLOCK
  8
0
  2
DOT1
 70
     0
 10
0.0
 20
0.0
 30
0.0
  3
DOT1
  1

  0
CIRCLE
  5
3A0
  8
SIZE
  6
CONTINUOUS
 62
     7
 10
0.0
 20
0.0
 30
0.0
 40
3.0
  0
ENDBLK
  5
3A1
  8
0
  0
BLOCK
  8
0
  2
_ORIGIN
 70
     0
 10
0.0
 20
0.0
 30
0.0
  3
_ORIGIN
  1

  0
CIRCLE
  5
3A4
  8
0
  6
CONTINUOUS
 62
     7
 10
0.0
 20
0.0
 30
0.0
 40
0.5
  0
LINE
  5
3A5
  8
0
  6
CONTINUOUS
 62
     7
 10
0.0
 20
0.0
 30
0.0
 11
-1.0
 21
0.0
 31
0.0
  0
ENDBLK
  5
3A6
  8
0
  0
ENDSEC
  0
SECTION
  2
ENTITIES
  0
LINE
  5
3A7
  8
BASIS
  6
DASHDOT
 62
     6
 10
0.0
 20
390.447285
 30
0.0
 11
0.0
 21
-391.7615439999998
 31
0.0
  0
LINE
  5
3A8
  8
BASIS
  6
DASHDOT
 62
     6
 10
-399.2959160000002
 20
0.0
 30
0.0
 11
399.9370539999999
 21
0.0
 31
0.0
  0
LINE
  5
3A9
  8
DETAIL
  6
CONTINUOUS
 62
     5
 10
310.0000019999999
 20
280.000002
 30
0.0
 11
310.0000019999999
 21
-280.0000019999998
 31
0.0
  0
LINE
  5
3AA
  8
DETAIL
  6
CONTINUOUS
 62
     5
 10
-310.0000020000001
 20
280.000002
 30
0.0
 11
-310.0000020000001
 21
-280.0000019999998
 31
0.0
  0
LINE
  5
3AB
  8
DETAIL
  6
CONTINUOUS
 62
     5
 10
-280.0000020000001
 20
310.000002
 30
0.0
 11
280.0000020000001
 21
310.000002
 31
0.0
  0
LINE
  5
3AC
  8
DETAIL
  6
CONTINUOUS
 62
     5
 10
-280.0000020000001
 20
-310.0000019999998
 30
0.0
 11
280.0000020000001
 21
-310.0000019999998
 31
0.0
  0
LINE
  5
3AD
  8
NOTE
  6
CONTINUOUS
 62
     4
 10
280.0
 20
259.9999999999998
 30
0.0
 11
280.0
 21
299.9999999999998
 31
0.0
  0
LINE
  5
3AE
  8
NOTE
  6
CONTINUOUS
 62
     4
 10
260.0
 20
279.9999999999999
 30
0.0
 11
300.0
 21
279.9999999999999
 31
0.0
  0
LINE
  5
3AF
  8
NOTE
  6
CONTINUOUS
 62
     4
 10
280.0
 20
-299.9999999999998
 30
0.0
 11
280.0
 21
-259.9999999999998
 31
0.0
  0
LINE
  5
3B0
  8
NOTE
  6
CONTINUOUS
 62
     4
 10
260.0
 20
-279.9999999999998
 30
0.0
 11
300.0
 21
-279.9999999999998
 31
0.0
  0
LINE
  5
3B1
  8
NOTE
  6
CONTINUOUS
 62
     4
 10
-280.0000000000001
 20
-299.9999999999998
 30
0.0
 11
-280.0000000000001
 21
-259.9999999999998
 31
0.0
  0
LINE
  5
3B2
  8
NOTE
  6
CONTINUOUS
 62
     4
 10
-300.0000000000001
 20
-279.9999999999998
 30
0.0
 11
-260.0000000000001
 21
-279.9999999999998
 31
0.0
  0
LINE
  5
3B3
  8
NOTE
  6
CONTINUOUS
 62
     4
 10
-280.0000000000001
 20
259.9999999999998
 30
0.0
 11
-280.0000000000001
 21
299.9999999999998
 31
0.0
  0
LINE
  5
3B4
  8
NOTE
  6
CONTINUOUS
 62
     4
 10
-300.0000000000001
 20
279.9999999999999
 30
0.0
 11
-260.0000000000001
 21
279.9999999999999
 31
0.0
  0
TEXT
  5
3B5
  8
NOTE
  6
CONTINUOUS
 62
     4
 10
-675.7617120000002
 20
444.0883669999999
 30
0.0
 40
64.0
  1
4-φ14
 41
0.9
  0
LINE
  5
3B6
  8
NOTE
  6
CONTINUOUS
 62
     4
 10
-704.0653210000003
 20
418.988818
 30
0.0
 11
-386.9558460000003
 21
418.988818
 31
0.0
  0
LINE
  5
3B7
  8
NOTE
  6
CONTINUOUS
 62
     4
 10
-280.0000000000001
 20
279.9999999999999
 30
0.0
 11
-386.9558460000003
 21
418.988818
 31
0.0
  0
LINE
  5
3B8
  8
NOTE
  6
CONTINUOUS
 62
     4
 10
-311.9591450000002
 20
304.054377
 30
0.0
 11
-280.0000000000001
 21
279.9999999999999
 31
0.0
  0
LINE
  5
3B9
  8
NOTE
  6
CONTINUOUS
 62
     4
 10
-280.0000000000001
 20
279.9999999999999
 30
0.0
 11
-295.6502420000001
 21
316.811274
 31
0.0
  0
POINT
  5
3BA
  8
ARRANGE
  6
CONTINUOUS
 62
     1
 10
0.0
 20
0.0
 30
0.0
  0
CIRCLE
  5
3BB
  8
ARRANGE
  6
CONTINUOUS
 62
     1
 10
0.0
 20
0.0
 30
0.0
 40
40.0
  0
LINE
  5
3BC
  8
SIZE
  6
CONTINUOUS
 62
    30
 10
280.0
 20
319.9999999999998
 30
0.0
 11
280.0
 21
496.031688
 31
0.0
  0
LINE
  5
3BD
  8
SIZE
  6
CONTINUOUS
 62
    30
 10
-280.0000000000001
 20
319.9999999999998
 30
0.0
 11
-280.0000000000001
 21
496.031688
 31
0.0
  0
LINE
  5
3BE
  8
SIZE
  6
CONTINUOUS
 62
    30
 10
268.0
 20
476.0316879999997
 30
0.0
 11
-268.0000000000001
 21
476.0316879999997
 31
0.0
  0
CIRCLE
  5
3BF
  8
SIZE
  6
CONTINUOUS
 62
    30
 10
280.0
 20
476.0316879999997
 30
0.0
 40
6.0
  0
LINE
  5
3C0
  8
SIZE
  6
CONTINUOUS
 62
    30
 10
280.0
 20
476.0316879999997
 30
0.0
 11
268.0
 21
476.0316879999997
 31
0.0
  0
CIRCLE
  5
3C1
  8
SIZE
  6
CONTINUOUS
 62
    30
 10
-280.0000000000001
 20
476.0316879999997
 30
0.0
 40
6.0
  0
LINE
  5
3C2
  8
SIZE
  6
CONTINUOUS
 62
    30
 10
-280.0000000000001
 20
476.0316879999997
 30
0.0
 11
-268.0000000000001
 21
476.0316879999997
 31
0.0
  0
TEXT
  5
3C3
  8
SIZE
  6
CONTINUOUS
 62
    30
 10
-82.28571428571429
 20
501.031688
 30
0.0
 40
64.0
  1
560
 41
0.9
 72
     1
 11
0.0
 21
501.031688
 31
0.0
  0
LINE
  5
3C4
  8
SIZE
  6
CONTINUOUS
 62
    30
 10
310.0000019999999
 20
306.153848
 30
0.0
 11
310.0000019999999
 21
622.547654
 31
0.0
  0
LINE
  5
3C5
  8
SIZE
  6
CONTINUOUS
 62
    30
 10
-310.0000020000001
 20
306.153848
 30
0.0
 11
-310.0000020000001
 21
622.547654
 31
0.0
  0
LINE
  5
3C6
  8
SIZE
  6
CONTINUOUS
 62
    30
 10
298.0000019999999
 20
602.5476539999999
 30
0.0
 11
-298.0000020000001
 21
602.5476539999999
 31
0.0
  0
CIRCLE
  5
3C7
  8
SIZE
  6
CONTINUOUS
 62
    30
 10
310.0000019999999
 20
602.5476539999999
 30
0.0
 40
6.0
  0
LINE
  5
3C8
  8
SIZE
  6
CONTINUOUS
 62
    30
 10
310.0000019999999
 20
602.5476539999999
 30
0.0
 11
298.0000019999999
 21
602.5476539999999
 31
0.0
  0
CIRCLE
  5
3C9
  8
SIZE
  6
CONTINUOUS
 62
    30
 10
-310.0000020000001
 20
602.5476539999999
 30
0.0
 40
6.0
  0
LINE
  5
3CA
  8
SIZE
  6
CONTINUOUS
 62
    30
 10
-310.0000020000001
 20
602.5476539999999
 30
0.0
 11
-298.0000020000001
 21
602.5476539999999
 31
0.0
  0
TEXT
  5
3CB
  8
SIZE
  6
CONTINUOUS
 62
    30
 10
-83.65714285714286
 20
627.5476539999999
 30
0.0
 40
64.0
  1
620
 41
0.9
 72
     1
 11
0.0
 21
627.5476539999999
 31
0.0
  0
LINE
  5
3CC
  8
SIZE
  6
CONTINUOUS
 62
    30
 10
310.6066019999999
 20
279.9999999999999
 30
0.0
 11
584.1368089999997
 21
279.9999999999999
 31
0.0
  0
LINE
  5
3CD
  8
SIZE
  6
CONTINUOUS
 62
    30
 10
320.0
 20
-279.9999999999998
 30
0.0
 11
584.1368089999997
 21
-279.9999999999998
 31
0.0
  0
LINE
  5
3CE
  8
SIZE
  6
CONTINUOUS
 62
    30
 10
564.1368089999997
 20
267.9999999999998
 30
0.0
 11
564.1368089999997
 21
-267.9999999999998
 31
0.0
  0
CIRCLE
  5
3CF
  8
SIZE
  6
CONTINUOUS
 62
    30
 10
564.1368089999997
 20
279.9999999999999
 30
0.0
 40
6.0
  0
LINE
  5
3D0
  8
SIZE
  6
CONTINUOUS
 62
    30
 10
564.1368089999997
 20
279.9999999999999
 30
0.0
 11
564.1368089999997
 21
267.9999999999998
 31
0.0
  0
CIRCLE
  5
3D1
  8
SIZE
  6
CONTINUOUS
 62
    30
 10
564.1368089999997
 20
-279.9999999999998
 30
0.0
 40
6.0
  0
LINE
  5
3D2
  8
SIZE
  6
CONTINUOUS
 62
    30
 10
564.1368089999997
 20
-279.9999999999998
 30
0.0
 11
564.1368089999997
 21
-267.9999999999998
 31
0.0
  0
TEXT
  5
3D3
  8
SIZE
  6
CONTINUOUS
 62
    30
 10
539.1368089999997
 20
-82.28571428571429
 30
0.0
 40
64.0
  1
560
 50
90.0
 41
0.9
 72
     1
 11
539.1368089999997
 21
0.0
 31
0.0
  0
LINE
  5
3D4
  8
SIZE
  6
CONTINUOUS
 62
    30
 10
306.1538479999999
 20
310.000002
 30
0.0
 11
725.6240439999998
 21
310.000002
 31
0.0
  0
LINE
  5
3D5
  8
SIZE
  6
CONTINUOUS
 62
    30
 10
306.1538479999999
 20
-310.0000019999998
 30
0.0
 11
725.6240439999998
 21
-310.0000019999998
 31
0.0
  0
LINE
  5
3D6
  8
SIZE
  6
CONTINUOUS
 62
    30
 10
705.6240439999998
 20
298.000002
 30
0.0
 11
705.6240439999998
 21
-298.0000019999998
 31
0.0
  0
CIRCLE
  5
3D7
  8
SIZE
  6
CONTINUOUS
 62
    30
 10
705.6240439999998
 20
310.000002
 30
0.0
 40
6.0
  0
LINE
  5
3D8
  8
SIZE
  6
CONTINUOUS
 62
    30
 10
705.6240439999998
 20
310.000002
 30
0.0
 11
705.6240439999998
 21
298.000002
 31
0.0
  0
CIRCLE
  5
3D9
  8
SIZE
  6
CONTINUOUS
 62
    30
 10
705.6240439999998
 20
-310.0000019999998
 30
0.0
 40
6.0
  0
LINE
  5
3DA
  8
SIZE
  6
CONTINUOUS
 62
    30
 10
705.6240439999998
 20
-310.0000019999998
 30
0.0
 11
705.6240439999998
 21
-298.0000019999998
 31
0.0
  0
TEXT
  5
3DB
  8
SIZE
  6
CONTINUOUS
 62
    30
 10
680.6240439999998
 20
-83.65714285714286
 30
0.0
 40
64.0
  1
620
 50
90.0
 41
0.9
 72
     1
 11
680.6240439999998
 21
0.0
 31
0.0
  0
ARC
  5
3DC
  8
DETAIL
  6
CONTINUOUS
 62
     5
 10
-280.0000020000001
 20
280.000002
 30
0.0
 40
30.0
 50
90.0
 51
180.0
  0
ARC
  5
3DD
  8
DETAIL
  6
CONTINUOUS
 62
     5
 10
-280.0000020000001
 20
-280.0000019999998
 30
0.0
 40
30.0
 50
180.0
 51
270.0
  0
ARC
  5
3DE
  8
DETAIL
  6
CONTINUOUS
 62
     5
 10
280.0000020000001
 20
-280.0000019999998
 30
0.0
 40
30.0
 50
270.0
 51
0.0
  0
ARC
  5
3DF
  8
DETAIL
  6
CONTINUOUS
 62
     5
 10
280.0000020000001
 20
280.000002
 30
0.0
 40
30.0
 50
0.0
 51
90.0
  0
CIRCLE
  5
3E0
  8
DETAIL
  6
CONTINUOUS
 62
     5
 10
-280.0000000000001
 20
279.9999999999999
 30
0.0
 40
7.0
  0
CIRCLE
  5
3E1
  8
FIX
  6
CONTINUOUS
 62
    11
 39
50.0
 10
-280.0000000000001
 20
279.9999999999999
 30
0.0
 40
7.0
  0
CIRCLE
  5
3E2
  8
FIX
  6
CONTINUOUS
 62
    11
 39
50.0
 10
280.0
 20
279.9999999999999
 30
0.0
 40
7.0
  0
CIRCLE
  5
3E3
  8
DETAIL
  6
CONTINUOUS
 62
     5
 10
280.0
 20
279.9999999999999
 30
0.0
 40
7.0
  0
CIRCLE
  5
3E4
  8
FIX
  6
CONTINUOUS
 62
    11
 39
50.0
 10
280.0
 20
-279.9999999999998
 30
0.0
 40
7.0
  0
CIRCLE
  5
3E5
  8
DETAIL
  6
CONTINUOUS
 62
     5
 10
280.0
 20
-279.9999999999998
 30
0.0
 40
7.0
  0
CIRCLE
  5
3E6
  8
FIX
  6
CONTINUOUS
 62
    11
 39
50.0
 10
-280.0000000000001
 20
-279.9999999999998
 30
0.0
 40
7.0
  0
CIRCLE
  5
3E7
  8
DETAIL
  6
CONTINUOUS
 62
     5
 10
-280.0000000000001
 20
-279.9999999999998
 30
0.0
 40
7.0
  0
LINE
  5
3E8
  8
OUTLINE
  6
CONTINUOUS
 62
     3
 10
-280.0000020000001
 20
310.000002
 30
0.0
 11
280.0000020000001
 21
310.000002
 31
0.0
  0
LINE
  5
3E9
  8
OUTLINE
  6
CONTINUOUS
 62
     3
 10
-280.0000020000001
 20
-310.0000019999998
 30
0.0
 11
280.0000020000001
 21
-310.0000019999998
 31
0.0
  0
LINE
  5
3EA
  8
OUTLINE
  6
CONTINUOUS
 62
     3
 10
-310.0000020000001
 20
280.000002
 30
0.0
 11
-310.0000020000001
 21
-280.0000019999998
 31
0.0
  0
ARC
  5
3EB
  8
OUTLINE
  6
CONTINUOUS
 62
     3
 10
-280.0000020000001
 20
-280.0000019999998
 30
0.0
 40
30.0
 50
180.0
 51
270.0
  0
ARC
  5
3EC
  8
OUTLINE
  6
CONTINUOUS
 62
     3
 10
-280.0000020000001
 20
280.000002
 30
0.0
 40
30.0
 50
90.0
 51
180.0
  0
LINE
  5
3ED
  8
OUTLINE
  6
CONTINUOUS
 62
     3
 10
310.0000019999999
 20
280.000002
 30
0.0
 11
310.0000019999999
 21
-280.0000019999998
 31
0.0
  0
ARC
  5
3EE
  8
OUTLINE
  6
CONTINUOUS
 62
     3
 10
280.0000020000001
 20
-280.0000019999998
 30
0.0
 40
30.0
 50
270.0
 51
0.0
  0
ARC
  5
3EF
  8
OUTLINE
  6
CONTINUOUS
 62
     3
 10
280.0000020000001
 20
280.000002
 30
0.0
 40
30.0
 50
0.0
 51
90.0
  0
LINE
  5
3F0
  8
SIZE
  6
CONTINUOUS
 62
    30
 10
255.0
 20
-20.0
 30
0.0
 11
255.0
 21
-545.368206
 31
0.0
  0
LINE
  5
3F1
  8
SIZE
  6
CONTINUOUS
 62
    30
 10
-255.0000000000001
 20
-20.0
 30
0.0
 11
-255.0000000000001
 21
-545.368206
 31
0.0
  0
LINE
  5
3F2
  8
SIZE
  6
CONTINUOUS
 62
    30
 10
242.9999999999999
 20
-525.368206
 30
0.0
 11
-243.0000000000001
 21
-525.368206
 31
0.0
  0
CIRCLE
  5
3F3
  8
SIZE
  6
CONTINUOUS
 62
    30
 10
255.0
 20
-525.368206
 30
0.0
 40
6.0
  0
LINE
  5
3F4
  8
SIZE
  6
CONTINUOUS
 62
    30
 10
255.0
 20
-525.368206
 30
0.0
 11
242.9999999999999
 21
-525.368206
 31
0.0
  0
CIRCLE
  5
3F5
  8
SIZE
  6
CONTINUOUS
 62
    30
 10
-255.0000000000001
 20
-525.368206
 30
0.0
 40
6.0
  0
LINE
  5
3F6
  8
SIZE
  6
CONTINUOUS
 62
    30
 10
-255.0000000000001
 20
-525.368206
 30
0.0
 11
-243.0000000000001
 21
-525.368206
 31
0.0
  0
TEXT
  5
3F7
  8
SIZE
  6
CONTINUOUS
 62
    30
 10
-106.9714285714286
 20
-500.368206
 30
0.0
 40
64.0
  1
φ510
 41
0.9
 72
     1
 11
0.0
 21
-500.368206
 31
0.0
  0
CIRCLE
  5
3F8
  8
DETAIL
  6
CONTINUOUS
 62
     5
 10
0.0
 20
0.0
 30
0.0
 40
255.0
  0
LINE
  5
3F9
  8
DETAIL
  6
CONTINUOUS
 62
     5
 10
-95.00000000000017
 20
58.42659599999996
 30
0.0
 11
-95.00000000000017
 21
-34.37872299999999
 31
0.0
  0
ARC
  5
3FA
  8
DETAIL
  6
CONTINUOUS
 62
     5
 10
-73.20088800000002
 20
128.317974
 30
0.0
 40
164.150591
 50
203.5293489999999
 51
276.2090799999999
  0
CIRCLE
  5
3FB
  8
DETAIL
  6
CONTINUOUS
 62
     5
 10
0.0
 20
0.0
 30
0.0
 40
65.5
  0
ARC
  5
3FC
  8
DETAIL
  6
CONTINUOUS
 62
     5
 10
0.0
 20
0.0
 30
0.0
 40
250.0
 50
291.2675029999999
 51
3.123984999999991
  0
ARC
  5
3FD
  8
DETAIL
  6
CONTINUOUS
 62
     5
 10
0.0
 20
0.0
 30
0.0
 40
250.0
 50
165.8158989999997
 51
229.1887499999999
  0
LINE
  5
3FE
  8
DETAIL
  6
CONTINUOUS
 62
     5
 10
175.967045
 20
-177.5826539999997
 30
0.0
 11
179.6277469999999
 21
-180.9941219999997
 31
0.0
  0
LINE
  5
3FF
  8
DETAIL
  6
CONTINUOUS
 62
     5
 10
172.3124719999998
 20
-181.1309249999997
 30
0.0
 11
175.976833
 21
-184.5458049999997
 31
0.0
  0
ARC
  5
400
  8
DETAIL
  6
CONTINUOUS
 62
     5
 10
-198.7520230000002
 20
28.81695299999999
 30
0.0
 40
223.9435049999999
 50
280.901931
 51
335.1342159999999
  0
LINE
  5
401
  8
DETAIL
  6
CONTINUOUS
 62
     5
 10
-174.9703799999998
 20
-178.5647399999998
 30
0.0
 11
-178.5059690000002
 21
-182.1005729999997
 31
0.0
  0
LINE
  5
402
  8
DETAIL
  6
CONTINUOUS
 62
     5
 10
-178.5698720000001
 20
-174.9651419999997
 30
0.0
 11
-182.1054630000002
 21
-178.5009809999997
 31
0.0
  0
LINE
  5
403
  8
DETAIL
  6
CONTINUOUS
 62
     5
 10
-171.7205750000002
 20
-188.5127159999997
 30
0.0
 11
-168.1812820000002
 21
-184.9731239999997
 31
0.0
  0
ARC
  5
404
  8
DETAIL
  6
CONTINUOUS
 62
     5
 10
-157.967683
 20
-182.9346909999997
 30
0.0
 40
8.3
 50
229.1887500000003
 51
280.901931
  0
ARC
  5
405
  8
DETAIL
  6
CONTINUOUS
 62
     5
 10
-44.75404699999996
 20
-164.8572969999997
 30
0.0
 40
137.756089
 50
335.4059049999999
 51
53.57272099999999
  0
ARC
  5
406
  8
DETAIL
  6
CONTINUOUS
 62
     5
 10
87.77890400000001
 20
-225.5190989999997
 30
0.0
 40
8.0
 50
155.4059049999999
 51
291.267503
  0
ARC
  5
407
  8
DETAIL
  6
CONTINUOUS
 62
     5
 10
-0.000001999999995
 20
172.0164499999999
 30
0.0
 40
267.01645
 50
267.4300479999997
 51
284.8166349999999
  0
ARC
  5
408
  8
DETAIL
  6
CONTINUOUS
 62
     5
 10
116.835849
 20
-164.6517029999999
 30
0.0
 40
225.377668
 50
55.001825
 51
95.559857
  0
LINE
  5
409
  8
DETAIL
  6
CONTINUOUS
 62
     5
 10
91.50067899999999
 20
105.821076
 30
0.0
 11
175.976833
 21
184.5458049999998
 31
0.0
  0
LINE
  5
40A
  8
DETAIL
  6
CONTINUOUS
 62
     5
 10
96.59117999999978
 20
103.610993
 30
0.0
 11
179.6277469999999
 21
180.9941219999998
 31
0.0
  0
ARC
  5
40B
  8
DETAIL
  6
CONTINUOUS
 62
     5
 10
110.032581
 20
195.7721289999998
 30
0.0
 40
246.7836189999999
 50
194.585816
 51
225.6219079999998
  0
ARC
  5
40C
  8
DETAIL
  6
CONTINUOUS
 62
     5
 10
0.0
 20
0.0
 30
0.0
 40
250.0
 50
59.750765
 51
123.1252229999999
  0
ARC
  5
40D
  8
DETAIL
  6
CONTINUOUS
 62
     5
 10
59.08366100000001
 20
204.3234809999999
 30
0.0
 40
199.457253
 50
180.4112350000001
 51
198.181927
  0
LINE
  5
40E
  8
DETAIL
  6
CONTINUOUS
 62
     5
 10
-128.7975830000002
 20
133.6246649999999
 30
0.0
 11
-179.6277470000001
 21
180.9941219999998
 31
0.0
  0
LINE
  5
40F
  8
DETAIL
  6
CONTINUOUS
 62
     5
 10
-130.4147949999999
 20
142.0857859999999
 30
0.0
 11
-175.976833
 21
184.5458049999998
 31
0.0
  0
ARC
  5
410
  8
DETAIL
  6
CONTINUOUS
 62
     5
 10
-232.780164
 20
58.83370999999998
 30
0.0
 40
9.9
 50
23.52934900000002
 51
165.8158989999997
  0
ARC
  5
411
  8
DETAIL
  6
CONTINUOUS
 62
     5
 10
-132.081967
 20
202.4184869999999
 30
0.0
 40
8.3
 50
123.1252229999998
 51
176.7301540000002
  0
ARC
  5
412
  8
DETAIL
  6
CONTINUOUS
 62
     5
 10
142.8767
 20
49.82090699999997
 30
0.0
 40
149.215794
 50
97.75039699999999
 51
174.0589579999999
  0
ARC
  5
413
  8
DETAIL
  6
CONTINUOUS
 62
     5
 10
-0.000001999999995
 20
-172.0164499999997
 30
0.0
 40
267.01645
 50
69.15853900000002
 51
89.85738799999999
  0
LINE
  5
414
  8
DETAIL
  6
CONTINUOUS
 62
     5
 10
95.0
 20
77.528705
 30
0.0
 11
95.0
 21
59.66568199999997
 31
0.0
  0
ARC
  5
415
  8
DETAIL
  6
CONTINUOUS
 62
     5
 10
152.0857919999998
 20
-74.12253000000001
 30
0.0
 40
145.4581499999999
 50
113.107349
 51
131.5757279999999
  0
LINE
  5
416
  8
DETAIL
  6
CONTINUOUS
 62
     5
 10
95.0
 20
77.528705
 30
0.0
 11
95.0
 21
99.95313199999995
 31
0.0
  0
LINE
  5
417
  8
DETAIL
  6
CONTINUOUS
 62
     5
 10
89.90949999999998
 20
79.407626
 30
0.0
 11
89.90949999999998
 21
102.163215
 31
0.0
  0
ARC
  5
418
  8
DETAIL
  6
CONTINUOUS
 62
     5
 10
100.0
 20
99.95313199999995
 30
0.0
 40
5.0
 50
132.981643
 51
180.0
  0
ARC
  5
419
  8
DETAIL
  6
CONTINUOUS
 62
     5
 10
94.90949999999992
 20
102.163215
 30
0.0
 40
5.0
 50
132.9816529999998
 51
180.0
  0
ARC
  5
41A
  8
DETAIL
  6
CONTINUOUS
 62
     5
 10
120.9533639999998
 20
207.4085189999999
 30
0.0
 40
9.9
 50
280.4781719999997
 51
59.75076500000004
  0
ARC
  5
41B
  8
DETAIL
  6
CONTINUOUS
 62
     5
 10
241.3408199999999
 20
13.171879
 30
0.0
 40
8.3
 50
3.123984999999991
 51
55.00182500000005
  0
LINE
  5
41C
  8
DETAIL
  6
CONTINUOUS
 62
     5
 10
-130.4147949999999
 20
142.0857859999999
 30
0.0
 11
-128.7975830000002
 21
133.6246649999999
 31
0.0
  0
LINE
  5
41D
  8
SIZE
  6
CONTINUOUS
 62
    30
 10
389.6780529999999
 20
-612.127533
 30
0.0
 11
140.69796
 21
-221.016027
 31
0.0
  0
LINE
  5
41E
  8
SIZE
  6
CONTINUOUS
 62
    30
 10
-140.69796
 20
221.016027
 30
0.0
 11
-147.1421410000002
 21
231.1388979999999
 31
0.0
  0
TEXT
  5
41F
  8
SIZE
  6
CONTINUOUS
 62
    30
 10
286.1338537999828
 20
-402.9209765974712
 30
0.0
 40
64.0
  1
φ500
 50
302.4806579999999
 41
0.9
 72
     1
 11
343.579101
 21
-493.159162
 31
0.0
  0
LINE
  5
420
  8
SIZE
  6
CONTINUOUS
 62
    30
 10
-134.253778
 20
210.8931549999998
 30
0.0
 11
134.253778
 21
-210.8931549999998
 31
0.0
  0
CIRCLE
  5
421
  8
SIZE
  6
CONTINUOUS
 62
    30
 10
-134.253778
 20
210.8931549999998
 30
0.0
 40
6.0
  0
LINE
  5
422
  8
SIZE
  6
CONTINUOUS
 62
    30
 10
-134.253778
 20
210.8931549999998
 30
0.0
 11
-140.697959
 21
221.0160259999999
 31
0.0
  0
CIRCLE
  5
423
  8
SIZE
  6
CONTINUOUS
 62
    30
 10
134.253778
 20
-210.8931549999998
 30
0.0
 40
6.0
  0
LINE
  5
424
  8
SIZE
  6
CONTINUOUS
 62
    30
 10
134.253778
 20
-210.8931549999998
 30
0.0
 11
140.6979589999998
 21
-221.0160259999997
 31
0.0
  0
TEXT
  5
425
  8
ETC
  6
CONTINUOUS
 62
    61
 10
757.7956296483103
 20
505.7327067649622
 30
0.0
 40
50.0
  1
EH-50CTB3
 41
0.9
  0
TEXT
  5
426
  8
ETC
  6
CONTINUOUS
 62
    61
 10
631.3561013141612
 20
683.9463290027859
 30
0.0
 40
64.0
  1
EH-50CTB3_3
 41
0.9
  0
TEXT
  5
427
  8
ETC
  6
CONTINUOUS
 62
    61
 10
628.1481743141612
 20
583.9460480027861
 30
0.0
 40
64.0
  1
産業扇
 41
0.9
  0
TEXT
  5
428
  8
ETC
  6
CONTINUOUS
 62
    61
 10
628.1481743141612
 20
583.9460480027861
 30
0.0
 40
64.0
  1
産業扇
 41
0.9
  0
ARC
  5
429
  8
DETAIL
  6
CONTINUOUS
 62
     5
 10
-11028.7680682908
 20
-7.865923068513752
 30
0.0
 40
11314.76082806235
 50
359.5339614328704
 51
0.6097711210634403
  0
ARC
  5
42A
  8
DETAIL
  6
CONTINUOUS
 62
     5
 10
10212.87366839428
 20
0.6277051922244503
 30
0.0
 40
10498.18114139521
 50
179.389155464538
 51
180.5510292322164
  0
ARC
  5
42B
  8
DETAIL
  6
CONTINUOUS
 62
     5
 10
-139.6794309999999
 20
-279.1402764999999
 30
0.0
 40
8.144824
 50
30.00001100000336
 51
150.0003700000015
  0
ARC
  5
42C
  8
DETAIL
  6
CONTINUOUS
 62
     5
 10
-265.6883470000002
 20
-241.6699894999997
 30
0.0
 40
17.52155499999998
 50
181.0617750000013
 51
255.4454309999968
  0
ARC
  5
42D
  8
DETAIL
  6
CONTINUOUS
 62
     5
 10
-242.0172350000002
 20
-265.3487274999997
 30
0.0
 40
17.52155499999998
 50
194.5512349999993
 51
268.942759
  0
ARC
  5
42E
  8
DETAIL
  6
CONTINUOUS
 62
     5
 10
-277.923324
 20
-277.5709684999998
 30
0.0
 40
20.496956
 50
22.42794999999745
 51
67.53651100000481
  0
ARC
  5
42F
  8
DETAIL
  6
CONTINUOUS
 62
     5
 10
182.5449149999998
 20
39948.4871295
 30
0.0
 40
40233.6
 50
269.394919
 51
269.5171260000066
  0
LINE
  5
430
  8
DETAIL
  6
CONTINUOUS
 62
     5
 10
-146.7331060000002
 20
-275.0679024999998
 30
0.0
 11
-149.3557410000003
 21
-279.6104684999999
 31
0.0
  0
ARC
  5
431
  8
DETAIL
  6
CONTINUOUS
 62
     5
 10
-156.4094319999998
 20
-275.5380894999998
 30
0.0
 40
8.144824
 50
269.1575550000057
 51
330.0003509999988
  0
ARC
  5
432
  8
DETAIL
  6
CONTINUOUS
 62
     5
 10
39948.15056899998
 20
182.8907744999999
 30
0.0
 40
40233.6
 50
180.4828739999996
 51
180.6050809999997
  0
ARC
  5
433
  8
DETAIL
  6
CONTINUOUS
 62
     5
 10
12838.190569
 20
27.99518250000002
 30
0.0
 40
13123.64
 50
180.5602770000014
 51
180.6078689999986
  0
LINE
  5
434
  8
DETAIL
  6
CONTINUOUS
 62
     5
 10
-284.4496030000002
 20
-122.4430144999999
 30
0.0
 11
-284.711957
 21
-111.2350334999999
 31
0.0
  0
ARC
  5
435
  8
DETAIL
  6
CONTINUOUS
 62
     5
 10
-275.8776830000002
 20
-156.0635724999997
 30
0.0
 40
8.144824
 50
119.9996490000011
 51
180.8424450000011
  0
ARC
  5
436
  8
DETAIL
  6
CONTINUOUS
 62
     5
 10
-276.305232
 20
-122.3570484999999
 30
0.0
 40
8.144824
 50
180.6047540000013
 51
239.9995879999928
  0
ARC
  5
437
  8
DETAIL
  6
CONTINUOUS
 62
     5
 10
-279.4798700000005
 20
-139.3335714999998
 30
0.0
 40
8.144824
 50
299.9996300000029
 51
59.99998899999828
  0
LINE
  5
438
  8
DETAIL
  6
CONTINUOUS
 62
     5
 10
-275.4074960000002
 20
-146.3872464999999
 30
0.0
 11
-279.9500620000001
 21
-149.0098814999998
 31
0.0
  0
LINE
  5
439
  8
DETAIL
  6
CONTINUOUS
 62
     5
 10
-275.407491
 20
-132.2800024999999
 30
0.0
 11
-280.3775670000001
 21
-129.4104554999997
 31
0.0
  0
ARC
  5
43A
  8
DETAIL
  6
CONTINUOUS
 62
     5
 10
266.3294849999999
 20
-241.6699894999997
 30
0.0
 40
17.52155499999998
 50
284.5545690000028
 51
358.9382249999987
  0
ARC
  5
43B
  8
DETAIL
  6
CONTINUOUS
 62
     5
 10
-5.273563973398609
 20
9673.47913913917
 30
0.0
 40
9958.420871983915
 50
269.3883490598199
 51
270.7405167053212
  0
ARC
  5
43C
  8
DETAIL
  6
CONTINUOUS
 62
     5
 10
-122.7029079999999
 20
-275.9656384999997
 30
0.0
 40
8.144824
 50
210.0004120000027
 51
269.3952459999952
  0
LINE
  5
43D
  8
DETAIL
  6
CONTINUOUS
 62
     5
 10
-132.6258620000002
 20
-275.0678975
 30
0.0
 11
-129.7563150000003
 21
-280.0379734999999
 31
0.0
  0
LINE
  5
43E
  8
DETAIL
  6
CONTINUOUS
 62
     5
 10
-122.7888740000002
 20
-284.1100094999998
 30
0.0
 11
-111.5808930000002
 21
-284.3723634999997
 31
0.0
  0
ARC
  5
43F
  8
DETAIL
  6
CONTINUOUS
 62
     5
 10
-181.9037770000002
 20
39948.4871295
 30
0.0
 40
40233.6
 50
270.4828739999931
 51
270.5980189999924
  0
ARC
  5
440
  8
DETAIL
  6
CONTINUOUS
 62
     5
 10
157.05057
 20
-275.5380894999998
 30
0.0
 40
8.144824
 50
209.9996490000006
 51
270.8424449999943
  0
LINE
  5
441
  8
DETAIL
  6
CONTINUOUS
 62
     5
 10
147.374244
 20
-275.0679024999998
 30
0.0
 11
149.996879
 21
-279.6104684999999
 31
0.0
  0
ARC
  5
442
  8
DETAIL
  6
CONTINUOUS
 62
     5
 10
140.320569
 20
-279.1402764999999
 30
0.0
 40
8.144824
 50
29.99962999999829
 51
149.9999889999965
  0
LINE
  5
443
  8
DETAIL
  6
CONTINUOUS
 62
     5
 10
133.267
 20
-275.0678975
 30
0.0
 11
130.397453
 21
-280.0379734999999
 31
0.0
  0
ARC
  5
444
  8
DETAIL
  6
CONTINUOUS
 62
     5
 10
123.344046
 20
-275.9656384999997
 30
0.0
 40
8.144824
 50
270.604754000004
 51
329.9995879999973
  0
ARC
  5
445
  8
DETAIL
  6
CONTINUOUS
 62
     5
 10
-27.00818500000031
 20
12838.52712949999
 30
0.0
 40
13123.64
 50
270.5602740000033
 51
270.6078690000019
  0
LINE
  5
446
  8
DETAIL
  6
CONTINUOUS
 62
     5
 10
123.430012
 20
-284.1100094999998
 30
0.0
 11
112.222031
 21
-284.3723634999997
 31
0.0
  0
ARC
  5
447
  8
DETAIL
  6
CONTINUOUS
 62
     5
 10
278.5644619999999
 20
-277.5709684999998
 30
0.0
 40
20.496956
 50
112.4634889999951
 51
157.5720500000024
  0
ARC
  5
448
  8
DETAIL
  6
CONTINUOUS
 62
     5
 10
241.8348690657905
 20
-264.8823225167363
 30
0.0
 40
18.43744771147296
 50
258.0676257381046
 51
344.6888081728101
  0
ARC
  5
449
  8
DETAIL
  6
CONTINUOUS
 62
     5
 10
-39947.50943099999
 20
182.8907744999999
 30
0.0
 40
40233.6
 50
359.3949190000003
 51
359.5171260000003
  0
LINE
  5
44A
  8
DETAIL
  6
CONTINUOUS
 62
     5
 10
276.0486289999999
 20
-132.2800024999999
 30
0.0
 11
281.0187049999998
 21
-129.4104554999997
 31
0.0
  0
LINE
  5
44B
  8
DETAIL
  6
CONTINUOUS
 62
     5
 10
276.0486339999999
 20
-146.3872464999999
 30
0.0
 11
280.5911999999998
 21
-149.0098814999998
 31
0.0
  0
ARC
  5
44C
  8
DETAIL
  6
CONTINUOUS
 62
     5
 10
280.1210080000001
 20
-139.3335714999998
 30
0.0
 40
8.144824
 50
120.0000110000017
 51
240.0003699999974
  0
ARC
  5
44D
  8
DETAIL
  6
CONTINUOUS
 62
     5
 10
276.94637
 20
-122.3570484999999
 30
0.0
 40
8.144824
 50
300.0004120000068
 51
359.3952459999987
  0
ARC
  5
44E
  8
DETAIL
  6
CONTINUOUS
 62
     5
 10
276.518821
 20
-156.0635724999997
 30
0.0
 40
8.144824
 50
359.1575549999989
 51
60.00035099999895
  0
LINE
  5
44F
  8
DETAIL
  6
CONTINUOUS
 62
     5
 10
285.0907409999999
 20
-122.4430144999999
 30
0.0
 11
285.6184669999999
 21
-99.89812549999974
 31
0.0
  0
ARC
  5
450
  8
DETAIL
  6
CONTINUOUS
 62
     5
 10
-139.6794309999999
 20
280.4545354999998
 30
0.0
 40
8.144824
 50
209.9996299999978
 51
329.9999889999963
  0
ARC
  5
451
  8
DETAIL
  6
CONTINUOUS
 62
     5
 10
-265.6883470000002
 20
242.9842484999998
 30
0.0
 40
17.52155499999998
 50
104.5545690000028
 51
178.9382249999987
  0
ARC
  5
452
  8
DETAIL
  6
CONTINUOUS
 62
     5
 10
39948.15056899998
 20
-181.5765154999998
 30
0.0
 40
40233.6
 50
179.3949190000003
 51
179.5171260000004
  0
LINE
  5
453
  8
DETAIL
  6
CONTINUOUS
 62
     5
 10
-275.407491
 20
133.5942615
 30
0.0
 11
-280.3775670000001
 21
130.7247144999999
 31
0.0
  0
LINE
  5
454
  8
DETAIL
  6
CONTINUOUS
 62
     5
 10
-275.4074960000002
 20
147.7015055000001
 30
0.0
 11
-279.9500620000001
 21
150.3241405
 31
0.0
  0
ARC
  5
455
  8
DETAIL
  6
CONTINUOUS
 62
     5
 10
-279.4798700000005
 20
140.6478305
 30
0.0
 40
8.144824
 50
300.0000110000017
 51
60.00036999999705
  0
ARC
  5
456
  8
DETAIL
  6
CONTINUOUS
 62
     5
 10
-276.305232
 20
123.6713074999999
 30
0.0
 40
8.144824
 50
120.0004120000065
 51
179.3952459999987
  0
ARC
  5
457
  8
DETAIL
  6
CONTINUOUS
 62
     5
 10
-275.8776830000002
 20
157.3778315
 30
0.0
 40
8.144824
 50
179.1575549999989
 51
240.0003509999989
  0
LINE
  5
458
  8
DETAIL
  6
CONTINUOUS
 62
     5
 10
-284.4496030000002
 20
123.7572735
 30
0.0
 11
-284.711957
 21
112.5492924999999
 31
0.0
  0
ARC
  5
459
  8
DETAIL
  6
CONTINUOUS
 62
     5
 10
-242.0172350000002
 20
266.6629864999998
 30
0.0
 40
17.52155499999998
 50
91.05724100000005
 51
165.4487650000004
  0
ARC
  5
45A
  8
DETAIL
  6
CONTINUOUS
 62
     5
 10
-277.923324
 20
278.8852275
 30
0.0
 40
20.496956
 50
292.4634889999949
 51
337.5720500000023
  0
ARC
  5
45B
  8
DETAIL
  6
CONTINUOUS
 62
     5
 10
182.5449149999998
 20
-39947.1728705
 30
0.0
 40
40233.6
 50
90.4828739999934
 51
90.60508099999986
  0
ARC
  5
45C
  8
DETAIL
  6
CONTINUOUS
 62
     5
 10
-156.4094319999998
 20
276.8523484999999
 30
0.0
 40
8.144824
 50
29.99964900000117
 51
90.84244499999431
  0
LINE
  5
45D
  8
DETAIL
  6
CONTINUOUS
 62
     5
 10
-146.7331060000002
 20
276.3821615000001
 30
0.0
 11
-149.3557410000003
 21
280.9247274999998
 31
0.0
  0
ARC
  5
45E
  8
DETAIL
  6
CONTINUOUS
 62
     5
 10
-5.27356397339048
 20
-9672.164880134274
 30
0.0
 40
9958.420871979019
 50
89.25948329467874
 51
90.61165094018013
  0
LINE
  5
45F
  8
DETAIL
  6
CONTINUOUS
 62
     5
 10
-132.6258620000002
 20
276.3821564999999
 30
0.0
 11
-129.7563150000003
 21
281.3522324999998
 31
0.0
  0
ARC
  5
460
  8
DETAIL
  6
CONTINUOUS
 62
     5
 10
-122.7029079999999
 20
277.2798974999999
 30
0.0
 40
8.144824
 50
90.60475400000404
 51
149.999587999997
  0
LINE
  5
461
  8
DETAIL
  6
CONTINUOUS
 62
     5
 10
-122.7888740000002
 20
285.4242685
 30
0.0
 11
-111.5808930000002
 21
285.6866224999999
 31
0.0
  0
ARC
  5
462
  8
DETAIL
  6
CONTINUOUS
 62
     5
 10
266.3294849999999
 20
242.9842484999998
 30
0.0
 40
17.52155499999998
 50
1.061775000001337
 51
75.445430999997
  0
ARC
  5
463
  8
DETAIL
  6
CONTINUOUS
 62
     5
 10
-39947.50943099999
 20
-181.5765154999998
 30
0.0
 40
40233.6
 50
0.4828739999996682
 51
0.6050809999997143
  0
LINE
  5
464
  8
DETAIL
  6
CONTINUOUS
 62
     5
 10
285.0907409999999
 20
123.7572735
 30
0.0
 11
285.3530949999998
 21
112.5492924999999
 31
0.0
  0
ARC
  5
465
  8
DETAIL
  6
CONTINUOUS
 62
     5
 10
276.518821
 20
157.3778315
 30
0.0
 40
8.144824
 50
299.999649000001
 51
0.8424450000011618
  0
ARC
  5
466
  8
DETAIL
  6
CONTINUOUS
 62
     5
 10
276.94637
 20
123.6713074999999
 30
0.0
 40
8.144824
 50
0.6047540000013186
 51
59.9995879999931
  0
ARC
  5
467
  8
DETAIL
  6
CONTINUOUS
 62
     5
 10
280.1210080000001
 20
140.6478305
 30
0.0
 40
8.144824
 50
119.9996300000022
 51
239.9999889999982
  0
LINE
  5
468
  8
DETAIL
  6
CONTINUOUS
 62
     5
 10
276.0486339999999
 20
147.7015055000001
 30
0.0
 11
280.5911999999998
 21
150.3241405
 31
0.0
  0
LINE
  5
469
  8
DETAIL
  6
CONTINUOUS
 62
     5
 10
276.0486289999999
 20
133.5942615
 30
0.0
 11
281.0187049999998
 21
130.7247144999999
 31
0.0
  0
ARC
  5
46A
  8
DETAIL
  6
CONTINUOUS
 62
     5
 10
-181.9037770000002
 20
-39947.1728705
 30
0.0
 40
40233.6
 50
89.39491900000014
 51
89.51712599999355
  0
ARC
  5
46B
  8
DETAIL
  6
CONTINUOUS
 62
     5
 10
157.05057
 20
276.8523484999999
 30
0.0
 40
8.144824
 50
89.1575550000057
 51
150.0003509999991
  0
ARC
  5
46C
  8
DETAIL
  6
CONTINUOUS
 62
     5
 10
123.344046
 20
277.2798974999999
 30
0.0
 40
8.144824
 50
30.00041200000268
 51
89.39524599999595
  0
LINE
  5
46D
  8
DETAIL
  6
CONTINUOUS
 62
     5
 10
133.267
 20
276.3821564999999
 30
0.0
 11
130.397453
 21
281.3522324999998
 31
0.0
  0
ARC
  5
46E
  8
DETAIL
  6
CONTINUOUS
 62
     5
 10
140.320569
 20
280.4545354999998
 30
0.0
 40
8.144824
 50
210.0000110000032
 51
330.0003700000016
  0
LINE
  5
46F
  8
DETAIL
  6
CONTINUOUS
 62
     5
 10
147.374244
 20
276.3821615000001
 30
0.0
 11
149.996879
 21
280.9247274999998
 31
0.0
  0
ARC
  5
470
  8
DETAIL
  6
CONTINUOUS
 62
     5
 10
-27.00818500000031
 20
-12837.2128705
 30
0.0
 40
13123.64
 50
89.39213099999779
 51
89.43972599999653
  0
LINE
  5
471
  8
DETAIL
  6
CONTINUOUS
 62
     5
 10
123.430012
 20
285.4242685
 30
0.0
 11
112.222031
 21
285.6866224999999
 31
0.0
  0
ARC
  5
472
  8
DETAIL
  6
CONTINUOUS
 62
     5
 10
278.5644619999999
 20
278.8852275
 30
0.0
 40
20.496956
 50
202.4279499999971
 51
247.5365110000046
  0
ARC
  5
473
  8
DETAIL
  6
CONTINUOUS
 62
     5
 10
242.6583729999999
 20
266.6629864999998
 30
0.0
 40
17.52155499999998
 50
14.55123499999945
 51
88.94275899999994
  0
ARC
  5
475
  8
SIZE
  6
CONTINUOUS
 62
    30
 39
50.0
 10
-106.3968361790665
 20
171.6466212475609
 30
0.0
 40
48.12795103167379
 50
118.2193262061364
 51
132.5144576195446
  0
ARC
  5
476
  8
SIZE
  6
CONTINUOUS
 62
    30
 39
50.0
 10
0.0000000000437126
 20
-0.0000000000690203
 30
0.0
 40
249.9999999999183
 50
301.1055431863462
 51
303.8558066149266
  0
ENDSEC
  0
EOF
