  0
SECTION
  2
HEADER
  9
$ACADVER
  1
AC1009
  9
$DWGCODEPAGE
  3
ansi_932
  9
$INSBASE
 10
0.0
 20
0.0
 30
0.0
  9
$EXTMIN
 10
-350.7189092781185
 20
-666.5787464848254
 30
0.0
  9
$EXTMAX
 10
1677.212255987088
 20
718.5812154518921
 30
50.0
  9
$LIMMIN
 10
-2970.0
 20
-2100.0
  9
$LIMMAX
 10
2970.0
 20
2100.0
  9
$ORTHOMODE
 70
     1
  9
$REGENMODE
 70
     0
  9
$FILLMODE
 70
     1
  9
$QTEXTMODE
 70
     0
  9
$MIRRTEXT
 70
     0
  9
$DRAGMODE
 70
     2
  9
$LTSCALE
 40
20.0
  9
$OSMODE
 70
    37
  9
$ATTMODE
 70
     1
  9
$TEXTSIZE
 40
64.0
  9
$TRACEWID
 40
0.05
  9
$TEXTSTYLE
  7
STANDARD
  9
$CLAYER
  8
SIZE
  9
$CELTYPE
  6
CONTINUOUS
  9
$CECOLOR
 62
     8
  9
$DIMSCALE
 40
1.0
  9
$DIMASZ
 40
12.0
  9
$DIMEXO
 40
20.0
  9
$DIMDLI
 40
200.0
  9
$DIMRND
 40
0.0
  9
$DIMDLE
 40
0.0
  9
$DIMEXE
 40
20.0
  9
$DIMTP
 40
0.0
  9
$DIMTM
 40
0.0
  9
$DIMTXT
 40
64.0
  9
$DIMCEN
 40
0.09
  9
$DIMTSZ
 40
0.0
  9
$DIMTOL
 70
     0
  9
$DIMLIM
 70
     0
  9
$DIMTIH
 70
     0
  9
$DIMTOH
 70
     0
  9
$DIMSE1
 70
     0
  9
$DIMSE2
 70
     0
  9
$DIMTAD
 70
     1
  9
$DIMZIN
 70
     8
  9
$DIMBLK
  1
DOT1
  9
$DIMASO
 70
     1
  9
$DIMSHO
 70
     0
  9
$DIMPOST
  1

  9
$DIMAPOST
  1

  9
$DIMALT
 70
     0
  9
$DIMALTD
 70
     2
  9
$DIMALTF
 40
25.4
  9
$DIMLFAC
 40
1.0
  9
$DIMTOFL
 70
     1
  9
$DIMTVP
 40
0.0
  9
$DIMTIX
 70
     1
  9
$DIMSOXD
 70
     0
  9
$DIMSAH
 70
     1
  9
$DIMBLK1
  1
ORIGIN
  9
$DIMBLK2
  1
ORIGIN
  9
$DIMSTYLE
  2
STANDARD
  9
$DIMCLRD
 70
     0
  9
$DIMCLRE
 70
     0
  9
$DIMCLRT
 70
     0
  9
$DIMTFAC
 40
1.0
  9
$DIMGAP
 40
0.09
  9
$LUNITS
 70
     2
  9
$LUPREC
 70
     4
  9
$SKETCHINC
 40
0.1
  9
$FILLETRAD
 40
10.0
  9
$AUNITS
 70
     1
  9
$AUPREC
 70
     3
  9
$MENU
  1
ACAD
  9
$ELEVATION
 40
0.0
  9
$PELEVATION
 40
0.0
  9
$THICKNESS
 40
50.0
  9
$LIMCHECK
 70
     0
  9
$CHAMFERA
 40
0.0
  9
$CHAMFERB
 40
0.0
  9
$SKPOLY
 70
     0
  9
$TDCREATE
 40
2452310.657101389
  9
$TDUPDATE
 40
2457485.5562911
  9
$TDINDWG
 40
0.137764213
  9
$TDUSRTIMER
 40
0.1377636806
  9
$USRTIMER
 70
     1
  9
$ANGBASE
 50
0.0
  9
$ANGDIR
 70
     0
  9
$PDMODE
 70
     3
  9
$PDSIZE
 40
-2.0
  9
$PLINEWID
 40
0.0
  9
$COORDS
 70
     1
  9
$SPLFRAME
 70
     0
  9
$SPLINETYPE
 70
     6
  9
$SPLINESEGS
 70
     8
  9
$ATTDIA
 70
     0
  9
$ATTREQ
 70
     1
  9
$HANDLING
 70
     1
  9
$HANDSEED
  5
90E
  9
$SURFTAB1
 70
     6
  9
$SURFTAB2
 70
     6
  9
$SURFTYPE
 70
     6
  9
$SURFU
 70
     6
  9
$SURFV
 70
     6
  9
$UCSNAME
  2

  9
$UCSORG
 10
0.0
 20
0.0
 30
0.0
  9
$UCSXDIR
 10
1.0
 20
0.0
 30
0.0
  9
$UCSYDIR
 10
0.0
 20
1.0
 30
0.0
  9
$PUCSNAME
  2

  9
$PUCSORG
 10
0.0
 20
0.0
 30
0.0
  9
$PUCSXDIR
 10
1.0
 20
0.0
 30
0.0
  9
$PUCSYDIR
 10
0.0
 20
1.0
 30
0.0
  9
$USERI1
 70
     0
  9
$USERI2
 70
     0
  9
$USERI3
 70
     0
  9
$USERI4
 70
     0
  9
$USERI5
 70
     0
  9
$USERR1
 40
20.0
  9
$USERR2
 40
0.0
  9
$USERR3
 40
0.0
  9
$USERR4
 40
0.0
  9
$USERR5
 40
0.0
  9
$WORLDVIEW
 70
     1
  9
$SHADEDGE
 70
     3
  9
$SHADEDIF
 70
    70
  9
$TILEMODE
 70
     1
  9
$MAXACTVP
 70
    64
  9
$PLIMCHECK
 70
     0
  9
$PEXTMIN
 10
1.000000000000000E+20
 20
1.000000000000000E+20
 30
1.000000000000000E+20
  9
$PEXTMAX
 10
-1.000000000000000E+20
 20
-1.000000000000000E+20
 30
-1.000000000000000E+20
  9
$PLIMMIN
 10
0.0
 20
0.0
  9
$PLIMMAX
 10
12.0
 20
9.0
  9
$UNITMODE
 70
     0
  9
$VISRETAIN
 70
     1
  9
$PLINEGEN
 70
     0
  9
$PSLTSCALE
 70
     1
  0
ENDSEC
  0
SECTION
  2
TABLES
  0
TABLE
  2
VPORT
 70
     1
  0
VPORT
  2
*ACTIVE
 70
     0
 10
0.0
 20
0.0
 11
1.0
 21
1.0
 12
655.4269565668183
 22
25.2168092850768
 13
0.0
 23
0.0
 14
1.0
 24
1.0
 15
0.0
 25
0.0
 16
0.0
 26
0.0
 36
1.0
 17
0.0
 27
0.0
 37
0.0
 40
1701.470582648811
 41
1.493654822335025
 42
50.0
 43
0.0
 44
0.0
 50
0.0
 51
0.0
 71
     0
 72
   100
 73
     1
 74
     0
 75
     0
 76
     0
 77
     0
 78
     0
  0
ENDTAB
  0
TABLE
  2
LTYPE
 70
     2
  0
LTYPE
  2
CONTINUOUS
 70
     0
  3
実線
 72
    65
 73
     0
 40
0.0
  0
LTYPE
  2
DASHDOT
 70
     0
  3
____ _ ____ _ ____ _ ____ _ ____ _ ____ _ ____
 72
    65
 73
     4
 40
5.5
 49
4.0
 49
-0.6
 49
0.3
 49
-0.6
  0
ENDTAB
  0
TABLE
  2
LAYER
 70
    12
  0
LAYER
  2
0
 70
     0
 62
     7
  6
CONTINUOUS
  0
LAYER
  2
SIZE
 70
     0
 62
    30
  6
CONTINUOUS
  0
LAYER
  2
BASIS
 70
     0
 62
     6
  6
DASHDOT
  0
LAYER
  2
OUTLINE
 70
     0
 62
     3
  6
CONTINUOUS
  0
LAYER
  2
DETAIL
 70
     0
 62
     5
  6
CONTINUOUS
  0
LAYER
  2
ARRANGE
 70
     0
 62
     1
  6
CONTINUOUS
  0
LAYER
  2
DEFPOINTS
 70
     0
 62
     7
  6
CONTINUOUS
  0
LAYER
  2
ETC
 70
     0
 62
    61
  6
CONTINUOUS
  0
LAYER
  2
FIX
 70
     0
 62
    11
  6
CONTINUOUS
  0
LAYER
  2
NOTE
 70
     0
 62
     4
  6
CONTINUOUS
  0
LAYER
  2
SERVICESPACE
 70
     0
 62
     2
  6
DASHDOT
  0
LAYER
  2
SYMBOLLINE
 70
     0
 62
    15
  6
CONTINUOUS
  0
ENDTAB
  0
TABLE
  2
STYLE
 70
     1
  0
STYLE
  2
STANDARD
 70
     0
 40
64.0
 41
0.9
 50
0.0
 71
     0
 42
64.0
  3
SIMPLEX.shx
  4
BIGFONT.shx
  0
ENDTAB
  0
TABLE
  2
VIEW
 70
     1
  0
VIEW
  2
ALL
 70
     0
 40
4282.619807999997
 10
0.0
 20
41.30990399999999
 41
5940.0
 11
0.0
 21
0.0
 31
1.0
 12
0.0
 22
0.0
 32
0.0
 42
50.0
 43
0.0
 44
0.0
 50
0.0
 71
     0
  0
ENDTAB
  0
TABLE
  2
UCS
 70
     0
  0
ENDTAB
  0
TABLE
  2
APPID
 70
     1
  0
APPID
  2
ACAD
 70
     0
  0
ENDTAB
  0
TABLE
  2
DIMSTYLE
 70
     1
  0
DIMSTYLE
  2
STANDARD
 70
     0
  3

  4

  5

  6

  7

 40
1.0
 41
0.18
 42
0.0625
 43
0.38
 44
0.18
 45
0.0
 46
0.0
 47
0.0
 48
0.0
140
0.18
141
0.09
142
0.0
143
25.4
144
1.0
145
0.0
146
1.0
147
0.09
 71
     0
 72
     0
 73
     1
 74
     1
 75
     0
 76
     0
 77
     0
 78
     0
170
     0
171
     2
172
     0
173
     0
174
     0
175
     0
176
     0
177
     0
178
     0
  0
ENDTAB
  0
ENDSEC
  0
SECTION
  2
BLOCKS
  0
BLOCK
  8
0
  2
$MODEL_SPACE
 70
     0
 10
0.0
 20
0.0
 30
0.0
  3
$MODEL_SPACE
  1

  0
ENDBLK
  5
68F
  8
0
  0
BLOCK
 67
     1
  8
0
  2
$PAPER_SPACE
 70
     0
 10
0.0
 20
0.0
 30
0.0
  3
$PAPER_SPACE
  1

  0
ENDBLK
  5
68B
 67
     1
  8
0
  0
BLOCK
  8
0
  2
DOT1
 70
     0
 10
0.0
 20
0.0
 30
0.0
  3
DOT1
  1

  0
CIRCLE
  5
6AA
  8
SIZE
  6
CONTINUOUS
 62
     7
 10
0.0
 20
0.0
 30
0.0
 40
3.0
  0
ENDBLK
  5
6AB
  8
0
  0
BLOCK
  8
0
  2
_ORIGIN
 70
     0
 10
0.0
 20
0.0
 30
0.0
  3
_ORIGIN
  1

  0
CIRCLE
  5
6AE
  8
0
  6
CONTINUOUS
 62
     7
 10
0.0
 20
0.0
 30
0.0
 40
0.5
  0
LINE
  5
6AF
  8
0
  6
CONTINUOUS
 62
     7
 10
0.0
 20
0.0
 30
0.0
 11
-1.0
 21
0.0
 31
0.0
  0
ENDBLK
  5
6B0
  8
0
  0
ENDSEC
  0
SECTION
  2
ENTITIES
  0
LINE
  5
6B1
  8
BASIS
  6
DASHDOT
 62
     6
 10
0.0
 20
390.4472849999999
 30
0.0
 11
0.0
 21
-391.7615439999997
 31
0.0
  0
LINE
  5
6B2
  8
BASIS
  6
DASHDOT
 62
     6
 10
-399.2959159999995
 20
0.0
 30
0.0
 11
399.9370540000003
 21
0.0
 31
0.0
  0
LINE
  5
6B3
  8
DETAIL
  6
CONTINUOUS
 62
     5
 10
355.0000000000001
 20
324.9999999999998
 30
0.0
 11
355.0000000000001
 21
-324.9999999999998
 31
0.0
  0
LINE
  5
6B4
  8
DETAIL
  6
CONTINUOUS
 62
     5
 10
-354.9999999999997
 20
324.9999999999998
 30
0.0
 11
-354.9999999999997
 21
-324.9999999999998
 31
0.0
  0
LINE
  5
6B5
  8
DETAIL
  6
CONTINUOUS
 62
     5
 10
-324.9999999999997
 20
354.9999999999999
 30
0.0
 11
325.0000000000001
 21
354.9999999999999
 31
0.0
  0
LINE
  5
6B6
  8
DETAIL
  6
CONTINUOUS
 62
     5
 10
-324.9999999999997
 20
-355.0
 30
0.0
 11
325.0000000000001
 21
-355.0
 31
0.0
  0
LINE
  5
6B7
  8
NOTE
  6
CONTINUOUS
 62
     4
 10
-324.9999999999997
 20
304.9999999999998
 30
0.0
 11
-324.9999999999997
 21
344.9999999999998
 31
0.0
  0
LINE
  5
6B8
  8
NOTE
  6
CONTINUOUS
 62
     4
 10
-344.9999999999997
 20
324.9999999999998
 30
0.0
 11
-304.9999999999999
 21
324.9999999999998
 31
0.0
  0
LINE
  5
6B9
  8
NOTE
  6
CONTINUOUS
 62
     4
 10
277.0000000000002
 20
-307.9999999999998
 30
0.0
 11
277.0000000000002
 21
-267.9999999999999
 31
0.0
  0
LINE
  5
6BA
  8
NOTE
  6
CONTINUOUS
 62
     4
 10
256.9999999999998
 20
-287.9999999999998
 30
0.0
 11
297.0000000000001
 21
-287.9999999999998
 31
0.0
  0
TEXT
  5
6BB
  8
NOTE
  6
CONTINUOUS
 62
     4
 10
-720.7617119999998
 20
489.0883669999999
 30
0.0
 40
64.0
  1
4-φ14
 41
0.9
  0
LINE
  5
6BC
  8
NOTE
  6
CONTINUOUS
 62
     4
 10
-749.0653209999997
 20
463.9888179999999
 30
0.0
 11
-431.9558459999996
 21
463.9888179999999
 31
0.0
  0
LINE
  5
6BD
  8
NOTE
  6
CONTINUOUS
 62
     4
 10
-324.9999999999997
 20
324.9999999999998
 30
0.0
 11
-431.9558459999996
 21
463.9888179999999
 31
0.0
  0
LINE
  5
6BE
  8
NOTE
  6
CONTINUOUS
 62
     4
 10
-356.9591449999996
 20
349.0543769999999
 30
0.0
 11
-324.9999999999997
 21
324.9999999999998
 31
0.0
  0
LINE
  5
6BF
  8
NOTE
  6
CONTINUOUS
 62
     4
 10
-324.9999999999997
 20
324.9999999999998
 30
0.0
 11
-340.6502419999997
 21
361.8112739999998
 31
0.0
  0
LINE
  5
6C0
  8
NOTE
  6
CONTINUOUS
 62
     4
 10
277.0000000000002
 20
-287.9999999999998
 30
0.0
 11
397.9103630000002
 21
-498.8713979999999
 31
0.0
  0
LINE
  5
6C1
  8
NOTE
  6
CONTINUOUS
 62
     4
 10
397.9103630000002
 20
-498.8713979999999
 30
0.0
 11
519.1890970000002
 21
-498.8713979999999
 31
0.0
  0
TEXT
  5
6C2
  8
NOTE
  6
CONTINUOUS
 62
     4
 10
419.2511210000001
 20
-468.1258139999999
 30
0.0
 40
64.0
  1
EL
 41
0.9
  0
LINE
  5
6C3
  8
NOTE
  6
CONTINUOUS
 62
     4
 10
304.6092400000001
 20
-316.9435629999998
 30
0.0
 11
277.0000000000002
 21
-287.9999999999998
 31
0.0
  0
LINE
  5
6C4
  8
NOTE
  6
CONTINUOUS
 62
     4
 10
277.0000000000002
 20
-287.9999999999998
 30
0.0
 11
286.4385210000004
 21
-326.8704809999998
 31
0.0
  0
POINT
  5
6C5
  8
ARRANGE
  6
CONTINUOUS
 62
     1
 10
0.0
 20
0.0
 30
0.0
  0
CIRCLE
  5
6C6
  8
ARRANGE
  6
CONTINUOUS
 62
     1
 10
0.0
 20
0.0
 30
0.0
 40
40.0
  0
LINE
  5
6C7
  8
SIZE
  6
CONTINUOUS
 62
    30
 10
325.0000000000001
 20
364.9999999999999
 30
0.0
 11
325.0000000000001
 21
496.0316879999997
 31
0.0
  0
LINE
  5
6C8
  8
SIZE
  6
CONTINUOUS
 62
    30
 10
-324.9999999999997
 20
364.9999999999999
 30
0.0
 11
-324.9999999999997
 21
496.0316879999997
 31
0.0
  0
LINE
  5
6C9
  8
SIZE
  6
CONTINUOUS
 62
    30
 10
313.0000000000001
 20
476.0316879999997
 30
0.0
 11
-312.9999999999997
 21
476.0316879999997
 31
0.0
  0
CIRCLE
  5
6CA
  8
SIZE
  6
CONTINUOUS
 62
    30
 10
325.0000000000001
 20
476.0316879999997
 30
0.0
 40
6.0
  0
LINE
  5
6CB
  8
SIZE
  6
CONTINUOUS
 62
    30
 10
325.0000000000001
 20
476.0316879999997
 30
0.0
 11
313.0000000000001
 21
476.0316879999997
 31
0.0
  0
CIRCLE
  5
6CC
  8
SIZE
  6
CONTINUOUS
 62
    30
 10
-324.9999999999997
 20
476.0316879999997
 30
0.0
 40
6.0
  0
LINE
  5
6CD
  8
SIZE
  6
CONTINUOUS
 62
    30
 10
-324.9999999999997
 20
476.0316879999997
 30
0.0
 11
-312.9999999999997
 21
476.0316879999997
 31
0.0
  0
TEXT
  5
6CE
  8
SIZE
  6
CONTINUOUS
 62
    30
 10
-83.65714285714286
 20
501.0316879999997
 30
0.0
 40
64.0
  1
650
 41
0.9
 72
     1
 11
0.0
 21
501.0316879999997
 31
0.0
  0
LINE
  5
6CF
  8
SIZE
  6
CONTINUOUS
 62
    30
 10
355.0000000000001
 20
344.9999999999998
 30
0.0
 11
355.0000000000001
 21
622.5476539999999
 31
0.0
  0
LINE
  5
6D0
  8
SIZE
  6
CONTINUOUS
 62
    30
 10
-354.9999999999997
 20
344.9999999999998
 30
0.0
 11
-354.9999999999997
 21
622.5476539999999
 31
0.0
  0
LINE
  5
6D1
  8
SIZE
  6
CONTINUOUS
 62
    30
 10
343.0000000000001
 20
602.5476539999997
 30
0.0
 11
-342.9999999999997
 21
602.5476539999997
 31
0.0
  0
CIRCLE
  5
6D2
  8
SIZE
  6
CONTINUOUS
 62
    30
 10
355.0000000000001
 20
602.5476539999997
 30
0.0
 40
6.0
  0
LINE
  5
6D3
  8
SIZE
  6
CONTINUOUS
 62
    30
 10
355.0000000000001
 20
602.5476539999997
 30
0.0
 11
343.0000000000001
 21
602.5476539999997
 31
0.0
  0
CIRCLE
  5
6D4
  8
SIZE
  6
CONTINUOUS
 62
    30
 10
-354.9999999999997
 20
602.5476539999997
 30
0.0
 40
6.0
  0
LINE
  5
6D5
  8
SIZE
  6
CONTINUOUS
 62
    30
 10
-354.9999999999997
 20
602.5476539999997
 30
0.0
 11
-342.9999999999997
 21
602.5476539999997
 31
0.0
  0
TEXT
  5
6D6
  8
SIZE
  6
CONTINUOUS
 62
    30
 10
-82.28571428571429
 20
627.5476539999997
 30
0.0
 40
64.0
  1
710
 41
0.9
 72
     1
 11
0.0
 21
627.5476539999997
 31
0.0
  0
LINE
  5
6D7
  8
SIZE
  6
CONTINUOUS
 62
    30
 10
364.9999999999999
 20
324.9999999999998
 30
0.0
 11
584.1368090000003
 21
324.9999999999998
 31
0.0
  0
LINE
  5
6D8
  8
SIZE
  6
CONTINUOUS
 62
    30
 10
364.9999999999999
 20
-324.9999999999998
 30
0.0
 11
584.1368090000003
 21
-324.9999999999998
 31
0.0
  0
LINE
  5
6D9
  8
SIZE
  6
CONTINUOUS
 62
    30
 10
564.1368090000001
 20
312.9999999999998
 30
0.0
 11
564.1368090000001
 21
-312.9999999999998
 31
0.0
  0
CIRCLE
  5
6DA
  8
SIZE
  6
CONTINUOUS
 62
    30
 10
564.1368090000001
 20
324.9999999999998
 30
0.0
 40
6.0
  0
LINE
  5
6DB
  8
SIZE
  6
CONTINUOUS
 62
    30
 10
564.1368090000001
 20
324.9999999999998
 30
0.0
 11
564.1368090000001
 21
312.9999999999998
 31
0.0
  0
CIRCLE
  5
6DC
  8
SIZE
  6
CONTINUOUS
 62
    30
 10
564.1368090000001
 20
-324.9999999999998
 30
0.0
 40
6.0
  0
LINE
  5
6DD
  8
SIZE
  6
CONTINUOUS
 62
    30
 10
564.1368090000001
 20
-324.9999999999998
 30
0.0
 11
564.1368090000001
 21
-312.9999999999998
 31
0.0
  0
TEXT
  5
6DE
  8
SIZE
  6
CONTINUOUS
 62
    30
 10
539.1368090000001
 20
-83.65714285714286
 30
0.0
 40
64.0
  1
650
 50
90.0
 41
0.9
 72
     1
 11
539.1368090000001
 21
0.0
 31
0.0
  0
LINE
  5
6DF
  8
SIZE
  6
CONTINUOUS
 62
    30
 10
345.0000000000001
 20
354.9999999999999
 30
0.0
 11
725.6240440000001
 21
354.9999999999999
 31
0.0
  0
LINE
  5
6E0
  8
SIZE
  6
CONTINUOUS
 62
    30
 10
345.0000000000001
 20
-355.0
 30
0.0
 11
725.6240440000001
 21
-355.0
 31
0.0
  0
LINE
  5
6E1
  8
SIZE
  6
CONTINUOUS
 62
    30
 10
705.6240440000001
 20
342.9999999999998
 30
0.0
 11
705.6240440000001
 21
-342.9999999999999
 31
0.0
  0
CIRCLE
  5
6E2
  8
SIZE
  6
CONTINUOUS
 62
    30
 10
705.6240440000001
 20
354.9999999999999
 30
0.0
 40
6.0
  0
LINE
  5
6E3
  8
SIZE
  6
CONTINUOUS
 62
    30
 10
705.6240440000001
 20
354.9999999999999
 30
0.0
 11
705.6240440000001
 21
342.9999999999998
 31
0.0
  0
CIRCLE
  5
6E4
  8
SIZE
  6
CONTINUOUS
 62
    30
 10
705.6240440000001
 20
-355.0
 30
0.0
 40
6.0
  0
LINE
  5
6E5
  8
SIZE
  6
CONTINUOUS
 62
    30
 10
705.6240440000001
 20
-355.0
 30
0.0
 11
705.6240440000001
 21
-342.9999999999999
 31
0.0
  0
TEXT
  5
6E6
  8
SIZE
  6
CONTINUOUS
 62
    30
 10
680.6240440000001
 20
-82.28571428571429
 30
0.0
 40
64.0
  1
710
 50
90.0
 41
0.9
 72
     1
 11
680.6240440000001
 21
0.0
 31
0.0
  0
CIRCLE
  5
6E7
  8
DETAIL
  6
CONTINUOUS
 62
     5
 10
-324.9999999999997
 20
324.9999999999998
 30
0.0
 40
7.0
  0
CIRCLE
  5
6E8
  8
FIX
  6
CONTINUOUS
 62
    11
 39
50.0
 10
-324.9999999999997
 20
324.9999999999998
 30
0.0
 40
7.0
  0
LINE
  5
6E9
  8
SIZE
  6
CONTINUOUS
 62
    30
 10
305.0000000000001
 20
-20.0
 30
0.0
 11
305.0000000000001
 21
-545.3682059999998
 31
0.0
  0
LINE
  5
6EA
  8
SIZE
  6
CONTINUOUS
 62
    30
 10
-304.9999999999999
 20
-20.0
 30
0.0
 11
-304.9999999999999
 21
-545.3682059999998
 31
0.0
  0
LINE
  5
6EB
  8
SIZE
  6
CONTINUOUS
 62
    30
 10
293.0000000000001
 20
-525.3682059999998
 30
0.0
 11
-292.9999999999999
 21
-525.3682059999998
 31
0.0
  0
CIRCLE
  5
6EC
  8
SIZE
  6
CONTINUOUS
 62
    30
 10
305.0000000000001
 20
-525.3682059999998
 30
0.0
 40
6.0
  0
LINE
  5
6ED
  8
SIZE
  6
CONTINUOUS
 62
    30
 10
305.0000000000001
 20
-525.3682059999998
 30
0.0
 11
293.0000000000001
 21
-525.3682059999998
 31
0.0
  0
CIRCLE
  5
6EE
  8
SIZE
  6
CONTINUOUS
 62
    30
 10
-304.9999999999999
 20
-525.3682059999998
 30
0.0
 40
6.0
  0
LINE
  5
6EF
  8
SIZE
  6
CONTINUOUS
 62
    30
 10
-304.9999999999999
 20
-525.3682059999998
 30
0.0
 11
-292.9999999999999
 21
-525.3682059999998
 31
0.0
  0
TEXT
  5
6F0
  8
SIZE
  6
CONTINUOUS
 62
    30
 10
-106.9714285714286
 20
-500.3682059999997
 30
0.0
 40
64.0
  1
φ610
 41
0.9
 72
     1
 11
0.0
 21
-500.3682059999997
 31
0.0
  0
LINE
  5
6F1
  8
SIZE
  6
CONTINUOUS
 62
    30
 10
352.4999999999999
 20
-20.0
 30
0.0
 11
352.4999999999999
 21
-664.9978719999999
 31
0.0
  0
LINE
  5
6F2
  8
SIZE
  6
CONTINUOUS
 62
    30
 10
-352.4999999999997
 20
-20.0
 30
0.0
 11
-352.4999999999997
 21
-664.9978719999999
 31
0.0
  0
LINE
  5
6F3
  8
SIZE
  6
CONTINUOUS
 62
    30
 10
340.5000000000001
 20
-644.9978719999998
 30
0.0
 11
-340.4999999999997
 21
-644.9978719999998
 31
0.0
  0
CIRCLE
  5
6F4
  8
SIZE
  6
CONTINUOUS
 62
    30
 10
352.4999999999999
 20
-644.9978719999998
 30
0.0
 40
6.0
  0
LINE
  5
6F5
  8
SIZE
  6
CONTINUOUS
 62
    30
 10
352.4999999999999
 20
-644.9978719999998
 30
0.0
 11
340.5000000000001
 21
-644.9978719999998
 31
0.0
  0
CIRCLE
  5
6F6
  8
SIZE
  6
CONTINUOUS
 62
    30
 10
-352.4999999999997
 20
-644.9978719999998
 30
0.0
 40
6.0
  0
LINE
  5
6F7
  8
SIZE
  6
CONTINUOUS
 62
    30
 10
-352.4999999999997
 20
-644.9978719999998
 30
0.0
 11
-340.4999999999997
 21
-644.9978719999998
 31
0.0
  0
TEXT
  5
6F8
  8
SIZE
  6
CONTINUOUS
 62
    30
 10
-106.9714285714286
 20
-619.9978719999998
 30
0.0
 40
64.0
  1
φ705
 41
0.9
 72
     1
 11
0.0
 21
-619.9978719999998
 31
0.0
  0
ARC
  5
6F9
  8
DETAIL
  6
CONTINUOUS
 62
     5
 10
-324.9999999999997
 20
324.9999999999998
 30
0.0
 40
30.0
 50
90.0
 51
180.0
  0
ARC
  5
6FA
  8
DETAIL
  6
CONTINUOUS
 62
     5
 10
-324.9999999999997
 20
-324.9999999999998
 30
0.0
 40
30.0
 50
180.0
 51
270.0
  0
ARC
  5
6FB
  8
DETAIL
  6
CONTINUOUS
 62
     5
 10
325.0000000000001
 20
-324.9999999999998
 30
0.0
 40
30.0
 50
270.0
 51
0.0
  0
ARC
  5
6FC
  8
DETAIL
  6
CONTINUOUS
 62
     5
 10
325.0000000000001
 20
324.9999999999998
 30
0.0
 40
30.0
 50
0.0
 51
90.0
  0
CIRCLE
  5
6FD
  8
FIX
  6
CONTINUOUS
 62
    11
 39
50.0
 10
325.0000000000001
 20
324.9999999999998
 30
0.0
 40
7.0
  0
CIRCLE
  5
6FE
  8
DETAIL
  6
CONTINUOUS
 62
     5
 10
325.0000000000001
 20
324.9999999999998
 30
0.0
 40
7.0
  0
LINE
  5
6FF
  8
NOTE
  6
CONTINUOUS
 62
     4
 10
325.0000000000001
 20
304.9999999999998
 30
0.0
 11
325.0000000000001
 21
344.9999999999998
 31
0.0
  0
LINE
  5
700
  8
NOTE
  6
CONTINUOUS
 62
     4
 10
345.0000000000001
 20
324.9999999999998
 30
0.0
 11
305.0000000000001
 21
324.9999999999998
 31
0.0
  0
CIRCLE
  5
701
  8
FIX
  6
CONTINUOUS
 62
    11
 39
50.0
 10
-324.9999999999997
 20
-324.9999999999998
 30
0.0
 40
7.0
  0
CIRCLE
  5
702
  8
DETAIL
  6
CONTINUOUS
 62
     5
 10
-324.9999999999997
 20
-324.9999999999998
 30
0.0
 40
7.0
  0
LINE
  5
703
  8
NOTE
  6
CONTINUOUS
 62
     4
 10
-324.9999999999997
 20
-304.9999999999999
 30
0.0
 11
-324.9999999999997
 21
-344.9999999999996
 31
0.0
  0
LINE
  5
704
  8
NOTE
  6
CONTINUOUS
 62
     4
 10
-344.9999999999997
 20
-324.9999999999998
 30
0.0
 11
-304.9999999999999
 21
-324.9999999999998
 31
0.0
  0
CIRCLE
  5
705
  8
FIX
  6
CONTINUOUS
 62
    11
 39
50.0
 10
325.0000000000001
 20
-324.9999999999998
 30
0.0
 40
7.0
  0
CIRCLE
  5
706
  8
DETAIL
  6
CONTINUOUS
 62
     5
 10
325.0000000000001
 20
-324.9999999999998
 30
0.0
 40
7.0
  0
LINE
  5
707
  8
NOTE
  6
CONTINUOUS
 62
     4
 10
325.0000000000001
 20
-304.9999999999999
 30
0.0
 11
325.0000000000001
 21
-344.9999999999996
 31
0.0
  0
LINE
  5
708
  8
NOTE
  6
CONTINUOUS
 62
     4
 10
345.0000000000001
 20
-324.9999999999998
 30
0.0
 11
305.0000000000001
 21
-324.9999999999998
 31
0.0
  0
ARC
  5
709
  8
DETAIL
  6
CONTINUOUS
 62
     5
 10
0.0
 20
0.0
 30
0.0
 40
352.4999999999997
 50
135.1956779999997
 51
313.0235879999996
  0
ARC
  5
70A
  8
DETAIL
  6
CONTINUOUS
 62
     5
 10
0.0
 20
0.0
 30
0.0
 40
305.0
 50
134.965255
 51
312.7316700000001
  0
ARC
  5
70B
  8
OUTLINE
  6
CONTINUOUS
 62
     3
 10
-324.9999999999997
 20
324.9999999999998
 30
0.0
 40
30.0
 50
90.0
 51
180.0
  0
LINE
  5
70C
  8
OUTLINE
  6
CONTINUOUS
 62
     3
 10
-354.9999999999997
 20
324.9999999999998
 30
0.0
 11
-354.9999999999997
 21
-324.9999999999998
 31
0.0
  0
LINE
  5
70D
  8
OUTLINE
  6
CONTINUOUS
 62
     3
 10
-324.9999999999997
 20
354.9999999999999
 30
0.0
 11
325.0000000000001
 21
354.9999999999999
 31
0.0
  0
ARC
  5
70E
  8
OUTLINE
  6
CONTINUOUS
 62
     3
 10
325.0000000000001
 20
324.9999999999998
 30
0.0
 40
30.0
 50
0.0
 51
90.0
  0
LINE
  5
70F
  8
OUTLINE
  6
CONTINUOUS
 62
     3
 10
355.0000000000001
 20
324.9999999999998
 30
0.0
 11
355.0000000000001
 21
-324.9999999999998
 31
0.0
  0
ARC
  5
710
  8
OUTLINE
  6
CONTINUOUS
 62
     3
 10
325.0000000000001
 20
-324.9999999999998
 30
0.0
 40
30.0
 50
270.0
 51
0.0
  0
LINE
  5
711
  8
OUTLINE
  6
CONTINUOUS
 62
     3
 10
-324.9999999999997
 20
-355.0
 30
0.0
 11
325.0000000000001
 21
-355.0
 31
0.0
  0
ARC
  5
712
  8
OUTLINE
  6
CONTINUOUS
 62
     3
 10
-324.9999999999997
 20
-324.9999999999998
 30
0.0
 40
30.0
 50
180.0
 51
270.0
  0
ARC
  5
713
  8
DETAIL
  6
CONTINUOUS
 62
     5
 10
-244.3989559999998
 20
-20944.56999999997
 30
0.0
 40
21274.74
 50
89.90795099999997
 51
90.092049
  0
ARC
  5
714
  8
DETAIL
  6
CONTINUOUS
 62
     5
 10
-278.1902529999998
 20
309.1180749999999
 30
0.0
 40
21.02586599999996
 50
91.05724100000005
 51
179.8192260000011
  0
LINE
  5
715
  8
DETAIL
  6
CONTINUOUS
 62
     5
 10
-181.5357669999998
 20
319.8033869999996
 30
0.0
 11
-178.0923099999998
 21
325.7674769999999
 31
0.0
  0
ARC
  5
716
  8
DETAIL
  6
CONTINUOUS
 62
     5
 10
-210.0760009999998
 20
320.3676289999998
 30
0.0
 40
9.773789
 50
29.99964900000007
 51
90.84244500000005
  0
LINE
  5
717
  8
DETAIL
  6
CONTINUOUS
 62
     5
 10
-198.4644599999999
 20
319.8033929999999
 30
0.0
 11
-201.6116219999999
 21
325.2544709999998
 31
0.0
  0
ARC
  5
718
  8
DETAIL
  6
CONTINUOUS
 62
     5
 10
-189.9999999999998
 20
324.6902519999999
 30
0.0
 40
9.773789
 50
209.9996299999999
 51
329.9999889999999
  0
ARC
  5
719
  8
DETAIL
  6
CONTINUOUS
 62
     5
 10
-169.6281719999997
 20
320.8806869999998
 30
0.0
 40
9.773789
 50
90.60475400000011
 51
149.9995879999998
  0
ARC
  5
71A
  8
DETAIL
  6
CONTINUOUS
 62
     5
 10
-309.1180749999997
 20
278.1902529999999
 30
0.0
 40
21.02586599999996
 50
90.18077400000003
 51
178.9427589999997
  0
ARC
  5
71B
  8
DETAIL
  6
CONTINUOUS
 62
     5
 10
-309.2159649999997
 20
309.2159649999998
 30
0.0
 40
10.0
 50
270.180774
 51
359.8192259999991
  0
LINE
  5
71C
  8
DETAIL
  6
CONTINUOUS
 62
     5
 10
-169.7313319999998
 20
330.6539319999998
 30
0.0
 11
-122.1647549999999
 21
330.6539319999998
 31
0.0
  0
ARC
  5
71D
  8
DETAIL
  6
CONTINUOUS
 62
     5
 10
-320.3676289999998
 20
210.0760009999998
 30
0.0
 40
9.773789
 50
179.1575549999997
 51
240.0003509999999
  0
ARC
  5
71E
  8
DETAIL
  6
CONTINUOUS
 62
     5
 10
-320.8806869999998
 20
169.628172
 30
0.0
 40
9.773789
 50
120.0004120000002
 51
179.3952460000005
  0
ARC
  5
71F
  8
DETAIL
  6
CONTINUOUS
 62
     5
 10
-324.6902519999997
 20
189.9999999999999
 30
0.0
 40
9.773789
 50
300.0000110000001
 51
60.00037
  0
LINE
  5
720
  8
DETAIL
  6
CONTINUOUS
 62
     5
 10
-319.8033929999997
 20
198.4644599999999
 30
0.0
 11
-325.2544709999996
 21
201.6116219999999
 31
0.0
  0
LINE
  5
721
  8
DETAIL
  6
CONTINUOUS
 62
     5
 10
-319.8033869999996
 20
181.5357669999999
 30
0.0
 11
-325.7674769999997
 21
178.0923099999999
 31
0.0
  0
LINE
  5
722
  8
DETAIL
  6
CONTINUOUS
 62
     5
 10
-330.6539319999997
 20
169.7313319999998
 30
0.0
 11
-330.6539319999997
 21
122.164755
 31
0.0
  0
ARC
  5
723
  8
DETAIL
  6
CONTINUOUS
 62
     5
 10
20944.56999999998
 20
244.3989559999999
 30
0.0
 40
21274.74
 50
179.9079509999981
 51
180.0920490000018
  0
ARC
  5
724
  8
DETAIL
  6
CONTINUOUS
 62
     5
 10
309.118075
 20
278.1902529999999
 30
0.0
 40
21.02586599999996
 50
1.057241000000273
 51
89.81922600000013
  0
ARC
  5
725
  8
DETAIL
  6
CONTINUOUS
 62
     5
 10
278.1902530000003
 20
309.1180749999999
 30
0.0
 40
21.02586599999996
 50
0.1807739999989156
 51
88.94275899999994
  0
ARC
  5
726
  8
DETAIL
  6
CONTINUOUS
 62
     5
 10
309.215965
 20
309.2159649999998
 30
0.0
 40
10.0
 50
180.180774000001
 51
269.8192259999996
  0
ARC
  5
727
  8
DETAIL
  6
CONTINUOUS
 62
     5
 10
244.3989560000002
 20
-20944.56999999997
 30
0.0
 40
21274.74
 50
89.90795099999997
 51
90.092049
  0
ARC
  5
728
  8
DETAIL
  6
CONTINUOUS
 62
     5
 10
210.0760010000001
 20
320.3676289999998
 30
0.0
 40
9.773789
 50
89.15755500000013
 51
150.0003509999999
  0
ARC
  5
729
  8
DETAIL
  6
CONTINUOUS
 62
     5
 10
169.6281720000002
 20
320.8806869999998
 30
0.0
 40
9.773789
 50
30.00041199999981
 51
89.3952459999999
  0
ARC
  5
72A
  8
DETAIL
  6
CONTINUOUS
 62
     5
 10
190.0000000000002
 20
324.6902519999999
 30
0.0
 40
9.773789
 50
210.0000109999999
 51
330.0003700000002
  0
LINE
  5
72B
  8
DETAIL
  6
CONTINUOUS
 62
     5
 10
198.4644600000001
 20
319.8033929999999
 30
0.0
 11
201.6116220000004
 21
325.2544709999998
 31
0.0
  0
LINE
  5
72C
  8
DETAIL
  6
CONTINUOUS
 62
     5
 10
181.5357669999999
 20
319.8033869999996
 30
0.0
 11
178.0923100000002
 21
325.7674769999999
 31
0.0
  0
LINE
  5
72D
  8
DETAIL
  6
CONTINUOUS
 62
     5
 10
169.731332
 20
330.6539319999998
 30
0.0
 11
122.1647550000001
 21
330.6539319999998
 31
0.0
  0
LINE
  5
72E
  8
DETAIL
  6
CONTINUOUS
 62
     5
 10
330.6539320000003
 20
169.7313319999998
 30
0.0
 11
330.6539320000003
 21
122.164755
 31
0.0
  0
ARC
  5
72F
  8
DETAIL
  6
CONTINUOUS
 62
     5
 10
-20944.56999999998
 20
244.3989559999999
 30
0.0
 40
21274.74
 50
359.9079509999981
 51
0.0920490000018423
  0
ARC
  5
730
  8
DETAIL
  6
CONTINUOUS
 62
     5
 10
320.367629
 20
210.0760009999998
 30
0.0
 40
9.773789
 50
299.9996489999998
 51
0.8424450000002964
  0
LINE
  5
731
  8
DETAIL
  6
CONTINUOUS
 62
     5
 10
319.8033930000001
 20
198.4644599999999
 30
0.0
 11
325.254471
 21
201.6116219999999
 31
0.0
  0
ARC
  5
732
  8
DETAIL
  6
CONTINUOUS
 62
     5
 10
320.8806870000003
 20
169.628172
 30
0.0
 40
9.773789
 50
0.6047540000001134
 51
59.99958799999983
  0
LINE
  5
733
  8
DETAIL
  6
CONTINUOUS
 62
     5
 10
319.8033870000003
 20
181.5357669999999
 30
0.0
 11
325.767477
 21
178.0923099999999
 31
0.0
  0
ARC
  5
734
  8
DETAIL
  6
CONTINUOUS
 62
     5
 10
324.6902520000003
 20
189.9999999999999
 30
0.0
 40
9.773789
 50
119.9996300000003
 51
239.9999890000001
  0
ARC
  5
735
  8
DETAIL
  6
CONTINUOUS
 62
     5
 10
-169.6281719999997
 20
-320.8806869999999
 30
0.0
 40
9.773789
 50
210.0004119999999
 51
269.3952459999997
  0
ARC
  5
736
  8
DETAIL
  6
CONTINUOUS
 62
     5
 10
-210.0760009999998
 20
-320.3676289999997
 30
0.0
 40
9.773789
 50
269.157555
 51
330.0003509999999
  0
ARC
  5
737
  8
DETAIL
  6
CONTINUOUS
 62
     5
 10
-189.9999999999998
 20
-324.6902519999997
 30
0.0
 40
9.773789
 50
30.00001100000012
 51
150.00037
  0
LINE
  5
738
  8
DETAIL
  6
CONTINUOUS
 62
     5
 10
-198.4644599999999
 20
-319.8033929999997
 30
0.0
 11
-201.6116219999999
 21
-325.2544709999999
 31
0.0
  0
LINE
  5
739
  8
DETAIL
  6
CONTINUOUS
 62
     5
 10
-181.5357669999998
 20
-319.8033869999998
 30
0.0
 11
-178.0923099999998
 21
-325.7674769999997
 31
0.0
  0
ARC
  5
73A
  8
DETAIL
  6
CONTINUOUS
 62
     5
 10
-244.3989559999998
 20
20944.56999999997
 30
0.0
 40
21274.74
 50
269.9079509999999
 51
270.0920489999999
  0
LINE
  5
73B
  8
DETAIL
  6
CONTINUOUS
 62
     5
 10
-169.7313319999998
 20
-330.6539319999998
 30
0.0
 11
-122.1647549999999
 21
-330.6539319999998
 31
0.0
  0
LINE
  5
73C
  8
DETAIL
  6
CONTINUOUS
 62
     5
 10
-330.6539319999997
 20
-169.7313319999998
 30
0.0
 11
-330.6539319999997
 21
-122.1647549999998
 31
0.0
  0
ARC
  5
73D
  8
DETAIL
  6
CONTINUOUS
 62
     5
 10
20944.56999999998
 20
-244.3989559999998
 30
0.0
 40
21274.74
 50
179.9079509999981
 51
180.0920490000018
  0
LINE
  5
73E
  8
DETAIL
  6
CONTINUOUS
 62
     5
 10
-319.8033869999996
 20
-181.5357669999997
 30
0.0
 11
-325.7674769999997
 21
-178.0923099999998
 31
0.0
  0
LINE
  5
73F
  8
DETAIL
  6
CONTINUOUS
 62
     5
 10
-319.8033929999997
 20
-198.4644599999998
 30
0.0
 11
-325.2544709999996
 21
-201.6116219999998
 31
0.0
  0
ARC
  5
740
  8
DETAIL
  6
CONTINUOUS
 62
     5
 10
-324.6902519999997
 20
-189.9999999999998
 30
0.0
 40
9.773789
 50
299.9996299999999
 51
59.99998899999989
  0
ARC
  5
741
  8
DETAIL
  6
CONTINUOUS
 62
     5
 10
-320.8806869999998
 20
-169.6281719999998
 30
0.0
 40
9.773789
 50
180.6047539999995
 51
239.9995879999998
  0
ARC
  5
742
  8
DETAIL
  6
CONTINUOUS
 62
     5
 10
-320.3676289999998
 20
-210.0760009999997
 30
0.0
 40
9.773789
 50
119.9996489999998
 51
180.8424450000003
  0
ARC
  5
743
  8
DETAIL
  6
CONTINUOUS
 62
     5
 10
-309.1180749999997
 20
-278.1902529999998
 30
0.0
 40
21.02586599999996
 50
181.0572409999999
 51
269.819226
  0
ARC
  5
744
  8
DETAIL
  6
CONTINUOUS
 62
     5
 10
-309.2159649999997
 20
-309.2159649999998
 30
0.0
 40
10.0
 50
0.1807740000009317
 51
89.81922599999994
  0
ARC
  5
745
  8
DETAIL
  6
CONTINUOUS
 62
     5
 10
-278.1902529999998
 20
-309.1180749999997
 30
0.0
 40
21.02586599999996
 50
180.1807739999989
 51
268.942759
  0
ARC
  5
746
  8
DETAIL
  6
CONTINUOUS
 62
     5
 10
169.6281720000002
 20
-320.8806869999999
 30
0.0
 40
9.773789
 50
270.6047540000001
 51
329.9995880000002
  0
ARC
  5
747
  8
DETAIL
  6
CONTINUOUS
 62
     5
 10
210.0760010000001
 20
-320.3676289999997
 30
0.0
 40
9.773789
 50
209.9996489999996
 51
270.8424449999999
  0
ARC
  5
748
  8
DETAIL
  6
CONTINUOUS
 62
     5
 10
278.1902530000003
 20
-309.1180749999997
 30
0.0
 40
21.02586599999996
 50
271.057241
 51
359.8192260000011
  0
LINE
  5
749
  8
DETAIL
  6
CONTINUOUS
 62
     5
 10
181.5357669999999
 20
-319.8033869999998
 30
0.0
 11
178.0923100000002
 21
-325.7674769999997
 31
0.0
  0
LINE
  5
74A
  8
DETAIL
  6
CONTINUOUS
 62
     5
 10
198.4644600000001
 20
-319.8033929999997
 30
0.0
 11
201.6116220000004
 21
-325.2544709999999
 31
0.0
  0
ARC
  5
74B
  8
DETAIL
  6
CONTINUOUS
 62
     5
 10
190.0000000000002
 20
-324.6902519999997
 30
0.0
 40
9.773789
 50
29.99962999999982
 51
149.9999889999998
  0
ARC
  5
74C
  8
DETAIL
  6
CONTINUOUS
 62
     5
 10
244.3989560000002
 20
20944.56999999997
 30
0.0
 40
21274.74
 50
269.9079509999999
 51
270.0659329999999
  0
LINE
  5
74D
  8
DETAIL
  6
CONTINUOUS
 62
     5
 10
169.731332
 20
-330.6539319999998
 30
0.0
 11
122.1647550000001
 21
-330.6539319999998
 31
0.0
  0
ARC
  5
74E
  8
DETAIL
  6
CONTINUOUS
 62
     5
 10
309.215965
 20
-309.2159649999998
 30
0.0
 40
10.0
 50
90.18077399999973
 51
179.8192259999991
  0
ARC
  5
74F
  8
DETAIL
  6
CONTINUOUS
 62
     5
 10
309.118075
 20
-278.1902529999998
 30
0.0
 40
21.02586599999996
 50
270.1807739999998
 51
358.9427589999997
  0
ARC
  5
750
  8
DETAIL
  6
CONTINUOUS
 62
     5
 10
-20944.56999999998
 20
-244.3989559999998
 30
0.0
 40
21274.74
 50
359.9079509999981
 51
0.0920490000018423
  0
LINE
  5
751
  8
DETAIL
  6
CONTINUOUS
 62
     5
 10
330.6539320000003
 20
-169.7313319999998
 30
0.0
 11
330.6539320000003
 21
-122.1647549999998
 31
0.0
  0
ARC
  5
752
  8
DETAIL
  6
CONTINUOUS
 62
     5
 10
324.6902520000003
 20
-189.9999999999998
 30
0.0
 40
9.773789
 50
120.0000109999998
 51
240.0003699999997
  0
LINE
  5
753
  8
DETAIL
  6
CONTINUOUS
 62
     5
 10
319.8033870000003
 20
-181.5357669999997
 30
0.0
 11
325.767477
 21
-178.0923099999998
 31
0.0
  0
ARC
  5
754
  8
DETAIL
  6
CONTINUOUS
 62
     5
 10
320.8806870000003
 20
-169.6281719999998
 30
0.0
 40
9.773789
 50
300.000412
 51
359.3952459999999
  0
LINE
  5
755
  8
DETAIL
  6
CONTINUOUS
 62
     5
 10
319.8033930000001
 20
-198.4644599999998
 30
0.0
 11
325.254471
 21
-201.6116219999998
 31
0.0
  0
ARC
  5
756
  8
DETAIL
  6
CONTINUOUS
 62
     5
 10
320.367629
 20
-210.0760009999997
 30
0.0
 40
9.773789
 50
359.1575549999997
 51
60.00035100000021
  0
CIRCLE
  5
757
  8
DETAIL
  6
CONTINUOUS
 62
     5
 10
0.0
 20
0.0
 30
0.0
 40
65.5
  0
LINE
  5
758
  8
DETAIL
  6
CONTINUOUS
 62
     5
 10
95.0
 20
77.528706
 30
0.0
 11
95.0
 21
-77.528706
 31
0.0
  0
LINE
  5
759
  8
DETAIL
  6
CONTINUOUS
 62
     5
 10
-94.99999999999977
 20
77.528705
 30
0.0
 11
-94.99999999999977
 21
-77.52870499999995
 31
0.0
  0
CIRCLE
  5
75A
  8
DETAIL
  6
CONTINUOUS
 62
     5
 10
0.0
 20
0.0
 30
0.0
 40
62.5
  0
ARC
  5
75B
  8
DETAIL
  6
CONTINUOUS
 62
     5
 10
-39.70479899999975
 20
-18.22133800000001
 30
0.0
 40
96.216702
 50
160.8575699999998
 51
219.5355849999998
  0
LINE
  5
75C
  8
DETAIL
  6
CONTINUOUS
 62
     5
 10
-96.59117999999978
 20
-103.6109929999997
 30
0.0
 11
-285.6083009999999
 21
-282.2095429999998
 31
0.0
  0
LINE
  5
75D
  8
DETAIL
  6
CONTINUOUS
 62
     5
 10
-91.50067899999976
 20
-105.8210759999999
 30
0.0
 11
-282.0087159999999
 21
-285.8090819999997
 31
0.0
  0
ARC
  5
75E
  8
DETAIL
  6
CONTINUOUS
 62
     5
 10
-43.13933899999995
 20
-33.67406599999997
 30
0.0
 40
235.416623
 50
192.1484479999996
 51
244.281845
  0
ARC
  5
75F
  8
DETAIL
  6
CONTINUOUS
 62
     5
 10
-43.13933899999995
 20
-33.67406599999997
 30
0.0
 40
229.166624
 50
192.1497589999999
 51
244.5241349999997
  0
LINE
  5
760
  8
DETAIL
  6
CONTINUOUS
 62
     5
 10
-218.1169049999996
 20
-292.1081419999998
 30
0.0
 11
-251.2976249999998
 21
-258.9273779999997
 31
0.0
  0
LINE
  5
761
  8
DETAIL
  6
CONTINUOUS
 62
     5
 10
-254.1123169999999
 20
-313.7056859999997
 30
0.0
 11
-313.5046399999997
 21
-254.3132419999998
 31
0.0
  0
LINE
  5
762
  8
DETAIL
  6
CONTINUOUS
 62
     5
 10
-257.7200039999998
 20
-298.3380999999998
 30
0.0
 11
-246.9134769999999
 21
-304.5677449999998
 31
0.0
  0
LINE
  5
763
  8
DETAIL
  6
CONTINUOUS
 62
     5
 10
-246.9134769999999
 20
-279.649154
 30
0.0
 11
-257.7200039999998
 21
-285.8787999999997
 31
0.0
  0
LINE
  5
764
  8
DETAIL
  6
CONTINUOUS
 62
     5
 10
-257.7200029999998
 20
-285.8788049999998
 30
0.0
 11
-257.7200029999998
 21
-298.3380939999997
 31
0.0
  0
LINE
  5
765
  8
DETAIL
  6
CONTINUOUS
 62
     5
 10
-254.1123249999998
 20
-313.7054709999998
 30
0.0
 11
-239.7142139999999
 21
-313.7054709999998
 31
0.0
  0
LINE
  5
766
  8
DETAIL
  6
CONTINUOUS
 62
     5
 10
-218.1168859999998
 20
-292.1082809999998
 30
0.0
 11
-239.7142339999999
 21
-313.7055589999998
 31
0.0
  0
LINE
  5
767
  8
DETAIL
  6
CONTINUOUS
 62
     5
 10
-236.1069429999999
 20
-285.8787999999997
 30
0.0
 11
-246.9134699999998
 21
-279.649154
 31
0.0
  0
LINE
  5
768
  8
DETAIL
  6
CONTINUOUS
 62
     5
 10
-236.1069439999998
 20
-298.3380939999997
 30
0.0
 11
-236.1069439999998
 21
-285.8788049999998
 31
0.0
  0
LINE
  5
769
  8
DETAIL
  6
CONTINUOUS
 62
     5
 10
-246.9134699999998
 20
-304.5677449999998
 30
0.0
 11
-236.1069429999999
 21
-298.3380999999998
 31
0.0
  0
LINE
  5
76A
  8
DETAIL
  6
CONTINUOUS
 62
     5
 10
-291.9075069999998
 20
-218.3177519999997
 30
0.0
 11
-256.6970639999998
 21
-253.5281359999998
 31
0.0
  0
LINE
  5
76B
  8
DETAIL
  6
CONTINUOUS
 62
     5
 10
-281.1011069999997
 20
-253.3437569999997
 30
0.0
 11
-281.1011069999997
 21
-240.8844669999998
 31
0.0
  0
LINE
  5
76C
  8
DETAIL
  6
CONTINUOUS
 62
     5
 10
-291.9075009999997
 20
-218.3176729999998
 30
0.0
 11
-313.5046669999996
 21
-239.9148859999998
 31
0.0
  0
LINE
  5
76D
  8
DETAIL
  6
CONTINUOUS
 62
     5
 10
-302.7141659999999
 20
-240.8844669999998
 30
0.0
 11
-302.7141659999999
 21
-253.3437569999997
 31
0.0
  0
LINE
  5
76E
  8
DETAIL
  6
CONTINUOUS
 62
     5
 10
-291.9076399999997
 20
-234.6548169999997
 30
0.0
 11
-302.7141669999999
 21
-240.8844619999998
 31
0.0
  0
LINE
  5
76F
  8
DETAIL
  6
CONTINUOUS
 62
     5
 10
-313.5046579999997
 20
-254.3130799999997
 30
0.0
 11
-313.5046579999997
 21
-239.9149109999997
 31
0.0
  0
LINE
  5
770
  8
DETAIL
  6
CONTINUOUS
 62
     5
 10
-302.7141669999999
 20
-253.3437619999998
 30
0.0
 11
-291.9076399999997
 21
-259.5734069999997
 31
0.0
  0
LINE
  5
771
  8
DETAIL
  6
CONTINUOUS
 62
     5
 10
-281.1011059999998
 20
-240.8844619999998
 30
0.0
 11
-291.9076329999997
 21
-234.6548169999997
 31
0.0
  0
LINE
  5
772
  8
DETAIL
  6
CONTINUOUS
 62
     5
 10
-291.9076329999997
 20
-259.5734069999997
 30
0.0
 11
-281.1011059999998
 21
-253.3437619999998
 31
0.0
  0
ARC
  5
773
  8
DETAIL
  6
CONTINUOUS
 62
     5
 10
-270.4361199999998
 20
-82.58648599999992
 30
0.0
 40
2.916666999999998
 50
101.7518069999999
 51
192.4721279999999
  0
ARC
  5
774
  8
DETAIL
  6
CONTINUOUS
 62
     5
 10
-270.0281449999998
 20
-82.501575
 30
0.0
 40
2.916666999999998
 50
12.474333
 51
101.7518069999999
  0
LINE
  5
775
  8
DETAIL
  6
CONTINUOUS
 62
     5
 10
-271.0301669999999
 20
-79.73094300000005
 30
0.0
 11
-270.6221849999997
 21
-79.64606899999998
 31
0.0
  0
LINE
  5
776
  8
DETAIL
  6
CONTINUOUS
 62
     5
 10
268.8808480000002
 20
-364.0628549999996
 30
0.0
 11
268.8808480000002
 21
-400.1895529999997
 31
0.0
  0
LINE
  5
777
  8
DETAIL
  6
CONTINUOUS
 62
     5
 10
278.2134740000001
 20
-364.0628549999996
 30
0.0
 11
278.2134740000001
 21
-400.1895529999997
 31
0.0
  0
LINE
  5
778
  8
DETAIL
  6
CONTINUOUS
 62
     5
 10
278.2134740000001
 20
-400.1895529999997
 30
0.0
 11
268.8808480000002
 21
-400.1895529999997
 31
0.0
  0
LINE
  5
779
  8
DETAIL
  6
CONTINUOUS
 62
     5
 10
282.384563
 20
-435.7627049999998
 30
0.0
 11
281.4829109999998
 21
-430.6492419999996
 31
0.0
  0
LINE
  5
77A
  8
DETAIL
  6
CONTINUOUS
 62
     5
 10
272.2745120000004
 20
-400.1895529999997
 30
0.0
 11
272.2745120000004
 21
-431.3435259999998
 31
0.0
  0
LINE
  5
77B
  8
DETAIL
  6
CONTINUOUS
 62
     5
 10
274.81977
 20
-400.1895529999997
 30
0.0
 11
274.81977
 21
-431.3435259999998
 31
0.0
  0
LINE
  5
77C
  8
DETAIL
  6
CONTINUOUS
 62
     5
 10
273.5471410000001
 20
-436.5358739999998
 30
0.0
 11
273.5471410000001
 21
-431.3435259999998
 31
0.0
  0
LINE
  5
77D
  8
DETAIL
  6
CONTINUOUS
 62
     5
 10
274.81977
 20
-431.3435259999998
 30
0.0
 11
272.2745120000004
 21
-431.3435259999998
 31
0.0
  0
LINE
  5
77E
  8
DETAIL
  6
CONTINUOUS
 62
     5
 10
272.2745420000002
 20
-400.1895719999996
 30
0.0
 11
266.8647090000001
 21
-430.8702049999998
 31
0.0
  0
LINE
  5
77F
  8
DETAIL
  6
CONTINUOUS
 62
     5
 10
269.6899830000002
 20
-400.1895529999997
 30
0.0
 11
264.3580740000003
 21
-430.4282559999997
 31
0.0
  0
LINE
  5
780
  8
DETAIL
  6
CONTINUOUS
 62
     5
 10
264.7097340000001
 20
-435.7627039999997
 30
0.0
 11
265.6113850000003
 21
-430.6492409999999
 31
0.0
  0
LINE
  5
781
  8
DETAIL
  6
CONTINUOUS
 62
     5
 10
264.3581040000004
 20
-430.4282599999997
 30
0.0
 11
266.8646569999998
 21
-430.8702279999998
 31
0.0
  0
LINE
  5
782
  8
DETAIL
  6
CONTINUOUS
 62
     5
 10
274.8197410000002
 20
-400.1895449999998
 30
0.0
 11
280.229581
 21
-430.8702159999997
 31
0.0
  0
LINE
  5
783
  8
DETAIL
  6
CONTINUOUS
 62
     5
 10
277.4042650000001
 20
-400.1895529999997
 30
0.0
 11
282.7361700000001
 21
-430.4282359999997
 31
0.0
  0
LINE
  5
784
  8
DETAIL
  6
CONTINUOUS
 62
     5
 10
282.7361930000001
 20
-430.4282739999998
 30
0.0
 11
280.2296030000002
 21
-430.8702479999998
 31
0.0
  0
LINE
  5
785
  8
DETAIL
  6
CONTINUOUS
 62
     5
 10
28.81685800000002
 20
-58.82039299999992
 30
0.0
 11
69.74058300000024
 21
-129.7029049999999
 31
0.0
  0
LINE
  5
786
  8
DETAIL
  6
CONTINUOUS
 62
     5
 10
36.53173700000002
 20
-54.36618599999989
 30
0.0
 11
77.56740100000025
 21
-125.4420319999998
 31
0.0
  0
ARC
  5
787
  8
DETAIL
  6
CONTINUOUS
 62
     5
 10
0.0000020000002223
 20
172.0164499999999
 30
0.0
 40
267.01645
 50
249.1585389999999
 51
280.1968489999998
  0
LINE
  5
788
  8
DETAIL
  6
CONTINUOUS
 62
     5
 10
-89.90949999999975
 20
-79.40762599999992
 30
0.0
 11
-89.90949999999975
 21
-102.1632149999998
 31
0.0
  0
LINE
  5
789
  8
DETAIL
  6
CONTINUOUS
 62
     5
 10
-94.99999999999977
 20
-77.52870499999995
 30
0.0
 11
-94.99999999999977
 21
-99.95313199999983
 31
0.0
  0
ARC
  5
78A
  8
DETAIL
  6
CONTINUOUS
 62
     5
 10
-94.90949999999975
 20
-102.1632149999998
 30
0.0
 40
5.0
 50
312.9816529999998
 51
0.0
  0
ARC
  5
78B
  8
DETAIL
  6
CONTINUOUS
 62
     5
 10
-99.99999999999977
 20
-99.95313199999983
 30
0.0
 40
5.0
 50
312.9816430000001
 51
0.0
  0
LINE
  5
78C
  8
DETAIL
  6
CONTINUOUS
 62
     5
 10
-97.66419999999977
 20
-89.34145299999987
 30
0.0
 11
-94.99999999999977
 21
-89.47693599999992
 31
0.0
  0
ARC
  5
78D
  8
DETAIL
  6
CONTINUOUS
 62
     5
 10
-96.64844999999985
 20
-69.36726400000002
 30
0.0
 40
20.0
 50
210.3364039999997
 51
267.0888399999998
  0
LINE
  5
78E
  8
DETAIL
  6
CONTINUOUS
 62
     5
 10
-89.90949999999975
 20
-89.73580399999987
 30
0.0
 11
-71.32606199999975
 21
-90.680829
 31
0.0
  0
ARC
  5
78F
  8
DETAIL
  6
CONTINUOUS
 62
     5
 10
55.58583300000015
 20
-17.09019000000001
 30
0.0
 40
235.416623
 50
308.939317
 51
326.0441189999998
  0
ARC
  5
790
  8
DETAIL
  6
CONTINUOUS
 62
     5
 10
55.58583300000015
 20
-17.09019000000001
 30
0.0
 40
229.166624
 50
308.7758079999999
 51
325.9652730000001
  0
LINE
  5
791
  8
DETAIL
  6
CONTINUOUS
 62
     5
 10
123.3045090000003
 20
-126.8953019999999
 30
0.0
 11
281.3462640000001
 21
-285.4475979999997
 31
0.0
  0
LINE
  5
792
  8
DETAIL
  6
CONTINUOUS
 62
     5
 10
117.4906350000003
 20
-113.8816339999998
 30
0.0
 11
283.7459120000003
 21
-280.6481389999996
 31
0.0
  0
LINE
  5
793
  8
DETAIL
  6
CONTINUOUS
 62
     5
 10
270.2555800000001
 20
-287.5551899999998
 30
0.0
 11
128.1019150000002
 21
-144.8903729999999
 31
0.0
  0
LINE
  5
794
  8
DETAIL
  6
CONTINUOUS
 62
     5
 10
252.2499670000003
 20
-312.1442329999998
 30
0.0
 11
268.8808480000002
 21
-295.5133189999999
 31
0.0
  0
LINE
  5
795
  8
DETAIL
  6
CONTINUOUS
 62
     5
 10
284.945817
 20
-280.6481009999998
 30
0.0
 11
265.1483630000002
 21
-260.8506849999998
 31
0.0
  0
LINE
  5
796
  8
DETAIL
  6
CONTINUOUS
 62
     5
 10
245.0511280000003
 20
-278.0877019999998
 30
0.0
 11
255.8576550000001
 21
-284.3173469999998
 31
0.0
  0
LINE
  5
797
  8
DETAIL
  6
CONTINUOUS
 62
     5
 10
255.8576550000001
 20
-296.7766469999999
 30
0.0
 11
245.0511280000003
 21
-303.0062919999997
 31
0.0
  0
LINE
  5
798
  8
DETAIL
  6
CONTINUOUS
 62
     5
 10
252.2499760000003
 20
-312.1440179999999
 30
0.0
 11
237.851865
 21
-312.1440179999999
 31
0.0
  0
LINE
  5
799
  8
DETAIL
  6
CONTINUOUS
 62
     5
 10
269.0476830000002
 20
-288.7471819999997
 30
0.0
 11
253.1497310000003
 21
-272.8492299999998
 31
0.0
  0
LINE
  5
79A
  8
DETAIL
  6
CONTINUOUS
 62
     5
 10
245.0511200000001
 20
-303.0062919999997
 30
0.0
 11
234.2445930000001
 21
-296.7766469999999
 31
0.0
  0
LINE
  5
79B
  8
DETAIL
  6
CONTINUOUS
 62
     5
 10
234.2445950000002
 20
-296.7766419999998
 30
0.0
 11
234.2445950000002
 21
-284.3173519999999
 31
0.0
  0
LINE
  5
79C
  8
DETAIL
  6
CONTINUOUS
 62
     5
 10
234.2445930000001
 20
-284.3173469999998
 30
0.0
 11
245.0511200000001
 21
-278.0877019999998
 31
0.0
  0
LINE
  5
79D
  8
DETAIL
  6
CONTINUOUS
 62
     5
 10
216.2545560000002
 20
-290.5466889999997
 30
0.0
 11
244.7518740000003
 21
-262.0493319999998
 31
0.0
  0
LINE
  5
79E
  8
DETAIL
  6
CONTINUOUS
 62
     5
 10
216.2545370000001
 20
-290.5468279999997
 30
0.0
 11
237.8518840000003
 21
-312.1441059999997
 31
0.0
  0
LINE
  5
79F
  8
DETAIL
  6
CONTINUOUS
 62
     5
 10
255.8576540000001
 20
-284.3173519999999
 30
0.0
 11
255.8576540000001
 21
-296.7766419999998
 31
0.0
  0
ARC
  5
7A0
  8
DETAIL
  6
CONTINUOUS
 62
     5
 10
273.5471800000001
 20
-284.2477339999998
 30
0.0
 40
4.666305999999999
 50
315.0000190000001
 51
44.99989199999961
  0
ARC
  5
7A1
  8
DETAIL
  6
CONTINUOUS
 62
     5
 10
273.5472579999998
 20
-284.2477339999998
 30
0.0
 40
4.666305999999999
 50
224.9999819999993
 51
315.0000190000001
  0
ARC
  5
7A2
  8
DETAIL
  6
CONTINUOUS
 62
     5
 10
282.546075
 20
-281.8480009999996
 30
0.0
 40
1.696838999999999
 50
315.000019
 51
44.99989199999917
  0
ARC
  5
7A3
  8
DETAIL
  6
CONTINUOUS
 62
     5
 10
282.546075
 20
-283.0478479999997
 30
0.0
 40
3.393676999999998
 50
314.9995820000005
 51
44.9998920000006
  0
ARC
  5
7A4
  8
DETAIL
  6
CONTINUOUS
 62
     5
 10
273.5471800000001
 20
-284.2477339999998
 30
0.0
 40
5.514724
 50
315.000019
 51
12.79680700000022
  0
LINE
  5
7A5
  8
DETAIL
  6
CONTINUOUS
 62
     5
 10
278.0466240000003
 20
-288.7472609999998
 30
0.0
 11
283.7459650000001
 21
-283.0478799999997
 31
0.0
  0
LINE
  5
7A6
  8
DETAIL
  6
CONTINUOUS
 62
     5
 10
281.6460790000004
 20
-288.7472119999997
 30
0.0
 11
284.945776
 21
-285.4475529999997
 31
0.0
  0
ARC
  5
7A7
  8
DETAIL
  6
CONTINUOUS
 62
     5
 10
273.5471800000001
 20
-284.2477729999998
 30
0.0
 40
6.363142999999999
 50
224.9999819999994
 51
315.0000189999998
  0
ARC
  5
7A8
  8
DETAIL
  6
CONTINUOUS
 62
     5
 10
275.3468740000001
 20
-282.4480019999997
 30
0.0
 40
8.908400999999996
 50
224.9999819999997
 51
315.0000190000001
  0
ARC
  5
7A9
  8
DETAIL
  6
CONTINUOUS
 62
     5
 10
273.5472579999998
 20
-284.2477339999998
 30
0.0
 40
5.514724
 50
192.7955499999999
 51
315.000019
  0
LINE
  5
7AA
  8
DETAIL
  6
CONTINUOUS
 62
     5
 10
278.2134740000001
 20
-290.8825869999999
 30
0.0
 11
278.2134740000001
 21
-346.9802989999999
 31
0.0
  0
LINE
  5
7AB
  8
DETAIL
  6
CONTINUOUS
 62
     5
 10
268.8808480000002
 20
-288.5803359999998
 30
0.0
 11
268.8808480000002
 21
-346.9802989999999
 31
0.0
  0
ARC
  5
7AC
  8
DETAIL
  6
CONTINUOUS
 62
     5
 10
271.2139980000003
 20
-344.9685649999996
 30
0.0
 40
3.080691999999999
 50
220.7692110000004
 51
319.2307889999996
  0
ARC
  5
7AD
  8
DETAIL
  6
CONTINUOUS
 62
     5
 10
275.8802979999999
 20
-344.9685649999996
 30
0.0
 40
3.080691999999999
 50
220.7692110000004
 51
319.2307889999996
  0
ARC
  5
7AE
  8
DETAIL
  6
CONTINUOUS
 62
     5
 10
271.2139980000003
 20
-348.9920329999998
 30
0.0
 40
3.080691999999999
 50
40.76921100000041
 51
139.2307889999996
  0
ARC
  5
7AF
  8
DETAIL
  6
CONTINUOUS
 62
     5
 10
275.8802979999999
 20
-362.0511209999997
 30
0.0
 40
3.080691999999999
 50
220.7692110000004
 51
319.2307889999996
  0
ARC
  5
7B0
  8
DETAIL
  6
CONTINUOUS
 62
     5
 10
275.8802979999999
 20
-366.0745889999997
 30
0.0
 40
3.080691999999999
 50
40.76921100000041
 51
139.2307889999996
  0
ARC
  5
7B1
  8
DETAIL
  6
CONTINUOUS
 62
     5
 10
271.2139980000003
 20
-366.0745889999997
 30
0.0
 40
3.080691999999999
 50
40.76921100000041
 51
139.2307889999996
  0
LINE
  5
7B2
  8
DETAIL
  6
CONTINUOUS
 62
     5
 10
290.0452910000001
 20
-233.0933639999997
 30
0.0
 11
300.8518180000003
 21
-239.3230089999997
 31
0.0
  0
LINE
  5
7B3
  8
DETAIL
  6
CONTINUOUS
 62
     5
 10
300.8518170000003
 20
-239.3230139999998
 30
0.0
 11
300.8518170000003
 21
-251.7823039999997
 31
0.0
  0
LINE
  5
7B4
  8
DETAIL
  6
CONTINUOUS
 62
     5
 10
279.2387569999997
 20
-251.7823039999997
 30
0.0
 11
279.2387569999997
 21
-239.3230139999998
 31
0.0
  0
LINE
  5
7B5
  8
DETAIL
  6
CONTINUOUS
 62
     5
 10
279.2387560000003
 20
-239.3230089999997
 30
0.0
 11
290.045283
 21
-233.0933639999997
 31
0.0
  0
LINE
  5
7B6
  8
DETAIL
  6
CONTINUOUS
 62
     5
 10
290.0451580000001
 20
-216.7562989999998
 30
0.0
 11
254.9505920000004
 21
-251.8508059999998
 31
0.0
  0
LINE
  5
7B7
  8
DETAIL
  6
CONTINUOUS
 62
     5
 10
290.0451520000004
 20
-216.7562199999998
 30
0.0
 11
311.6423170000003
 21
-238.3534329999998
 31
0.0
  0
LINE
  5
7B8
  8
DETAIL
  6
CONTINUOUS
 62
     5
 10
300.8518180000003
 20
-251.7823089999999
 30
0.0
 11
290.0452910000001
 21
-258.0119549999998
 31
0.0
  0
LINE
  5
7B9
  8
DETAIL
  6
CONTINUOUS
 62
     5
 10
311.6423080000004
 20
-252.7516269999998
 30
0.0
 11
311.6423080000004
 21
-238.3534579999997
 31
0.0
  0
LINE
  5
7BA
  8
DETAIL
  6
CONTINUOUS
 62
     5
 10
290.045283
 20
-258.0119549999998
 30
0.0
 11
279.2387560000003
 21
-251.7823089999999
 31
0.0
  0
ARC
  5
7BB
  8
DETAIL
  6
CONTINUOUS
 62
     5
 10
71.875338
 20
-46.013747
 30
0.0
 40
50.634547
 50
299.2541459999998
 51
353.0737399999999
  0
ARC
  5
7BC
  8
DETAIL
  6
CONTINUOUS
 62
     5
 10
112.6962270000001
 20
-136.6837219999997
 30
0.0
 40
5.090513999999997
 50
45.00000099999979
 51
95.7106759999995
  0
ARC
  5
7BD
  8
DETAIL
  6
CONTINUOUS
 62
     5
 10
113.7870570000002
 20
-136.5747049999998
 30
0.0
 40
13.574709
 50
45.00008999999985
 51
95.71067599999975
  0
LINE
  5
7BE
  8
DETAIL
  6
CONTINUOUS
 62
     5
 10
117.4906350000003
 20
-113.8816339999998
 30
0.0
 11
96.26194600000002
 21
-89.98476599999991
 31
0.0
  0
LINE
  5
7BF
  8
DETAIL
  6
CONTINUOUS
 62
     5
 10
123.3045090000003
 20
-126.8953019999999
 30
0.0
 11
91.22401500000024
 21
-91.90433
 31
0.0
  0
LINE
  5
7C0
  8
DETAIL
  6
CONTINUOUS
 62
     5
 10
95.0
 20
-86.66407999999988
 30
0.0
 11
95.0
 21
-77.55588999999985
 31
0.0
  0
ARC
  5
7C1
  8
DETAIL
  6
CONTINUOUS
 62
     5
 10
100.0
 20
-86.66407999999988
 30
0.0
 40
5.0
 50
180.0
 51
221.6161609999999
  0
ARC
  5
7C2
  8
DETAIL
  6
CONTINUOUS
 62
     5
 10
81.95998100000014
 20
-122.8693729999998
 30
0.0
 40
5.090513999999997
 50
210.0001219999999
 51
275.7106400000001
  0
ARC
  5
7C3
  8
DETAIL
  6
CONTINUOUS
 62
     5
 10
81.49664900000005
 20
-122.9155899999998
 30
0.0
 40
13.574709
 50
209.9998109999999
 51
275.7106399999999
  0
LINE
  5
7C4
  8
DETAIL
  6
CONTINUOUS
 62
     5
 10
89.90950000000004
 20
-79.40762799999985
 30
0.0
 11
89.90950000000004
 21
-88.52539599999993
 31
0.0
  0
ARC
  5
7C5
  8
DETAIL
  6
CONTINUOUS
 62
     5
 10
94.90950000000004
 20
-88.52539599999993
 30
0.0
 40
5.0
 50
180.0
 51
222.5152839999997
  0
LINE
  5
7C6
  8
DETAIL
  6
CONTINUOUS
 62
     5
 10
82.46650400000004
 20
-127.9345819999998
 30
0.0
 11
112.436309
 21
-123.0674069999997
 31
0.0
  0
LINE
  5
7C7
  8
DETAIL
  6
CONTINUOUS
 62
     5
 10
112.1897010000001
 20
-131.6185369999998
 30
0.0
 11
82.84737300000012
 21
-136.4229899999998
 31
0.0
  0
ARC
  5
7C8
  8
DETAIL
  6
CONTINUOUS
 62
     5
 10
0.0000020000002223
 20
172.0164499999999
 30
0.0
 40
267.01645
 50
282.216174
 51
290.84146
  0
LINE
  5
7C9
  8
DETAIL
  6
CONTINUOUS
 62
     5
 10
128.701874
 20
-132.2920159999997
 30
0.0
 11
120.9028280000002
 21
-140.0910609999998
 31
0.0
  0
LINE
  5
7CA
  8
DETAIL
  6
CONTINUOUS
 62
     5
 10
122.1027310000001
 20
-138.8911999999998
 30
0.0
 11
116.2957250000002
 21
-133.0842339999999
 31
0.0
  0
LINE
  5
7CB
  8
DETAIL
  6
CONTINUOUS
 62
     5
 10
120.9028280000002
 20
-140.0910609999998
 30
0.0
 11
126.902023
 21
-146.0902549999998
 31
0.0
  0
LINE
  5
7CC
  8
DETAIL
  6
CONTINUOUS
 62
     5
 10
134.7010680000004
 20
-138.2912099999998
 30
0.0
 11
126.902023
 21
-146.0902549999998
 31
0.0
  0
ARC
  5
7CD
  8
DETAIL
  6
CONTINUOUS
 62
     5
 10
102.3651990000001
 20
-71.85432999999989
 30
0.0
 40
37.773122
 50
68.32945700000003
 51
101.2438579999999
  0
ARC
  5
7CE
  8
DETAIL
  6
CONTINUOUS
 62
     5
 10
113.899546
 20
-46.45514900000001
 30
0.0
 40
10.0
 50
325.4954910000001
 51
76.0302470000002
  0
ARC
  5
7CF
  8
DETAIL
  6
CONTINUOUS
 62
     5
 10
55.58583300000015
 20
-17.09019000000001
 30
0.0
 40
235.416623
 50
329.5554979999999
 51
358.2142569999997
  0
ARC
  5
7D0
  8
DETAIL
  6
CONTINUOUS
 62
     5
 10
55.58583300000015
 20
-17.09019000000001
 30
0.0
 40
229.166624
 50
329.572476
 51
358.2129450000002
  0
LINE
  5
7D1
  8
DETAIL
  6
CONTINUOUS
 62
     5
 10
258.5432990000003
 20
-136.3766259999997
 30
0.0
 11
250.8563689999998
 21
-148.5831729999998
 31
0.0
  0
LINE
  5
7D2
  8
DETAIL
  6
CONTINUOUS
 62
     5
 10
253.1894470000003
 20
-133.1511799999998
 30
0.0
 11
245.495868
 21
-145.3536679999997
 31
0.0
  0
ARC
  5
7D3
  8
DETAIL
  6
CONTINUOUS
 62
     5
 10
287.5562600000001
 20
-24.32736199999999
 30
0.0
 40
2.916666999999998
 50
88.93485100000069
 51
178.212964
  0
LINE
  5
7D4
  8
DETAIL
  6
CONTINUOUS
 62
     5
 10
232.4413140000001
 20
-4.328801999999998
 30
0.0
 11
232.0246300000002
 21
-4.321032999999996
 31
0.0
  0
ARC
  5
7D5
  8
DETAIL
  6
CONTINUOUS
 62
     5
 10
287.9728830000001
 20
-24.33513899999999
 30
0.0
 40
2.916666999999998
 50
358.21442
 51
88.93485100000069
  0
LINE
  5
7D6
  8
DETAIL
  6
CONTINUOUS
 62
     5
 10
-91.50067899999976
 20
105.821076
 30
0.0
 11
-279.0335889999999
 21
282.6819989999998
 31
0.0
  0
LINE
  5
7D7
  8
DETAIL
  6
CONTINUOUS
 62
     5
 10
-96.59117999999978
 20
103.6109929999999
 30
0.0
 11
-282.6331729999997
 21
279.0824599999998
 31
0.0
  0
LINE
  5
7D8
  8
DETAIL
  6
CONTINUOUS
 62
     5
 10
-215.1417769999998
 20
288.9810589999998
 30
0.0
 11
-248.3224969999998
 21
255.8002949999999
 31
0.0
  0
LINE
  5
7D9
  8
DETAIL
  6
CONTINUOUS
 62
     5
 10
-233.1318159999998
 20
295.2110119999999
 30
0.0
 11
-233.1318159999998
 21
282.7517219999999
 31
0.0
  0
LINE
  5
7DA
  8
DETAIL
  6
CONTINUOUS
 62
     5
 10
-254.7448749999998
 20
282.7517219999999
 30
0.0
 11
-254.7448749999998
 21
295.2110119999999
 31
0.0
  0
LINE
  5
7DB
  8
DETAIL
  6
CONTINUOUS
 62
     5
 10
-251.1371889999998
 20
310.5786029999998
 30
0.0
 11
-310.5295129999996
 21
251.1861589999999
 31
0.0
  0
LINE
  5
7DC
  8
DETAIL
  6
CONTINUOUS
 62
     5
 10
-288.9323799999999
 20
215.1906689999998
 30
0.0
 11
-253.7219359999998
 21
250.401053
 31
0.0
  0
LINE
  5
7DD
  8
DETAIL
  6
CONTINUOUS
 62
     5
 10
-278.1259789999999
 20
250.2166739999999
 30
0.0
 11
-278.1259789999999
 21
237.7573849999999
 31
0.0
  0
LINE
  5
7DE
  8
DETAIL
  6
CONTINUOUS
 62
     5
 10
-288.932512
 20
231.5277339999998
 30
0.0
 11
-299.7390389999998
 21
237.757379
 31
0.0
  0
LINE
  5
7DF
  8
DETAIL
  6
CONTINUOUS
 62
     5
 10
-299.7390389999998
 20
250.2166789999999
 30
0.0
 11
-288.932512
 21
256.4463249999998
 31
0.0
  0
LINE
  5
7E0
  8
DETAIL
  6
CONTINUOUS
 62
     5
 10
-299.7390379999998
 20
237.7573849999999
 30
0.0
 11
-299.7390379999998
 21
250.2166739999999
 31
0.0
  0
LINE
  5
7E1
  8
DETAIL
  6
CONTINUOUS
 62
     5
 10
-310.5295299999997
 20
251.1859979999998
 30
0.0
 11
-310.5295299999997
 21
236.7878279999998
 31
0.0
  0
LINE
  5
7E2
  8
DETAIL
  6
CONTINUOUS
 62
     5
 10
-288.9323729999998
 20
215.1905899999999
 30
0.0
 11
-310.5295389999997
 21
236.7878029999997
 31
0.0
  0
LINE
  5
7E3
  8
DETAIL
  6
CONTINUOUS
 62
     5
 10
-288.9325049999999
 20
256.4463249999998
 30
0.0
 11
-278.1259779999999
 21
250.2166789999999
 31
0.0
  0
LINE
  5
7E4
  8
DETAIL
  6
CONTINUOUS
 62
     5
 10
-278.1259779999999
 20
237.757379
 30
0.0
 11
-288.9325049999999
 21
231.5277339999998
 31
0.0
  0
LINE
  5
7E5
  8
DETAIL
  6
CONTINUOUS
 62
     5
 10
-233.1318149999997
 20
282.7517169999996
 30
0.0
 11
-243.9383419999998
 21
276.5220719999999
 31
0.0
  0
LINE
  5
7E6
  8
DETAIL
  6
CONTINUOUS
 62
     5
 10
-243.9383489999999
 20
276.5220719999999
 30
0.0
 11
-254.7448759999999
 21
282.7517169999996
 31
0.0
  0
LINE
  5
7E7
  8
DETAIL
  6
CONTINUOUS
 62
     5
 10
-251.1371979999998
 20
310.5783879999998
 30
0.0
 11
-236.7390859999998
 21
310.5783879999998
 31
0.0
  0
LINE
  5
7E8
  8
DETAIL
  6
CONTINUOUS
 62
     5
 10
-243.9383419999998
 20
301.4406619999999
 30
0.0
 11
-233.1318149999997
 21
295.2110169999998
 31
0.0
  0
LINE
  5
7E9
  8
DETAIL
  6
CONTINUOUS
 62
     5
 10
-215.1417579999998
 20
288.9811979999998
 30
0.0
 11
-236.7391059999998
 21
310.5784759999997
 31
0.0
  0
LINE
  5
7EA
  8
DETAIL
  6
CONTINUOUS
 62
     5
 10
-254.7448759999999
 20
295.2110169999998
 30
0.0
 11
-243.9383489999999
 21
301.4406619999999
 31
0.0
  0
ARC
  5
7EB
  8
DETAIL
  6
CONTINUOUS
 62
     5
 10
0.0000020000002223
 20
-172.0164499999998
 30
0.0
 40
267.01645
 50
69.15854000000002
 51
110.841461
  0
ARC
  5
7EC
  8
DETAIL
  6
CONTINUOUS
 62
     5
 10
-10.92833099999996
 20
54.06334300000002
 30
0.0
 40
229.166624
 50
72.14976599999997
 51
115.7056639999999
  0
ARC
  5
7ED
  8
DETAIL
  6
CONTINUOUS
 62
     5
 10
-10.92833099999996
 20
54.06334300000002
 30
0.0
 40
235.416623
 50
72.14845500000001
 51
115.706975
  0
LINE
  5
7EE
  8
DETAIL
  6
CONTINUOUS
 62
     5
 10
-94.99999999999977
 20
77.528705
 30
0.0
 11
-94.99999999999977
 21
99.953132
 31
0.0
  0
LINE
  5
7EF
  8
DETAIL
  6
CONTINUOUS
 62
     5
 10
-89.90949999999975
 20
79.40762599999998
 30
0.0
 11
-89.90949999999975
 21
102.1632149999999
 31
0.0
  0
LINE
  5
7F0
  8
DETAIL
  6
CONTINUOUS
 62
     5
 10
-118.6304829999998
 20
22.231444
 30
0.0
 11
-94.99999999999977
 21
22.231444
 31
0.0
  0
ARC
  5
7F1
  8
DETAIL
  6
CONTINUOUS
 62
     5
 10
-118.6304829999998
 20
9.731445000000003
 30
0.0
 40
12.499999
 50
90.0
 51
163.269278
  0
ARC
  5
7F2
  8
DETAIL
  6
CONTINUOUS
 62
     5
 10
-99.99999999999977
 20
99.953132
 30
0.0
 40
5.0
 50
0.0
 51
47.01835699999985
  0
ARC
  5
7F3
  8
DETAIL
  6
CONTINUOUS
 62
     5
 10
-94.90949999999975
 20
102.1632149999999
 30
0.0
 40
5.0
 50
0.0
 51
47.01834700000005
  0
ARC
  5
7F4
  8
DETAIL
  6
CONTINUOUS
 62
     5
 10
-111.5944369999999
 20
263.1781379999999
 30
0.0
 40
2.916666999999998
 50
206.4275869999996
 51
295.7057000000003
  0
ARC
  5
7F5
  8
DETAIL
  6
CONTINUOUS
 62
     5
 10
-111.7798869999999
 20
263.5512799999998
 30
0.0
 40
2.916666999999998
 50
115.7071630000003
 51
206.4275869999996
  0
LINE
  5
7F6
  8
DETAIL
  6
CONTINUOUS
 62
     5
 10
-114.3917409999999
 20
262.2531739999999
 30
0.0
 11
-114.206294
 21
261.8800369999998
 31
0.0
  0
LINE
  5
7F7
  8
DETAIL
  6
CONTINUOUS
 62
     5
 10
96.59118000000024
 20
103.6109929999999
 30
0.0
 11
284.1242069999998
 21
280.4751399999999
 31
0.0
  0
LINE
  5
7F8
  8
DETAIL
  6
CONTINUOUS
 62
     5
 10
91.50067900000005
 20
105.821076
 30
0.0
 11
280.5246230000001
 21
284.0746789999998
 31
0.0
  0
LINE
  5
7F9
  8
DETAIL
  6
CONTINUOUS
 62
     5
 10
95.0
 20
77.528705
 30
0.0
 11
95.0
 21
99.953132
 31
0.0
  0
LINE
  5
7FA
  8
DETAIL
  6
CONTINUOUS
 62
     5
 10
89.90950000000004
 20
79.40762599999998
 30
0.0
 11
89.90950000000004
 21
102.1632149999999
 31
0.0
  0
ARC
  5
7FB
  8
DETAIL
  6
CONTINUOUS
 62
     5
 10
100.0
 20
99.953132
 30
0.0
 40
5.0
 50
132.9816430000002
 51
180.0
  0
ARC
  5
7FC
  8
DETAIL
  6
CONTINUOUS
 62
     5
 10
94.90950000000004
 20
102.1632149999999
 30
0.0
 40
5.0
 50
132.9816529999998
 51
180.0
  0
ARC
  5
7FD
  8
DETAIL
  6
CONTINUOUS
 62
     5
 10
60.21218600000003
 20
274.9743569999999
 30
0.0
 40
2.916666999999998
 50
252.1502940000002
 51
341.427806
  0
ARC
  5
7FE
  8
DETAIL
  6
CONTINUOUS
 62
     5
 10
60.344877
 20
275.3693479999999
 30
0.0
 40
2.916666999999998
 50
341.427806
 51
72.14807200000016
  0
LINE
  5
7FF
  8
DETAIL
  6
CONTINUOUS
 62
     5
 10
63.1096290000001
 20
274.4403939999998
 30
0.0
 11
62.97693900000002
 21
274.0454069999999
 31
0.0
  0
LINE
  5
800
  8
DETAIL
  6
CONTINUOUS
 62
     5
 10
256.2359100000003
 20
284.144402
 30
0.0
 11
256.2359100000003
 21
296.6036919999998
 31
0.0
  0
LINE
  5
801
  8
DETAIL
  6
CONTINUOUS
 62
     5
 10
234.62285
 20
296.6036919999998
 30
0.0
 11
234.62285
 21
284.144402
 31
0.0
  0
LINE
  5
802
  8
DETAIL
  6
CONTINUOUS
 62
     5
 10
252.6282230000001
 20
311.9712829999997
 30
0.0
 11
312.0205470000002
 21
252.5788389999999
 31
0.0
  0
LINE
  5
803
  8
DETAIL
  6
CONTINUOUS
 62
     5
 10
216.6328120000003
 20
290.3737389999998
 30
0.0
 11
249.8135310000002
 21
257.1929749999999
 31
0.0
  0
LINE
  5
804
  8
DETAIL
  6
CONTINUOUS
 62
     5
 10
245.4293840000001
 20
277.9147509999998
 30
0.0
 11
256.2359110000003
 21
284.1443969999999
 31
0.0
  0
LINE
  5
805
  8
DETAIL
  6
CONTINUOUS
 62
     5
 10
234.6228490000004
 20
284.1443969999999
 30
0.0
 11
245.4293760000003
 21
277.9147509999998
 31
0.0
  0
LINE
  5
806
  8
DETAIL
  6
CONTINUOUS
 62
     5
 10
312.0205640000004
 20
252.5786769999999
 30
0.0
 11
312.0205640000004
 21
238.1805079999999
 31
0.0
  0
LINE
  5
807
  8
DETAIL
  6
CONTINUOUS
 62
     5
 10
290.4234140000003
 20
216.5833489999999
 30
0.0
 11
255.2129700000003
 21
251.7937329999999
 31
0.0
  0
LINE
  5
808
  8
DETAIL
  6
CONTINUOUS
 62
     5
 10
279.6170120000001
 20
239.1500589999999
 30
0.0
 11
290.4235390000001
 21
232.9204139999999
 31
0.0
  0
LINE
  5
809
  8
DETAIL
  6
CONTINUOUS
 62
     5
 10
279.6170130000003
 20
251.609354
 30
0.0
 11
279.6170130000003
 21
239.1500639999999
 31
0.0
  0
LINE
  5
80A
  8
DETAIL
  6
CONTINUOUS
 62
     5
 10
290.4235390000001
 20
257.8390039999999
 30
0.0
 11
279.6170120000001
 21
251.6093589999998
 31
0.0
  0
LINE
  5
80B
  8
DETAIL
  6
CONTINUOUS
 62
     5
 10
301.2300719999998
 20
239.1500639999999
 30
0.0
 11
301.2300719999998
 21
251.609354
 31
0.0
  0
LINE
  5
80C
  8
DETAIL
  6
CONTINUOUS
 62
     5
 10
301.2300740000001
 20
251.6093589999998
 30
0.0
 11
290.4235470000004
 21
257.8390039999999
 31
0.0
  0
LINE
  5
80D
  8
DETAIL
  6
CONTINUOUS
 62
     5
 10
290.4235470000004
 20
232.9204139999999
 30
0.0
 11
301.2300740000001
 21
239.1500589999999
 31
0.0
  0
LINE
  5
80E
  8
DETAIL
  6
CONTINUOUS
 62
     5
 10
290.4234080000001
 20
216.5832699999999
 30
0.0
 11
312.0205730000001
 21
238.1804829999998
 31
0.0
  0
LINE
  5
80F
  8
DETAIL
  6
CONTINUOUS
 62
     5
 10
252.6282320000001
 20
311.9710679999998
 30
0.0
 11
238.2301210000001
 21
311.9710679999998
 31
0.0
  0
LINE
  5
810
  8
DETAIL
  6
CONTINUOUS
 62
     5
 10
256.2359110000003
 20
296.6036969999999
 30
0.0
 11
245.4293840000001
 21
302.833342
 31
0.0
  0
LINE
  5
811
  8
DETAIL
  6
CONTINUOUS
 62
     5
 10
245.4293760000003
 20
302.833342
 30
0.0
 11
234.6228490000004
 21
296.6036969999999
 31
0.0
  0
LINE
  5
812
  8
DETAIL
  6
CONTINUOUS
 62
     5
 10
216.6327930000002
 20
290.3738779999996
 30
0.0
 11
238.2301400000002
 21
311.9711559999999
 31
0.0
  0
LINE
  5
813
  8
SIZE
  6
CONTINUOUS
 62
    30
 10
-19.99999999999977
 20
65.49999999999996
 30
0.0
 11
-459.2918479999998
 21
65.49999999999996
 31
0.0
  0
LINE
  5
814
  8
SIZE
  6
CONTINUOUS
 62
    30
 10
-19.99999999999977
 20
-65.49999999999991
 30
0.0
 11
-459.2918479999998
 21
-65.49999999999991
 31
0.0
  0
LINE
  5
815
  8
SIZE
  6
CONTINUOUS
 62
    30
 10
-439.2918479999998
 20
77.49999999999999
 30
0.0
 11
-439.2918479999998
 21
89.5
 31
0.0
  0
LINE
  5
816
  8
SIZE
  6
CONTINUOUS
 62
    30
 10
-439.2918479999998
 20
-77.49999999999994
 30
0.0
 11
-439.2918479999998
 21
-89.49999999999994
 31
0.0
  0
LINE
  5
817
  8
SIZE
  6
CONTINUOUS
 62
    30
 10
-439.2918479999998
 20
65.49999999999996
 30
0.0
 11
-439.2918479999998
 21
-65.49999999999991
 31
0.0
  0
CIRCLE
  5
818
  8
SIZE
  6
CONTINUOUS
 62
    30
 10
-439.2918479999998
 20
65.49999999999996
 30
0.0
 40
6.0
  0
LINE
  5
819
  8
SIZE
  6
CONTINUOUS
 62
    30
 10
-439.2918479999998
 20
65.49999999999996
 30
0.0
 11
-439.2918479999998
 21
77.49999999999999
 31
0.0
  0
CIRCLE
  5
81A
  8
SIZE
  6
CONTINUOUS
 62
    30
 10
-439.2918479999998
 20
-65.49999999999991
 30
0.0
 40
6.0
  0
LINE
  5
81B
  8
SIZE
  6
CONTINUOUS
 62
    30
 10
-439.2918479999998
 20
-65.49999999999991
 30
0.0
 11
-439.2918479999998
 21
-77.49999999999994
 31
0.0
  0
TEXT
  5
81C
  8
SIZE
  6
CONTINUOUS
 62
    30
 10
-464.2918479999998
 20
-98.74285714285715
 30
0.0
 40
64.0
  1
φ131
 50
90.0
 41
0.9
 72
     1
 11
-464.2918479999998
 21
0.0
 31
0.0
  0
ARC
  5
81D
  8
DETAIL
  6
CONTINUOUS
 62
     5
 10
-171.4061549999999
 20
55.57318700000003
 30
0.0
 40
148.73264
 50
14.80101000000002
 51
98.77035899999998
  0
ARC
  5
81E
  8
DETAIL
  6
CONTINUOUS
 62
     5
 10
-198.0822339999997
 20
211.9467819999997
 30
0.0
 40
9.9
 50
133.0633629999998
 51
161.021238
  0
ARC
  5
81F
  8
DETAIL
  6
CONTINUOUS
 62
     5
 10
0.0
 20
0.0
 30
0.0
 40
300.0
 50
70.61608299999999
 51
133.0633629999999
  0
ARC
  5
820
  8
DETAIL
  6
CONTINUOUS
 62
     5
 10
0.0
 20
0.0
 30
0.0
 40
300.0
 50
326.9142309999999
 51
16.69681399999998
  0
ARC
  5
821
  8
DETAIL
  6
CONTINUOUS
 62
     5
 10
0.0
 20
0.0
 30
0.0
 40
300.0
 50
311.6012319999999
 51
312.6955609999999
  0
ARC
  5
822
  8
DETAIL
  6
CONTINUOUS
 62
     5
 10
216.2857700000002
 20
-3.67402599999997
 30
0.0
 40
223.9435049999999
 50
203.995426
 51
263.980519
  0
ARC
  5
823
  8
DETAIL
  6
CONTINUOUS
 62
     5
 10
193.6719680000003
 20
-218.1285379999997
 30
0.0
 40
8.3
 50
263.9805189999997
 51
311.6012319999998
  0
ARC
  5
824
  8
DETAIL
  6
CONTINUOUS
 62
     5
 10
-72.53722399999975
 20
-345.9340509999996
 30
0.0
 40
386.55383
 50
93.33135400000002
 51
124.993966
  0
ARC
  5
825
  8
DETAIL
  6
CONTINUOUS
 62
     5
 10
-289.4620739999998
 20
-36.063804
 30
0.0
 40
8.3
 50
124.9939659999997
 51
187.101832
  0
ARC
  5
826
  8
DETAIL
  6
CONTINUOUS
 62
     5
 10
0.0
 20
0.0
 30
0.0
 40
300.0
 50
187.101832
 51
252.240468
  0
ARC
  5
827
  8
DETAIL
  6
CONTINUOUS
 62
     5
 10
-143.4132369999998
 20
-242.9264149999999
 30
0.0
 40
2.916666999999998
 50
323.57322
 51
54.29354100000032
  0
LINE
  5
828
  8
DETAIL
  6
CONTINUOUS
 62
     5
 10
-141.0664289999999
 20
-244.6583239999997
 30
0.0
 11
-141.3138739999998
 21
-244.9936219999997
 31
0.0
  0
ARC
  5
829
  8
DETAIL
  6
CONTINUOUS
 62
     5
 10
-143.6606509999999
 20
-243.2617349999999
 30
0.0
 40
2.916666999999998
 50
234.2957460000002
 51
323.57322
  0
ARC
  5
82A
  8
DETAIL
  6
CONTINUOUS
 62
     5
 10
159.5809140000002
 20
-197.2014109999997
 30
0.0
 40
253.47222
 50
154.0104289999999
 51
198.019352
  0
ARC
  5
82B
  8
DETAIL
  6
CONTINUOUS
 62
     5
 10
-89.06663999999978
 20
-278.0847599999998
 30
0.0
 40
8.0
 50
252.2404680000002
 51
18.01935199999976
  0
ARC
  5
82C
  8
DETAIL
  6
CONTINUOUS
 62
     5
 10
126.542991
 20
120.066546
 30
0.0
 40
149.3598509999999
 50
257.8080259999999
 51
346.7103879999999
  0
ARC
  5
82D
  8
DETAIL
  6
CONTINUOUS
 62
     5
 10
279.6888340000003
 20
83.89371799999998
 30
0.0
 40
8.0
 50
16.69681399999991
 51
166.7103879999999
  0
LINE
  5
82E
  8
DETAIL
  6
CONTINUOUS
 62
     5
 10
251.3562980000003
 20
-163.7681639999997
 30
0.0
 11
243.1938130000001
 21
-175.6609499999998
 31
0.0
  0
ARC
  5
82F
  8
DETAIL
  6
CONTINUOUS
 62
     5
 10
-317.7922849999997
 20
203.9154259999997
 30
0.0
 40
426.289734
 50
347.616608
 51
10.37763499999997
  0
ARC
  5
830
  8
DETAIL
  6
CONTINUOUS
 62
     5
 10
98.573216
 20
280.1648109999999
 30
0.0
 40
3.0
 50
10.37763499999983
 51
70.6160829999998
  0
LINE
  5
831
  8
DETAIL
  6
CONTINUOUS
 62
     5
 10
-20.36926099999988
 20
94.22193499999996
 30
0.0
 11
-22.0612439999997
 21
98.166861
 31
0.0
  0
ARC
  5
832
  8
DETAIL
  6
CONTINUOUS
 62
     5
 10
7.994471000000146
 20
-21.01114699999999
 30
0.0
 40
147.5967639999998
 50
61.74684200000001
 51
95.24986400000002
  0
LINE
  5
833
  8
DETAIL
  6
CONTINUOUS
 62
     5
 10
79.993582
 20
82.73600199999998
 30
0.0
 11
82.95300900000024
 21
98.32825700000001
 31
0.0
  0
ARC
  5
834
  8
DETAIL
  6
CONTINUOUS
 62
     5
 10
-3.680537999999899
 20
106.050366
 30
0.0
 40
20.0
 50
95.24986400000006
 51
203.214548
  0
ARC
  5
835
  8
DETAIL
  6
CONTINUOUS
 62
     5
 10
73.1284060000001
 20
100.192978
 30
0.0
 40
10.0
 50
349.2530330000001
 51
61.74684200000002
  0
ARC
  5
836
  8
DETAIL
  6
CONTINUOUS
 62
     5
 10
244.3989560000002
 20
20944.56999999997
 30
0.0
 40
21274.74
 50
270.091067
 51
270.0920489999999
  0
LINE
  5
837
  8
DETAIL
  6
CONTINUOUS
 62
     5
 10
284.345925
 20
-280.0482099999998
 30
0.0
 11
311.6422910000001
 21
-252.7517889999998
 31
0.0
  0
LINE
  5
838
  8
SIZE
  6
CONTINUOUS
 62
    30
 10
-756.5146209999994
 20
-211.6398989999998
 30
0.0
 11
-300.4637609999999
 21
-84.05669699999987
 31
0.0
  0
LINE
  5
839
  8
SIZE
  6
CONTINUOUS
 62
    30
 10
300.463761
 20
84.05669699999999
 30
0.0
 11
312.0200600000001
 21
87.28964699999999
 31
0.0
  0
TEXT
  5
83A
  8
SIZE
  6
CONTINUOUS
 62
    30
 10
-745.7779400260592
 20
-182.6763175379959
 30
0.0
 40
64.0
  1
φ600
 50
15.629281
 41
0.9
 72
     1
 11
-642.7617789999996
 21
-153.8569299999998
 31
0.0
  0
LINE
  5
83B
  8
SIZE
  6
CONTINUOUS
 62
    30
 10
288.9074630000001
 20
80.82374700000003
 30
0.0
 11
-288.9074629999999
 21
-80.8237469999999
 31
0.0
  0
CIRCLE
  5
83C
  8
SIZE
  6
CONTINUOUS
 62
    30
 10
288.9074630000001
 20
80.82374700000003
 30
0.0
 40
6.0
  0
LINE
  5
83D
  8
SIZE
  6
CONTINUOUS
 62
    30
 10
288.9074630000001
 20
80.82374700000003
 30
0.0
 11
300.463761
 21
84.05669699999999
 31
0.0
  0
CIRCLE
  5
83E
  8
SIZE
  6
CONTINUOUS
 62
    30
 10
-288.9074629999999
 20
-80.8237469999999
 30
0.0
 40
6.0
  0
LINE
  5
83F
  8
SIZE
  6
CONTINUOUS
 62
    30
 10
-288.9074629999999
 20
-80.8237469999999
 30
0.0
 11
-300.4637609999999
 21
-84.05669699999987
 31
0.0
  0
ARC
  5
840
  8
DETAIL
  6
CONTINUOUS
 62
     5
 10
-198.0822339999997
 20
211.9467819999997
 30
0.0
 40
9.9
 50
204.60085
 51
248.7488129999999
  0
ARC
  5
841
  8
DETAIL
  6
CONTINUOUS
 62
     5
 10
0.0
 20
0.0
 30
0.0
 40
305.0
 50
45.990974
 51
134.0078499999999
  0
ARC
  5
842
  8
DETAIL
  6
CONTINUOUS
 62
     5
 10
0.0
 20
0.0
 30
0.0
 40
352.4999999999997
 50
45.63088400000001
 51
134.367805
  0
ARC
  5
843
  8
DETAIL
  6
CONTINUOUS
 62
     5
 10
0.0
 20
0.0
 30
0.0
 40
352.4999999999997
 50
315.3676680000001
 51
44.803001
  0
ARC
  5
844
  8
DETAIL
  6
CONTINUOUS
 62
     5
 10
0.0
 20
0.0
 30
0.0
 40
305.0
 50
315.438628
 51
45.03356299999999
  0
ARC
  5
845
  8
DETAIL
  6
CONTINUOUS
 62
     5
 10
0.0
 20
0.0
 30
0.0
 40
300.0
 50
315.447404
 51
324.1591
  0
TEXT
  5
846
  8
ETC
  6
CONTINUOUS
 62
    61
 10
654.2736871223501
 20
656.1620899367169
 30
0.0
 40
64.0
  1
EH-60DTB3_2
 41
0.9
  0
TEXT
  5
847
  8
ETC
  6
CONTINUOUS
 62
    61
 10
756.2890952086891
 20
479.97538071068
 30
0.0
 40
50.0
  1
EH-60DTB3
 41
0.9
  0
TEXT
  5
848
  8
ETC
  6
CONTINUOUS
 62
    61
 10
651.065760122349
 20
556.1618089367173
 30
0.0
 40
64.0
  1
産業扇
 41
0.9
  0
TEXT
  5
849
  8
ETC
  6
CONTINUOUS
 62
    61
 10
651.065760122349
 20
556.1618089367173
 30
0.0
 40
64.0
  1
産業扇
 41
0.9
  0
ENDSEC
  0
EOF
